  0
SECTION
  2
HEADER
  9
$ACADVER
  1
AC1015
  9
$ACADMAINTVER
 70
    20
  9
$DWGCODEPAGE
  3
ANSI_932
  9
$INSBASE
 10
0.0
 20
0.0
 30
0.0
  9
$EXTMIN
 10
0.0
 20
0.775
 30
0.0
  9
$EXTMAX
 10
188.95
 20
278.0
 30
0.0
  9
$LIMMIN
 10
0.0
 20
0.0
  9
$LIMMAX
 10
190.0
 20
278.0
  9
$ORTHOMODE
 70
     0
  9
$REGENMODE
 70
     1
  9
$FILLMODE
 70
     1
  9
$QTEXTMODE
 70
     0
  9
$MIRRTEXT
 70
     0
  9
$LTSCALE
 40
1.0
  9
$ATTMODE
 70
     1
  9
$TEXTSIZE
 40
0.2
  9
$TRACEWID
 40
0.05
  9
$TEXTSTYLE
  7
BIGFONT
  9
$CLAYER
  8
0
  9
$CELTYPE
  6
CONTINUOUS
  9
$CECOLOR
 62
   256
  9
$CELTSCALE
 40
1.0
  9
$DISPSILH
 70
     0
  9
$DIMSCALE
 40
1.0
  9
$DIMASZ
 40
0.18
  9
$DIMEXO
 40
0.0625
  9
$DIMDLI
 40
0.38
  9
$DIMRND
 40
0.0
  9
$DIMDLE
 40
0.0
  9
$DIMEXE
 40
0.18
  9
$DIMTP
 40
0.0
  9
$DIMTM
 40
0.0
  9
$DIMTXT
 40
0.18
  9
$DIMCEN
 40
0.09
  9
$DIMTSZ
 40
0.0
  9
$DIMTOL
 70
     0
  9
$DIMLIM
 70
     0
  9
$DIMTIH
 70
     1
  9
$DIMTOH
 70
     1
  9
$DIMSE1
 70
     0
  9
$DIMSE2
 70
     0
  9
$DIMTAD
 70
     0
  9
$DIMZIN
 70
     0
  9
$DIMBLK
  1

  9
$DIMASO
 70
     1
  9
$DIMSHO
 70
     1
  9
$DIMPOST
  1

  9
$DIMAPOST
  1

  9
$DIMALT
 70
     0
  9
$DIMALTD
 70
     2
  9
$DIMALTF
 40
25.4
  9
$DIMLFAC
 40
1.0
  9
$DIMTOFL
 70
     0
  9
$DIMTVP
 40
0.0
  9
$DIMTIX
 70
     0
  9
$DIMSOXD
 70
     0
  9
$DIMSAH
 70
     0
  9
$DIMBLK1
  1

  9
$DIMBLK2
  1

  9
$DIMSTYLE
  2
Standard
  9
$DIMCLRD
 70
     0
  9
$DIMCLRE
 70
     0
  9
$DIMCLRT
 70
     0
  9
$DIMTFAC
 40
1.0
  9
$DIMGAP
 40
0.09
  9
$DIMJUST
 70
     0
  9
$DIMSD1
 70
     0
  9
$DIMSD2
 70
     0
  9
$DIMTOLJ
 70
     1
  9
$DIMTZIN
 70
     0
  9
$DIMALTZ
 70
     0
  9
$DIMALTTZ
 70
     0
  9
$DIMUPT
 70
     0
  9
$DIMDEC
 70
     4
  9
$DIMTDEC
 70
     4
  9
$DIMALTU
 70
     2
  9
$DIMALTTD
 70
     2
  9
$DIMTXSTY
  7
STANDARD
  9
$DIMAUNIT
 70
     0
  9
$DIMADEC
 70
     0
  9
$DIMALTRND
 40
0.0
  9
$DIMAZIN
 70
     0
  9
$DIMDSEP
 70
    46
  9
$DIMATFIT
 70
     3
  9
$DIMFRAC
 70
     0
  9
$DIMLDRBLK
  1

  9
$DIMLUNIT
 70
     2
  9
$DIMLWD
 70
    -2
  9
$DIMLWE
 70
    -2
  9
$DIMTMOVE
 70
     0
  9
$LUNITS
 70
     2
  9
$LUPREC
 70
     4
  9
$SKETCHINC
 40
0.1
  9
$FILLETRAD
 40
0.0
  9
$AUNITS
 70
     0
  9
$AUPREC
 70
     0
  9
$MENU
  1
.
  9
$ELEVATION
 40
0.0
  9
$PELEVATION
 40
0.0
  9
$THICKNESS
 40
0.0
  9
$LIMCHECK
 70
     0
  9
$CHAMFERA
 40
0.0
  9
$CHAMFERB
 40
0.0
  9
$CHAMFERC
 40
0.0
  9
$CHAMFERD
 40
0.0
  9
$SKPOLY
 70
     0
  9
$TDCREATE
 40
2454291.597595660
  9
$TDUCREATE
 40
2454291.222595660
  9
$TDUPDATE
 40
2456553.551827569
  9
$TDUUPDATE
 40
2456553.176827569
  9
$TDINDWG
 40
0.0155557870
  9
$TDUSRTIMER
 40
0.0155557870
  9
$USRTIMER
 70
     1
  9
$ANGBASE
 50
0.0
  9
$ANGDIR
 70
     0
  9
$PDMODE
 70
     0
  9
$PDSIZE
 40
0.0
  9
$PLINEWID
 40
0.0
  9
$SPLFRAME
 70
     0
  9
$SPLINETYPE
 70
     6
  9
$SPLINESEGS
 70
     8
  9
$HANDSEED
  5
4B6
  9
$SURFTAB1
 70
     6
  9
$SURFTAB2
 70
     6
  9
$SURFTYPE
 70
     6
  9
$SURFU
 70
     6
  9
$SURFV
 70
     6
  9
$UCSBASE
  2

  9
$UCSNAME
  2

  9
$UCSORG
 10
0.0
 20
0.0
 30
0.0
  9
$UCSXDIR
 10
1.0
 20
0.0
 30
0.0
  9
$UCSYDIR
 10
0.0
 20
1.0
 30
0.0
  9
$UCSORTHOREF
  2

  9
$UCSORTHOVIEW
 70
     0
  9
$UCSORGTOP
 10
0.0
 20
0.0
 30
0.0
  9
$UCSORGBOTTOM
 10
0.0
 20
0.0
 30
0.0
  9
$UCSORGLEFT
 10
0.0
 20
0.0
 30
0.0
  9
$UCSORGRIGHT
 10
0.0
 20
0.0
 30
0.0
  9
$UCSORGFRONT
 10
0.0
 20
0.0
 30
0.0
  9
$UCSORGBACK
 10
0.0
 20
0.0
 30
0.0
  9
$PUCSBASE
  2

  9
$PUCSNAME
  2

  9
$PUCSORG
 10
0.0
 20
0.0
 30
0.0
  9
$PUCSXDIR
 10
1.0
 20
0.0
 30
0.0
  9
$PUCSYDIR
 10
0.0
 20
1.0
 30
0.0
  9
$PUCSORTHOREF
  2

  9
$PUCSORTHOVIEW
 70
     0
  9
$PUCSORGTOP
 10
0.0
 20
0.0
 30
0.0
  9
$PUCSORGBOTTOM
 10
0.0
 20
0.0
 30
0.0
  9
$PUCSORGLEFT
 10
0.0
 20
0.0
 30
0.0
  9
$PUCSORGRIGHT
 10
0.0
 20
0.0
 30
0.0
  9
$PUCSORGFRONT
 10
0.0
 20
0.0
 30
0.0
  9
$PUCSORGBACK
 10
0.0
 20
0.0
 30
0.0
  9
$USERI1
 70
     0
  9
$USERI2
 70
     0
  9
$USERI3
 70
     0
  9
$USERI4
 70
     0
  9
$USERI5
 70
     0
  9
$USERR1
 40
0.0
  9
$USERR2
 40
0.0
  9
$USERR3
 40
0.0
  9
$USERR4
 40
0.0
  9
$USERR5
 40
0.0
  9
$WORLDVIEW
 70
     1
  9
$SHADEDGE
 70
     3
  9
$SHADEDIF
 70
    70
  9
$TILEMODE
 70
     1
  9
$MAXACTVP
 70
    64
  9
$PINSBASE
 10
0.0
 20
0.0
 30
0.0
  9
$PLIMCHECK
 70
     0
  9
$PEXTMIN
 10
1.000000000000000E+20
 20
1.000000000000000E+20
 30
1.000000000000000E+20
  9
$PEXTMAX
 10
-1.000000000000000E+20
 20
-1.000000000000000E+20
 30
-1.000000000000000E+20
  9
$PLIMMIN
 10
0.0
 20
0.0
  9
$PLIMMAX
 10
12.0
 20
9.0
  9
$UNITMODE
 70
     0
  9
$VISRETAIN
 70
     1
  9
$PLINEGEN
 70
     0
  9
$PSLTSCALE
 70
     1
  9
$TREEDEPTH
 70
  3020
  9
$CMLSTYLE
  2
Standard
  9
$CMLJUST
 70
     0
  9
$CMLSCALE
 40
1.0
  9
$PROXYGRAPHICS
 70
     1
  9
$MEASUREMENT
 70
     0
  9
$CELWEIGHT
370
    -1
  9
$ENDCAPS
280
     0
  9
$JOINSTYLE
280
     0
  9
$LWDISPLAY
290
     0
  9
$INSUNITS
 70
     0
  9
$HYPERLINKBASE
  1

  9
$STYLESHEET
  1

  9
$XEDIT
290
     1
  9
$CEPSNTYPE
380
     0
  9
$PSTYLEMODE
290
     1
  9
$FINGERPRINTGUID
  2
{EF69021F-A32B-4E23-ABB8-FB73EAB54DCF}
  9
$VERSIONGUID
  2
{19EFA917-74B7-4601-8DA6-998CEDDF3F06}
  9
$EXTNAMES
290
     1
  9
$PSVPSCALE
 40
0.0
  9
$OLESTARTUP
290
     0
  0
ENDSEC
  0
SECTION
  2
CLASSES
  0
CLASS
  1
ACDBDICTIONARYWDFLT
  2
AcDbDictionaryWithDefault
  3
ObjectDBX Classes
 90
        0
280
     0
281
     0
  0
CLASS
  1
TABLESTYLE
  2
AcDbTableStyle
  3
ObjectDBX Classes
 90
     4095
280
     0
281
     0
  0
CLASS
  1
DICTIONARYVAR
  2
AcDbDictionaryVar
  3
ObjectDBX Classes
 90
        0
280
     0
281
     0
  0
CLASS
  1
ACDBPLACEHOLDER
  2
AcDbPlaceHolder
  3
ObjectDBX Classes
 90
        0
280
     0
281
     0
  0
CLASS
  1
LAYOUT
  2
AcDbLayout
  3
ObjectDBX Classes
 90
        0
280
     0
281
     0
  0
CLASS
  1
MATERIAL
  2
AcDbMaterial
  3
ObjectDBX Classes
 90
     1153
280
     0
281
     0
  0
CLASS
  1
VISUALSTYLE
  2
AcDbVisualStyle
  3
ObjectDBX Classes
 90
     4095
280
     0
281
     0
  0
CLASS
  1
SCALE
  2
AcDbScale
  3
ObjectDBX Classes
 90
     1153
280
     0
281
     0
  0
CLASS
  1
MLEADERSTYLE
  2
AcDbMLeaderStyle
  3
ACDB_MLEADERSTYLE_CLASS
 90
     4095
280
     0
281
     0
  0
CLASS
  1
CELLSTYLEMAP
  2
AcDbCellStyleMap
  3
ObjectDBX Classes
 90
     1152
280
     0
281
     0
  0
ENDSEC
  0
SECTION
  2
TABLES
  0
TABLE
  2
VPORT
  5
8
102
{ACAD_XDICTIONARY
360
48C
102
}
330
0
100
AcDbSymbolTable
 70
     1
  0
VPORT
  5
42A
330
8
100
AcDbSymbolTableRecord
100
AcDbViewportTableRecord
  2
*Active
 70
     0
 10
0.0
 20
0.0
 11
1.0
 21
1.0
 12
235.5034633004629
 22
139.3817755500573
 13
0.0
 23
0.0
 14
1.0
 24
1.0
 15
0.0
 25
0.0
 16
0.0
 26
0.0
 36
1.0
 17
0.0
 27
0.0
 37
0.0
 40
279.41462928917
 41
1.779141104294478
 42
50.0
 43
0.0
 44
0.0
 50
0.0
 51
0.0
 71
     0
 72
   100
 73
     1
 74
     1
 75
     0
 76
     0
 77
     0
 78
     0
281
     0
 65
     1
110
0.0
120
0.0
130
0.0
111
1.0
121
0.0
131
0.0
112
0.0
122
1.0
132
0.0
 79
     0
146
0.0
  0
ENDTAB
  0
TABLE
  2
LTYPE
  5
5
330
0
100
AcDbSymbolTable
 70
    11
  0
LTYPE
  5
13
330
5
100
AcDbSymbolTableRecord
100
AcDbLinetypeTableRecord
  2
ByBlock
 70
     0
  3

 72
    65
 73
     0
 40
0.0
  0
LTYPE
  5
14
330
5
100
AcDbSymbolTableRecord
100
AcDbLinetypeTableRecord
  2
ByLayer
 70
     0
  3

 72
    65
 73
     0
 40
0.0
  0
LTYPE
  5
15
330
5
100
AcDbSymbolTableRecord
100
AcDbLinetypeTableRecord
  2
CONTINUOUS
 70
     0
  3
実線
 72
    65
 73
     0
 40
0.0
  0
LTYPE
  5
27
330
5
100
AcDbSymbolTableRecord
100
AcDbLinetypeTableRecord
  2
BYBLOCK
 70
     0
  3
BYBLOCK
 72
    65
 73
     0
 40
0.0
  0
LTYPE
  5
28
330
5
100
AcDbSymbolTableRecord
100
AcDbLinetypeTableRecord
  2
BYLAYER
 70
     0
  3
BYLAYER
 72
    65
 73
     0
 40
0.0
  0
LTYPE
  5
29
330
5
100
AcDbSymbolTableRecord
100
AcDbLinetypeTableRecord
  2
DASHED
 70
     0
  3
__ __ __ __ __ __ __ __ __ __ __ __ __ __ __
 72
    65
 73
     2
 40
0.75
 49
0.5
 74
     0
 49
-0.25
 74
     0
  0
LTYPE
  5
2A
330
5
100
AcDbSymbolTableRecord
100
AcDbLinetypeTableRecord
  2
HIDDEN
 70
     0
  3
_ _ _ _ _ _ _ _ _ _ _ _ _ _ _ _ _ _ _ _ _ _ _
 72
    65
 73
     2
 40
0.375
 49
0.25
 74
     0
 49
-0.125
 74
     0
  0
LTYPE
  5
2B
330
5
100
AcDbSymbolTableRecord
100
AcDbLinetypeTableRecord
  2
CENTER
 70
     0
  3
____ _ ____ _ ____ _ ____ _ ____ _ ____ _ ____
 72
    65
 73
     4
 40
2.0
 49
1.25
 74
     0
 49
-0.25
 74
     0
 49
0.25
 74
     0
 49
-0.25
 74
     0
  0
LTYPE
  5
2C
330
5
100
AcDbSymbolTableRecord
100
AcDbLinetypeTableRecord
  2
PHANTOM
 70
     0
  3
_____ _ _ _____ _ _ _____ _ _ _____ _ _ ____
 72
    65
 73
     6
 40
2.5
 49
1.25
 74
     0
 49
-0.25
 74
     0
 49
0.25
 74
     0
 49
-0.25
 74
     0
 49
0.25
 74
     0
 49
-0.25
 74
     0
  0
LTYPE
  5
2D
330
5
100
AcDbSymbolTableRecord
100
AcDbLinetypeTableRecord
  2
DOT
 70
     0
  3
...............................................
 72
    65
 73
     2
 40
0.25
 49
0.0
 74
     0
 49
-0.25
 74
     0
  0
LTYPE
  5
2E
330
5
100
AcDbSymbolTableRecord
100
AcDbLinetypeTableRecord
  2
DASHDOT
 70
     0
  3
__ . __ . __ . __ . __ . __ . __ . __ . __ . __
 72
    65
 73
     4
 40
1.0
 49
0.5
 74
     0
 49
-0.25
 74
     0
 49
0.0
 74
     0
 49
-0.25
 74
     0
  0
LTYPE
  5
2F
330
5
100
AcDbSymbolTableRecord
100
AcDbLinetypeTableRecord
  2
BORDER
 70
     0
  3
__ __ . __ __ . __ __ . __ __ . __ __ . __ __
 72
    65
 73
     6
 40
1.75
 49
0.5
 74
     0
 49
-0.25
 74
     0
 49
0.5
 74
     0
 49
-0.25
 74
     0
 49
0.0
 74
     0
 49
-0.25
 74
     0
  0
LTYPE
  5
30
330
5
100
AcDbSymbolTableRecord
100
AcDbLinetypeTableRecord
  2
DIVIDE
 70
     0
  3
__ . . __ . . __ . . __ . . __ . . __ . . __
 72
    65
 73
     6
 40
1.25
 49
0.5
 74
     0
 49
-0.25
 74
     0
 49
0.0
 74
     0
 49
-0.25
 74
     0
 49
0.0
 74
     0
 49
-0.25
 74
     0
  0
ENDTAB
  0
TABLE
  2
LAYER
  5
2
330
0
100
AcDbSymbolTable
 70
     3
  0
LAYER
  5
10
102
{ACAD_XDICTIONARY
360
482
102
}
330
2
100
AcDbSymbolTableRecord
100
AcDbLayerTableRecord
  2
0
 70
     0
 62
     7
  6
CONTINUOUS
370
    -3
390
F
  0
LAYER
  5
31
102
{ACAD_XDICTIONARY
360
484
102
}
330
2
100
AcDbSymbolTableRecord
100
AcDbLayerTableRecord
  2
E
 70
     0
 62
     7
  6
CONTINUOUS
370
    -3
390
F
  0
LAYER
  5
32
102
{ACAD_XDICTIONARY
360
486
102
}
330
2
100
AcDbSymbolTableRecord
100
AcDbLayerTableRecord
  2
F
 70
     0
 62
     7
  6
CONTINUOUS
370
    -3
390
F
  0
ENDTAB
  0
TABLE
  2
STYLE
  5
3
330
0
100
AcDbSymbolTable
 70
     2
  0
STYLE
  5
11
330
3
100
AcDbSymbolTableRecord
100
AcDbTextStyleTableRecord
  2
STANDARD
 70
     0
 40
0.0
 41
0.5
 50
0.0
 71
     0
 42
0.3
  3
txt
  4

  0
STYLE
  5
26
330
3
100
AcDbSymbolTableRecord
100
AcDbTextStyleTableRecord
  2
BIGFONT
 70
     0
 40
0.0
 41
1.0
 50
0.0
 71
     0
 42
0.2
  3
txt.shx
  4
bigfont
  0
ENDTAB
  0
TABLE
  2
VIEW
  5
6
330
0
100
AcDbSymbolTable
 70
     0
  0
ENDTAB
  0
TABLE
  2
UCS
  5
7
330
0
100
AcDbSymbolTable
 70
     0
  0
ENDTAB
  0
TABLE
  2
APPID
  5
9
330
0
100
AcDbSymbolTable
 70
     2
  0
APPID
  5
12
330
9
100
AcDbSymbolTableRecord
100
AcDbRegAppTableRecord
  2
ACAD
 70
     0
  0
APPID
  5
47E
330
9
100
AcDbSymbolTableRecord
100
AcDbRegAppTableRecord
  2
ACAD_MLEADERVER
 70
     0
  0
ENDTAB
  0
TABLE
  2
DIMSTYLE
  5
A
330
0
100
AcDbSymbolTable
 70
     1
100
AcDbDimStyleTable
 71
     0
  0
DIMSTYLE
105
2B6
330
A
100
AcDbSymbolTableRecord
100
AcDbDimStyleTableRecord
  2
Standard
 70
     0
340
11
  0
ENDTAB
  0
TABLE
  2
BLOCK_RECORD
  5
1
330
0
100
AcDbSymbolTable
 70
     0
  0
BLOCK_RECORD
  5
22
330
1
100
AcDbSymbolTableRecord
100
AcDbBlockTableRecord
  2
*Model_Space
340
25
  0
BLOCK_RECORD
  5
1E
330
1
100
AcDbSymbolTableRecord
100
AcDbBlockTableRecord
  2
*Paper_Space
340
21
  0
ENDTAB
  0
ENDSEC
  0
SECTION
  2
BLOCKS
  0
BLOCK
  5
23
330
22
100
AcDbEntity
  8
0
100
AcDbBlockBegin
  2
*Model_Space
 70
     0
 10
0.0
 20
0.0
 30
0.0
  3
*Model_Space
  1

  0
ENDBLK
  5
24
330
22
100
AcDbEntity
  8
0
100
AcDbBlockEnd
  0
BLOCK
  5
1F
330
1E
100
AcDbEntity
 67
     1
  8
0
100
AcDbBlockBegin
  2
*Paper_Space
 70
     0
 10
0.0
 20
0.0
 30
0.0
  3
*Paper_Space
  1

  0
ENDBLK
  5
20
330
1E
100
AcDbEntity
 67
     1
  8
0
100
AcDbBlockEnd
  0
ENDSEC
  0
SECTION
  2
ENTITIES
  0
TEXT
  5
39
330
22
100
AcDbEntity
  8
0
100
AcDbText
 10
158.65
 20
270.7
 30
0.0
 40
3.7
  1
　
  7
BIGFONT
100
AcDbText
  0
TEXT
  5
3A
330
22
100
AcDbEntity
  8
0
100
AcDbText
 10
102.675
 20
251.5
 30
0.0
 40
3.5
  1
1
100
AcDbText
  0
LINE
  5
3B
330
22
100
AcDbEntity
  8
0
100
AcDbLine
 10
75.59999999999999
 20
237.65
 30
0.0
 11
101.35
 21
251.875
 31
0.0
  0
TEXT
  5
3C
330
22
100
AcDbEntity
  8
0
100
AcDbText
 10
102.8
 20
213.275
 30
0.0
 40
3.5
  1
2
100
AcDbText
  0
LINE
  5
3D
330
22
100
AcDbEntity
  8
0
100
AcDbLine
 10
143.65
 20
168.4
 30
0.0
 11
140.075
 21
181.15
 31
0.0
  0
LINE
  5
3E
330
22
100
AcDbEntity
  8
0
100
AcDbLine
 10
154.375
 20
168.4
 30
0.0
 11
152.2
 21
181.125
 31
0.0
  0
CIRCLE
  5
3F
330
22
100
AcDbEntity
  8
0
100
AcDbCircle
 10
103.6
 20
253.1
 30
0.0
 40
2.575
  0
LINE
  5
40
330
22
100
AcDbEntity
  8
0
100
AcDbLine
 10
23.375
 20
251.0
 30
0.0
 11
90.8
 21
251.0
 31
0.0
  0
LINE
  5
41
330
22
100
AcDbEntity
  8
0
100
AcDbLine
 10
90.8
 20
128.6
 30
0.0
 11
23.375
 21
128.6
 31
0.0
  0
LINE
  5
42
330
22
100
AcDbEntity
  8
F
100
AcDbLine
 10
21.375
 20
130.5
 30
0.0
 11
21.375
 21
114.325
 31
0.0
  0
LINE
  5
43
330
22
100
AcDbEntity
  8
F
100
AcDbLine
 10
92.72499999999999
 20
130.525
 30
0.0
 11
92.72499999999999
 21
114.325
 31
0.0
  0
LINE
  5
44
330
22
100
AcDbEntity
  8
F
100
AcDbLine
 10
24.45
 20
115.35
 30
0.0
 11
89.67499999999999
 21
115.35
 31
0.0
  0
SOLID
  5
45
330
22
100
AcDbEntity
  8
F
100
AcDbTrace
 10
24.45
 20
115.85
 30
0.0
 11
24.45
 21
114.85
 31
0.0
 12
24.45
 22
115.85
 32
0.0
 13
21.375
 23
115.35
 33
0.0
  0
LWPOLYLINE
  5
46
330
22
100
AcDbEntity
  8
F
100
AcDbPolyline
 90
        4
 70
     0
 43
0.2
 10
24.45
 20
115.85
 10
24.45
 20
114.85
 10
21.375
 20
115.35
 10
24.45
 20
115.85
  0
SOLID
  5
4C
330
22
100
AcDbEntity
  8
F
100
AcDbTrace
 10
89.67499999999999
 20
115.85
 30
0.0
 11
89.67499999999999
 21
114.85
 31
0.0
 12
89.67499999999999
 22
115.85
 32
0.0
 13
92.72499999999999
 23
115.35
 33
0.0
  0
LWPOLYLINE
  5
4D
330
22
100
AcDbEntity
  8
F
100
AcDbPolyline
 90
        4
 70
     0
 43
0.2
 10
89.67499999999999
 20
115.85
 10
89.67499999999999
 20
114.85
 10
92.72499999999999
 20
115.35
 10
89.67499999999999
 20
115.85
  0
TEXT
  5
53
330
22
100
AcDbEntity
  8
F
100
AcDbText
 10
54.02499999999999
 20
116.375
 30
0.0
 40
3.5
  1
70
100
AcDbText
  0
LINE
  5
54
330
22
100
AcDbEntity
  8
0
100
AcDbLine
 10
21.375
 20
130.625
 30
0.0
 11
21.375
 21
249.025
 31
0.0
  0
LINE
  5
55
330
22
100
AcDbEntity
  8
F
100
AcDbLine
 10
23.25
 20
128.6
 30
0.0
 11
10.15
 21
128.6
 31
0.0
  0
LINE
  5
56
330
22
100
AcDbEntity
  8
F
100
AcDbLine
 10
23.25
 20
251.025
 30
0.0
 11
10.15
 21
251.025
 31
0.0
  0
LINE
  5
57
330
22
100
AcDbEntity
  8
F
100
AcDbLine
 10
11.175
 20
131.675
 30
0.0
 11
11.175
 21
247.975
 31
0.0
  0
SOLID
  5
58
330
22
100
AcDbEntity
  8
F
100
AcDbTrace
 10
10.675
 20
131.675
 30
0.0
 11
11.7
 21
131.675
 31
0.0
 12
10.675
 22
131.675
 32
0.0
 13
11.175
 23
128.6
 33
0.0
  0
LWPOLYLINE
  5
59
330
22
100
AcDbEntity
  8
F
100
AcDbPolyline
 90
        4
 70
     0
 43
0.2
 10
10.675
 20
131.675
 10
11.7
 20
131.675
 10
11.175
 20
128.6
 10
10.675
 20
131.675
  0
SOLID
  5
5F
330
22
100
AcDbEntity
  8
F
100
AcDbTrace
 10
10.675
 20
247.975
 30
0.0
 11
11.7
 21
247.975
 31
0.0
 12
10.675
 22
247.975
 32
0.0
 13
11.175
 23
251.025
 33
0.0
  0
LWPOLYLINE
  5
60
330
22
100
AcDbEntity
  8
F
100
AcDbPolyline
 90
        4
 70
     0
 43
0.2
 10
10.675
 20
247.975
 10
11.7
 20
247.975
 10
11.175
 20
251.025
 10
10.675
 20
247.975
  0
TEXT
  5
66
330
22
100
AcDbEntity
  8
F
100
AcDbText
 10
10.125
 20
185.675
 30
0.0
 40
3.5
  1
120
 50
90.0
100
AcDbText
  0
LWPOLYLINE
  5
67
330
22
100
AcDbEntity
  8
0
100
AcDbPolyline
 90
       11
 70
     0
 43
0.2
 10
23.4
 20
128.575
 10
23.05
 20
128.6
 10
22.75
 20
128.675
 10
22.475
 20
128.8
 10
22.2
 20
128.95
 10
21.95
 20
129.175
 10
21.75
 20
129.4
 10
21.6
 20
129.675
 10
21.475
 20
129.975
 10
21.4
 20
130.275
 10
21.375
 20
130.6
  0
LWPOLYLINE
  5
74
330
22
100
AcDbEntity
  8
0
100
AcDbPolyline
 90
       11
 70
     0
 43
0.2
 10
21.375
 20
249.0
 10
21.4
 20
249.35
 10
21.475
 20
249.65
 10
21.6
 20
249.95
 10
21.75
 20
250.225
 10
21.95
 20
250.45
 10
22.2
 20
250.675
 10
22.475
 20
250.825
 10
22.75
 20
250.95
 10
23.05
 20
251.025
 10
23.4
 20
251.05
  0
LINE
  5
81
330
22
100
AcDbEntity
  8
0
100
AcDbLine
 10
118.275
 20
251.0
 30
0.0
 11
118.275
 21
128.6
 31
0.0
  0
LINE
  5
82
330
22
100
AcDbEntity
  8
0
100
AcDbLine
 10
92.75
 20
249.025
 30
0.0
 11
92.75
 21
130.625
 31
0.0
  0
LINE
  5
83
330
22
100
AcDbEntity
  8
0
100
AcDbLine
 10
112.125
 20
133.35
 30
0.0
 11
112.125
 21
246.2
 31
0.0
  0
LWPOLYLINE
  5
84
330
22
100
AcDbEntity
  8
0
100
AcDbPolyline
 90
       11
 70
     0
 43
0.2
 10
92.79999999999999
 20
130.6
 10
92.77500000000001
 20
130.275
 10
92.70000000000001
 20
129.975
 10
92.575
 20
129.675
 10
92.42499999999999
 20
129.4
 10
92.225
 20
129.175
 10
91.97499999999999
 20
128.95
 10
91.69999999999999
 20
128.8
 10
91.425
 20
128.675
 10
91.125
 20
128.6
 10
90.8
 20
128.575
  0
ARC
  5
91
330
22
100
AcDbEntity
  8
0
100
AcDbCircle
 10
116.9
 20
133.375
 30
0.0
 40
4.775
100
AcDbArc
 50
180.0
 51
270.0
  0
LINE
  5
92
330
22
100
AcDbEntity
  8
0
100
AcDbLine
 10
118.275
 20
128.6
 30
0.0
 11
116.9
 21
128.6
 31
0.0
  0
LWPOLYLINE
  5
93
330
22
100
AcDbEntity
  8
0
100
AcDbPolyline
 90
       11
 70
     0
 43
0.2
 10
90.8
 20
251.05
 10
91.125
 20
251.025
 10
91.425
 20
250.95
 10
91.69999999999999
 20
250.825
 10
91.97499999999999
 20
250.675
 10
92.225
 20
250.45
 10
92.42499999999999
 20
250.225
 10
92.575
 20
249.95
 10
92.70000000000001
 20
249.65
 10
92.77500000000001
 20
249.35
 10
92.79999999999999
 20
249.0
  0
LINE
  5
A0
330
22
100
AcDbEntity
  8
0
100
AcDbLine
 10
111.7
 20
153.6
 30
0.0
 11
111.7
 21
226.025
 31
0.0
  0
LINE
  5
A1
330
22
100
AcDbEntity
  8
0
100
AcDbLine
 10
112.125
 20
153.6
 30
0.0
 11
111.7
 21
153.6
 31
0.0
  0
LINE
  5
A2
330
22
100
AcDbEntity
  8
0
100
AcDbLine
 10
111.7
 20
226.025
 30
0.0
 11
112.125
 21
226.025
 31
0.0
  0
ARC
  5
A3
330
22
100
AcDbEntity
  8
0
100
AcDbCircle
 10
117.0
 20
246.2
 30
0.0
 40
4.875
100
AcDbArc
 50
90.0
 51
180.0
  0
LINE
  5
A4
330
22
100
AcDbEntity
  8
0
100
AcDbLine
 10
117.0
 20
251.0
 30
0.0
 11
118.275
 21
251.0
 31
0.0
  0
TEXT
  5
A5
330
22
100
AcDbEntity
  8
0
100
AcDbText
 10
138.7
 20
181.925
 30
0.0
 40
3.5
  1
3
100
AcDbText
  0
LINE
  5
A6
330
22
100
AcDbEntity
  8
0
100
AcDbLine
 10
154.375
 20
154.1
 30
0.0
 11
152.875
 21
143.25
 31
0.0
  0
LINE
  5
A7
330
22
100
AcDbEntity
  8
0
100
AcDbLine
 10
143.65
 20
154.1
 30
0.0
 11
140.8
 21
143.175
 31
0.0
  0
LWPOLYLINE
  5
A8
330
22
100
AcDbEntity
  8
0
100
AcDbPolyline
 90
       41
 70
     1
 43
0.2
 10
142.125
 20
183.625
 10
142.1
 20
183.225
 10
142.0
 20
182.825
 10
141.85
 20
182.45
 10
141.625
 20
182.1
 10
141.375
 20
181.775
 10
141.075
 20
181.525
 10
140.725
 20
181.3
 10
140.35
 20
181.15
 10
139.95
 20
181.05
 10
139.55
 20
181.025
 10
139.125
 20
181.05
 10
138.725
 20
181.15
 10
138.35
 20
181.3
 10
138.0
 20
181.525
 10
137.7
 20
181.775
 10
137.45
 20
182.1
 10
137.225
 20
182.45
 10
137.075
 20
182.825
 10
136.975
 20
183.225
 10
136.95
 20
183.625
 10
136.975
 20
184.05
 10
137.075
 20
184.45
 10
137.225
 20
184.825
 10
137.45
 20
185.175
 10
137.7
 20
185.5
 10
138.0
 20
185.75
 10
138.35
 20
185.975
 10
138.725
 20
186.125
 10
139.125
 20
186.225
 10
139.55
 20
186.25
 10
139.95
 20
186.225
 10
140.35
 20
186.125
 10
140.725
 20
185.975
 10
141.075
 20
185.75
 10
141.375
 20
185.5
 10
141.625
 20
185.175
 10
141.85
 20
184.825
 10
142.0
 20
184.45
 10
142.1
 20
184.05
 10
142.125
 20
183.625
  0
TEXT
  5
D3
330
22
100
AcDbEntity
  8
0
100
AcDbText
 10
139.35
 20
138.875
 30
0.0
 40
3.5
  1
5
100
AcDbText
  0
LWPOLYLINE
  5
D4
330
22
100
AcDbEntity
  8
0
100
AcDbPolyline
 90
       41
 70
     1
 43
0.2
 10
154.425
 20
183.625
 10
154.4
 20
183.225
 10
154.3
 20
182.825
 10
154.15
 20
182.45
 10
153.925
 20
182.1
 10
153.675
 20
181.775
 10
153.375
 20
181.525
 10
153.025
 20
181.3
 10
152.65
 20
181.15
 10
152.25
 20
181.05
 10
151.85
 20
181.025
 10
151.425
 20
181.05
 10
151.025
 20
181.15
 10
150.65
 20
181.3
 10
150.3
 20
181.525
 10
150.0
 20
181.775
 10
149.75
 20
182.1
 10
149.525
 20
182.45
 10
149.375
 20
182.825
 10
149.275
 20
183.225
 10
149.25
 20
183.625
 10
149.275
 20
184.05
 10
149.375
 20
184.45
 10
149.525
 20
184.825
 10
149.75
 20
185.175
 10
150.0
 20
185.5
 10
150.3
 20
185.75
 10
150.65
 20
185.975
 10
151.025
 20
186.125
 10
151.425
 20
186.225
 10
151.85
 20
186.25
 10
152.25
 20
186.225
 10
152.65
 20
186.125
 10
153.025
 20
185.975
 10
153.375
 20
185.75
 10
153.675
 20
185.5
 10
153.925
 20
185.175
 10
154.15
 20
184.825
 10
154.3
 20
184.45
 10
154.4
 20
184.05
 10
154.425
 20
183.625
  0
TEXT
  5
FF
330
22
100
AcDbEntity
  8
0
100
AcDbText
 10
151.65
 20
138.9
 30
0.0
 40
3.5
  1
6
100
AcDbText
  0
CIRCLE
  5
100
330
22
100
AcDbEntity
  8
0
100
AcDbCircle
 10
62.325
 20
222.0
 30
0.0
 40
1.05
  0
CIRCLE
  5
101
330
22
100
AcDbEntity
  8
0
100
AcDbCircle
 10
52.125
 20
222.0
 30
0.0
 40
1.05
  0
LINE
  5
102
330
22
100
AcDbEntity
  8
E
100
AcDbLine
 10
47.05
 20
198.0
 30
0.0
 11
47.05
 21
212.275
 31
0.0
  0
LINE
  5
103
330
22
100
AcDbEntity
  8
E
100
AcDbLine
 10
66.92499999999999
 20
197.475
 30
0.0
 11
47.575
 21
197.475
 31
0.0
  0
LINE
  5
104
330
22
100
AcDbEntity
  8
E
100
AcDbLine
 10
47.575
 20
212.775
 30
0.0
 11
66.92499999999999
 21
212.775
 31
0.0
  0
LINE
  5
105
330
22
100
AcDbEntity
  8
E
100
AcDbLine
 10
67.42499999999999
 20
212.275
 30
0.0
 11
67.42499999999999
 21
198.0
 31
0.0
  0
ARC
  5
106
330
22
100
AcDbEntity
  8
E
100
AcDbCircle
 10
47.575
 20
212.275
 30
0.0
 40
0.525
100
AcDbArc
 50
90.0
 51
180.0
  0
ARC
  5
107
330
22
100
AcDbEntity
  8
E
100
AcDbCircle
 10
66.92499999999999
 20
212.275
 30
0.0
 40
0.525
100
AcDbArc
 50
0.0
 51
90.0
  0
LWPOLYLINE
  5
108
330
22
100
AcDbEntity
  8
E
100
AcDbPolyline
 90
       12
 70
     0
 43
0.2
 10
67.47499999999999
 20
198.0
 10
67.47499999999999
 20
197.9
 10
67.45
 20
197.8
 10
67.42499999999999
 20
197.725
 10
67.375
 20
197.65
 10
67.325
 20
197.575
 10
67.25
 20
197.525
 10
67.2
 20
197.475
 10
67.09999999999999
 20
197.45
 10
67.025
 20
197.425
 10
66.95
 20
197.425
 10
66.95
 20
197.425
  0
LWPOLYLINE
  5
116
330
22
100
AcDbEntity
  8
E
100
AcDbPolyline
 90
       11
 70
     0
 43
0.2
 10
47.6
 20
197.425
 10
47.5
 20
197.425
 10
47.42499999999999
 20
197.45
 10
47.325
 20
197.475
 10
47.275
 20
197.525
 10
47.2
 20
197.575
 10
47.14999999999999
 20
197.65
 10
47.09999999999999
 20
197.725
 10
47.075
 20
197.8
 10
47.05
 20
197.9
 10
47.05
 20
197.975
  0
LINE
  5
123
330
22
100
AcDbEntity
  8
E
100
AcDbLine
 10
47.575
 20
174.025
 30
0.0
 11
66.92499999999999
 21
174.025
 31
0.0
  0
LINE
  5
124
330
22
100
AcDbEntity
  8
E
100
AcDbLine
 10
66.92499999999999
 20
158.7
 30
0.0
 11
47.575
 21
158.7
 31
0.0
  0
LINE
  5
125
330
22
100
AcDbEntity
  8
E
100
AcDbLine
 10
47.05
 20
159.2
 30
0.0
 11
47.05
 21
173.5
 31
0.0
  0
LINE
  5
126
330
22
100
AcDbEntity
  8
E
100
AcDbLine
 10
67.42499999999999
 20
173.5
 30
0.0
 11
67.42499999999999
 21
159.2
 31
0.0
  0
LWPOLYLINE
  5
127
330
22
100
AcDbEntity
  8
E
100
AcDbPolyline
 90
       11
 70
     0
 43
0.2
 10
47.05
 20
173.475
 10
47.05
 20
173.575
 10
47.075
 20
173.675
 10
47.09999999999999
 20
173.75
 10
47.14999999999999
 20
173.825
 10
47.2
 20
173.9
 10
47.275
 20
173.95
 10
47.325
 20
174.0
 10
47.42499999999999
 20
174.025
 10
47.5
 20
174.05
 10
47.6
 20
174.05
  0
LWPOLYLINE
  5
134
330
22
100
AcDbEntity
  8
E
100
AcDbPolyline
 90
       11
 70
     0
 43
0.2
 10
66.95
 20
174.05
 10
67.025
 20
174.05
 10
67.09999999999999
 20
174.025
 10
67.2
 20
174.0
 10
67.25
 20
173.95
 10
67.325
 20
173.9
 10
67.375
 20
173.825
 10
67.42499999999999
 20
173.75
 10
67.45
 20
173.675
 10
67.47499999999999
 20
173.575
 10
67.47499999999999
 20
173.475
  0
ARC
  5
141
330
22
100
AcDbEntity
  8
E
100
AcDbCircle
 10
66.92499999999999
 20
159.2
 30
0.0
 40
0.525
100
AcDbArc
 50
270.0
 51
0.015625
  0
ARC
  5
142
330
22
100
AcDbEntity
  8
E
100
AcDbCircle
 10
47.575
 20
159.2
 30
0.0
 40
0.525
100
AcDbArc
 50
180.0
 51
270.0
  0
LINE
  5
143
330
22
100
AcDbEntity
  8
E
100
AcDbLine
 10
44.0
 20
155.125
 30
0.0
 11
44.0
 21
216.35
 31
0.0
  0
LINE
  5
144
330
22
100
AcDbEntity
  8
E
100
AcDbLine
 10
44.5
 20
216.875
 30
0.0
 11
69.97499999999999
 21
216.875
 31
0.0
  0
LINE
  5
145
330
22
100
AcDbEntity
  8
E
100
AcDbLine
 10
69.97499999999999
 20
154.625
 30
0.0
 11
44.5
 21
154.625
 31
0.0
  0
LINE
  5
146
330
22
100
AcDbEntity
  8
E
100
AcDbLine
 10
70.5
 20
155.125
 30
0.0
 11
70.5
 21
216.35
 31
0.0
  0
LWPOLYLINE
  5
147
330
22
100
AcDbEntity
  8
E
100
AcDbPolyline
 90
       11
 70
     0
 43
0.2
 10
43.95
 20
216.325
 10
43.95
 20
216.425
 10
43.97499999999999
 20
216.5
 10
44.0
 20
216.6
 10
44.05
 20
216.65
 10
44.1
 20
216.725
 10
44.17499999999999
 20
216.775
 10
44.24999999999999
 20
216.825
 10
44.325
 20
216.85
 10
44.42499999999999
 20
216.875
 10
44.52499999999999
 20
216.875
  0
LWPOLYLINE
  5
154
330
22
100
AcDbEntity
  8
E
100
AcDbPolyline
 90
       11
 70
     0
 43
0.2
 10
70.0
 20
216.875
 10
70.075
 20
216.875
 10
70.175
 20
216.85
 10
70.25
 20
216.825
 10
70.325
 20
216.775
 10
70.4
 20
216.725
 10
70.45
 20
216.65
 10
70.5
 20
216.6
 10
70.52500000000001
 20
216.5
 10
70.54999999999999
 20
216.425
 10
70.54999999999999
 20
216.325
  0
LWPOLYLINE
  5
161
330
22
100
AcDbEntity
  8
E
100
AcDbPolyline
 90
       11
 70
     0
 43
0.2
 10
44.52499999999999
 20
154.575
 10
44.42499999999999
 20
154.575
 10
44.325
 20
154.6
 10
44.24999999999999
 20
154.625
 10
44.17499999999999
 20
154.675
 10
44.1
 20
154.725
 10
44.05
 20
154.8
 10
44.0
 20
154.85
 10
43.97499999999999
 20
154.95
 10
43.95
 20
155.025
 10
43.95
 20
155.1
  0
LWPOLYLINE
  5
16E
330
22
100
AcDbEntity
  8
E
100
AcDbPolyline
 90
       11
 70
     0
 43
0.2
 10
70.54999999999999
 20
155.1
 10
70.54999999999999
 20
155.025
 10
70.52500000000001
 20
154.95
 10
70.5
 20
154.85
 10
70.45
 20
154.8
 10
70.4
 20
154.725
 10
70.325
 20
154.675
 10
70.25
 20
154.625
 10
70.175
 20
154.6
 10
70.075
 20
154.575
 10
70.0
 20
154.575
  0
LINE
  5
17B
330
22
100
AcDbEntity
  8
0
100
AcDbLine
 10
123.375
 20
168.9
 30
0.0
 11
123.375
 21
163.8
 31
0.0
  0
LINE
  5
17C
330
22
100
AcDbEntity
  8
0
100
AcDbLine
 10
123.375
 20
165.85
 30
0.0
 11
133.35
 21
165.85
 31
0.0
  0
LINE
  5
17D
330
22
100
AcDbEntity
  8
0
100
AcDbLine
 10
118.25
 20
168.9
 30
0.0
 11
123.375
 21
168.9
 31
0.0
  0
LINE
  5
17E
330
22
100
AcDbEntity
  8
0
100
AcDbLine
 10
118.25
 20
163.8
 30
0.0
 11
123.375
 21
163.8
 31
0.0
  0
LINE
  5
17F
330
22
100
AcDbEntity
  8
0
100
AcDbLine
 10
123.375
 20
166.85
 30
0.0
 11
132.925
 21
166.85
 31
0.0
  0
LINE
  5
180
330
22
100
AcDbEntity
  8
0
100
AcDbLine
 10
139.825
 20
168.4
 30
0.0
 11
139.825
 21
164.3
 31
0.0
  0
LINE
  5
181
330
22
100
AcDbEntity
  8
0
100
AcDbLine
 10
147.475
 20
168.4
 30
0.0
 11
139.825
 21
168.4
 31
0.0
  0
LINE
  5
182
330
22
100
AcDbEntity
  8
0
100
AcDbLine
 10
147.475
 20
164.3
 30
0.0
 11
139.825
 21
164.3
 31
0.0
  0
LINE
  5
183
330
22
100
AcDbEntity
  8
0
100
AcDbLine
 10
147.475
 20
168.4
 30
0.0
 11
147.475
 21
164.3
 31
0.0
  0
LINE
  5
184
330
22
100
AcDbEntity
  8
0
100
AcDbLine
 10
166.175
 20
165.85
 30
0.0
 11
158.2
 21
165.85
 31
0.0
  0
LINE
  5
185
330
22
100
AcDbEntity
  8
0
100
AcDbLine
 10
166.175
 20
166.85
 30
0.0
 11
158.2
 21
166.85
 31
0.0
  0
LINE
  5
186
330
22
100
AcDbEntity
  8
0
100
AcDbLine
 10
158.2
 20
168.4
 30
0.0
 11
158.2
 21
164.3
 31
0.0
  0
LINE
  5
187
330
22
100
AcDbEntity
  8
0
100
AcDbLine
 10
150.55
 20
168.4
 30
0.0
 11
158.2
 21
168.4
 31
0.0
  0
LINE
  5
188
330
22
100
AcDbEntity
  8
0
100
AcDbLine
 10
150.55
 20
164.3
 30
0.0
 11
158.2
 21
164.3
 31
0.0
  0
LINE
  5
189
330
22
100
AcDbEntity
  8
0
100
AcDbLine
 10
150.55
 20
168.4
 30
0.0
 11
150.55
 21
164.3
 31
0.0
  0
LINE
  5
18A
330
22
100
AcDbEntity
  8
0
100
AcDbLine
 10
133.75
 20
167.625
 30
0.0
 11
133.5
 21
167.2
 31
0.0
  0
LINE
  5
18B
330
22
100
AcDbEntity
  8
0
100
AcDbLine
 10
133.575
 20
166.35
 30
0.0
 11
133.7
 21
166.175
 31
0.0
  0
LINE
  5
18C
330
22
100
AcDbEntity
  8
0
100
AcDbLine
 10
133.725
 20
165.275
 30
0.0
 11
133.525
 21
164.975
 31
0.0
  0
ARC
  5
18D
330
22
100
AcDbEntity
  8
0
100
AcDbCircle
 10
134.2
 20
166.8
 30
0.0
 40
0.775
100
AcDbArc
 50
150.875
 51
216.875
  0
ARC
  5
18E
330
22
100
AcDbEntity
  8
0
100
AcDbCircle
 10
133.1
 20
165.7
 30
0.0
 40
0.775
100
AcDbArc
 50
326.3125
 51
36.875
  0
LINE
  5
18F
330
22
100
AcDbEntity
  8
0
100
AcDbLine
 10
133.25
 20
167.625
 30
0.0
 11
133.0
 21
167.2
 31
0.0
  0
LINE
  5
190
330
22
100
AcDbEntity
  8
0
100
AcDbLine
 10
133.075
 20
166.35
 30
0.0
 11
133.2
 21
166.175
 31
0.0
  0
LWPOLYLINE
  5
191
330
22
100
AcDbEntity
  8
0
100
AcDbPolyline
 90
        9
 70
     0
 43
0.2
 10
133.05
 20
166.3
 10
132.975
 20
166.4
 10
132.925
 20
166.5
 10
132.9
 20
166.625
 10
132.875
 20
166.75
 10
132.875
 20
166.9
 10
132.9
 20
167.025
 10
132.95
 20
167.125
 10
132.975
 20
167.2
  0
LINE
  5
19C
330
22
100
AcDbEntity
  8
0
100
AcDbLine
 10
133.225
 20
165.275
 30
0.0
 11
133.025
 21
164.975
 31
0.0
  0
LWPOLYLINE
  5
19D
330
22
100
AcDbEntity
  8
0
100
AcDbPolyline
 90
       10
 70
     0
 43
0.2
 10
133.225
 20
166.175
 10
133.3
 20
166.075
 10
133.35
 20
165.975
 10
133.375
 20
165.85
 10
133.4
 20
165.725
 10
133.4
 20
165.575
 10
133.375
 20
165.45
 10
133.325
 20
165.35
 10
133.25
 20
165.25
 10
133.25
 20
165.225
  0
LINE
  5
1A9
330
22
100
AcDbEntity
  8
0
100
AcDbLine
 10
133.425
 20
166.85
 30
0.0
 11
139.825
 21
166.85
 31
0.0
  0
LINE
  5
1AA
330
22
100
AcDbEntity
  8
0
100
AcDbLine
 10
133.85
 20
165.85
 30
0.0
 11
139.825
 21
165.85
 31
0.0
  0
LINE
  5
1AB
330
22
100
AcDbEntity
  8
0
100
AcDbLine
 10
124.275
 20
155.65
 30
0.0
 11
133.35
 21
155.65
 31
0.0
  0
LINE
  5
1AC
330
22
100
AcDbEntity
  8
0
100
AcDbLine
 10
133.85
 20
155.65
 30
0.0
 11
139.825
 21
155.65
 31
0.0
  0
LINE
  5
1AD
330
22
100
AcDbEntity
  8
0
100
AcDbLine
 10
124.625
 20
156.65
 30
0.0
 11
132.925
 21
156.65
 31
0.0
  0
LINE
  5
1AE
330
22
100
AcDbEntity
  8
0
100
AcDbLine
 10
133.425
 20
156.65
 30
0.0
 11
139.825
 21
156.65
 31
0.0
  0
LINE
  5
1AF
330
22
100
AcDbEntity
  8
0
100
AcDbLine
 10
139.825
 20
158.2
 30
0.0
 11
139.825
 21
154.1
 31
0.0
  0
LINE
  5
1B0
330
22
100
AcDbEntity
  8
0
100
AcDbLine
 10
147.475
 20
158.2
 30
0.0
 11
139.825
 21
158.2
 31
0.0
  0
LINE
  5
1B1
330
22
100
AcDbEntity
  8
0
100
AcDbLine
 10
147.475
 20
154.1
 30
0.0
 11
139.825
 21
154.1
 31
0.0
  0
LINE
  5
1B2
330
22
100
AcDbEntity
  8
0
100
AcDbLine
 10
147.475
 20
158.2
 30
0.0
 11
147.475
 21
154.1
 31
0.0
  0
LINE
  5
1B3
330
22
100
AcDbEntity
  8
0
100
AcDbLine
 10
166.175
 20
155.65
 30
0.0
 11
158.2
 21
155.65
 31
0.0
  0
LINE
  5
1B4
330
22
100
AcDbEntity
  8
0
100
AcDbLine
 10
166.175
 20
156.65
 30
0.0
 11
158.2
 21
156.65
 31
0.0
  0
LINE
  5
1B5
330
22
100
AcDbEntity
  8
0
100
AcDbLine
 10
158.2
 20
158.2
 30
0.0
 11
158.2
 21
154.1
 31
0.0
  0
LINE
  5
1B6
330
22
100
AcDbEntity
  8
0
100
AcDbLine
 10
150.55
 20
158.2
 30
0.0
 11
158.2
 21
158.2
 31
0.0
  0
LINE
  5
1B7
330
22
100
AcDbEntity
  8
0
100
AcDbLine
 10
150.55
 20
154.1
 30
0.0
 11
158.2
 21
154.1
 31
0.0
  0
LINE
  5
1B8
330
22
100
AcDbEntity
  8
0
100
AcDbLine
 10
150.55
 20
158.2
 30
0.0
 11
150.55
 21
154.1
 31
0.0
  0
LINE
  5
1B9
330
22
100
AcDbEntity
  8
0
100
AcDbLine
 10
133.75
 20
157.425
 30
0.0
 11
133.5
 21
157.0
 31
0.0
  0
LINE
  5
1BA
330
22
100
AcDbEntity
  8
0
100
AcDbLine
 10
133.575
 20
156.15
 30
0.0
 11
133.7
 21
155.975
 31
0.0
  0
ARC
  5
1BB
330
22
100
AcDbEntity
  8
0
100
AcDbCircle
 10
134.2
 20
156.6
 30
0.0
 40
0.775
100
AcDbArc
 50
150.875
 51
216.875
  0
LINE
  5
1BC
330
22
100
AcDbEntity
  8
0
100
AcDbLine
 10
133.725
 20
155.075
 30
0.0
 11
133.525
 21
154.775
 31
0.0
  0
ARC
  5
1BD
330
22
100
AcDbEntity
  8
0
100
AcDbCircle
 10
133.1
 20
155.5
 30
0.0
 40
0.775
100
AcDbArc
 50
326.3125
 51
36.875
  0
LINE
  5
1BE
330
22
100
AcDbEntity
  8
0
100
AcDbLine
 10
133.25
 20
157.425
 30
0.0
 11
133.0
 21
157.0
 31
0.0
  0
LINE
  5
1BF
330
22
100
AcDbEntity
  8
0
100
AcDbLine
 10
133.075
 20
156.15
 30
0.0
 11
133.2
 21
155.975
 31
0.0
  0
LWPOLYLINE
  5
1C0
330
22
100
AcDbEntity
  8
0
100
AcDbPolyline
 90
        9
 70
     0
 43
0.2
 10
133.05
 20
156.1
 10
132.975
 20
156.2
 10
132.925
 20
156.3
 10
132.9
 20
156.425
 10
132.875
 20
156.55
 10
132.875
 20
156.7
 10
132.9
 20
156.825
 10
132.95
 20
156.925
 10
132.975
 20
157.0
  0
LINE
  5
1CB
330
22
100
AcDbEntity
  8
0
100
AcDbLine
 10
133.225
 20
155.075
 30
0.0
 11
133.025
 21
154.775
 31
0.0
  0
LWPOLYLINE
  5
1CC
330
22
100
AcDbEntity
  8
0
100
AcDbPolyline
 90
       10
 70
     0
 43
0.2
 10
133.225
 20
155.975
 10
133.3
 20
155.875
 10
133.35
 20
155.775
 10
133.375
 20
155.65
 10
133.4
 20
155.525
 10
133.4
 20
155.375
 10
133.375
 20
155.25
 10
133.325
 20
155.15
 10
133.25
 20
155.05
 10
133.25
 20
155.025
  0
LINE
  5
1D8
330
22
100
AcDbEntity
  8
0
100
AcDbLine
 10
121.375
 20
163.8
 30
0.0
 11
123.65
 21
157.35
 31
0.0
  0
LINE
  5
1D9
330
22
100
AcDbEntity
  8
0
100
AcDbLine
 10
120.275
 20
163.8
 30
0.0
 11
122.825
 21
156.65
 31
0.0
  0
ARC
  5
1DA
330
22
100
AcDbEntity
  8
0
100
AcDbCircle
 10
124.275
 20
157.175
 30
0.0
 40
1.55
100
AcDbArc
 50
199.65625
 51
270.015625
  0
ARC
  5
1DB
330
22
100
AcDbEntity
  8
0
100
AcDbCircle
 10
124.625
 20
157.675
 30
0.0
 40
1.05
100
AcDbArc
 50
199.65625
 51
270.015625
  0
LINE
  5
1DC
330
22
100
AcDbEntity
  8
0
100
AcDbLine
 10
11.725
 20
58.925
 30
0.0
 11
11.725
 21
22.2
 31
0.0
  0
LINE
  5
1DD
330
22
100
AcDbEntity
  8
0
100
AcDbLine
 10
11.725
 20
22.2
 30
0.0
 11
179.225
 21
22.2
 31
0.0
  0
LINE
  5
1DE
330
22
100
AcDbEntity
  8
0
100
AcDbLine
 10
11.725
 20
34.425
 30
0.0
 11
179.225
 21
34.425
 31
0.0
  0
LINE
  5
1DF
330
22
100
AcDbEntity
  8
0
100
AcDbLine
 10
11.725
 20
40.54999999999999
 30
0.0
 11
179.225
 21
40.54999999999999
 31
0.0
  0
LINE
  5
1E0
330
22
100
AcDbEntity
  8
0
100
AcDbLine
 10
42.325
 20
46.67499999999999
 30
0.0
 11
179.225
 21
46.67499999999999
 31
0.0
  0
LINE
  5
1E1
330
22
100
AcDbEntity
  8
0
100
AcDbLine
 10
42.325
 20
52.8
 30
0.0
 11
179.225
 21
52.8
 31
0.0
  0
LINE
  5
1E2
330
22
100
AcDbEntity
  8
0
100
AcDbLine
 10
42.325
 20
58.925
 30
0.0
 11
42.325
 21
22.2
 31
0.0
  0
LINE
  5
1E3
330
22
100
AcDbEntity
  8
0
100
AcDbLine
 10
179.225
 20
58.925
 30
0.0
 11
179.225
 21
22.2
 31
0.0
  0
TEXT
  5
1E4
330
22
100
AcDbEntity
  8
0
100
AcDbText
 10
14.575
 20
54.42499999999999
 30
0.0
 40
3.5
  1
仕　　　様
  7
BIGFONT
100
AcDbText
  0
LINE
  5
1E5
330
22
100
AcDbEntity
  8
0
100
AcDbLine
 10
11.725
 20
28.325
 30
0.0
 11
179.225
 21
28.325
 31
0.0
  0
LINE
  5
1E6
330
22
100
AcDbEntity
  8
0
100
AcDbLine
 10
11.725
 20
58.925
 30
0.0
 11
179.225
 21
58.925
 31
0.0
  0
TEXT
  5
1E7
330
22
100
AcDbEntity
  8
0
100
AcDbText
 10
14.675
 20
35.775
 30
0.0
 40
3.5
  1
表示ランプ
  7
BIGFONT
100
AcDbText
  0
TEXT
  5
1E8
330
22
100
AcDbEntity
  8
0
100
AcDbText
 10
14.675
 20
29.65
 30
0.0
 40
3.5
  1
使用ケーブル
  7
BIGFONT
100
AcDbText
  0
TEXT
  5
1E9
330
22
100
AcDbEntity
  8
0
100
AcDbText
 10
14.675
 20
23.525
 30
0.0
 40
3.5
  1
動作環境条件
  7
BIGFONT
100
AcDbText
  0
TEXT
  5
1EA
330
22
100
AcDbEntity
  8
0
100
AcDbText
 10
44.275
 20
54.125
 30
0.0
 40
3.5
  1
樹脂フイルム式
  7
BIGFONT
100
AcDbText
  0
TEXT
  5
1EB
330
22
100
AcDbEntity
  8
0
100
AcDbText
 10
44.24999999999999
 20
48.025
 30
0.0
 40
3.5
  1
タクトスイッチ耐久性　
  7
BIGFONT
100
AcDbText
  0
TEXT
  5
1EC
330
22
100
AcDbEntity
  8
0
100
AcDbText
 10
87.72499999999999
 20
48.025
 30
0.0
 40
3.5
  1
100
100
AcDbText
  0
TEXT
  5
1ED
330
22
100
AcDbEntity
  8
0
100
AcDbText
 10
96.13097789061066
 20
48.025
 30
0.0
 40
3.5
  1
万回／
  7
BIGFONT
100
AcDbText
  0
TEXT
  5
1EE
330
22
100
AcDbEntity
  8
0
100
AcDbText
 10
108.6240682428938
 20
48.025
 30
0.0
 40
3.5
  1
2kgf
100
AcDbText
  0
TEXT
  5
1EF
330
22
100
AcDbEntity
  8
0
100
AcDbText
 10
44.24999999999999
 20
23.525
 30
0.0
 40
3.5
  1
-20
100
AcDbText
  0
TEXT
  5
1F0
330
22
100
AcDbEntity
  8
0
100
AcDbText
 10
53.81355863269163
 20
23.525
 30
0.0
 40
3.5
  1
～
  7
BIGFONT
100
AcDbText
  0
TEXT
  5
1F1
330
22
100
AcDbEntity
  8
0
100
AcDbText
 10
57.73579085483266
 20
23.525
 30
0.0
 40
3.5
  1
+60
100
AcDbText
  0
TEXT
  5
1F2
330
22
100
AcDbEntity
  8
0
100
AcDbText
 10
67.96247777122926
 20
23.525
 30
0.0
 40
3.5
  1
℃
  7
BIGFONT
100
AcDbText
  0
LINE
  5
1F3
330
22
100
AcDbEntity
  8
0
100
AcDbLine
 10
93.32500000000001
 20
28.325
 30
0.0
 11
93.32500000000001
 21
22.2
 31
0.0
  0
LINE
  5
1F4
330
22
100
AcDbEntity
  8
0
100
AcDbLine
 10
123.925
 20
28.325
 30
0.0
 11
123.925
 21
22.2
 31
0.0
  0
TEXT
  5
1F5
330
22
100
AcDbEntity
  8
0
100
AcDbText
 10
96.27500000000001
 20
23.525
 30
0.0
 40
3.5
  1
電
  7
BIGFONT
100
AcDbText
  0
TEXT
  5
1F6
330
22
100
AcDbEntity
  8
0
100
AcDbText
 10
103.475
 20
23.525
 30
0.0
 40
3.5
  1
気
  7
BIGFONT
100
AcDbText
  0
TEXT
  5
1F7
330
22
100
AcDbEntity
  8
0
100
AcDbText
 10
110.675
 20
23.525
 30
0.0
 40
3.5
  1
特
  7
BIGFONT
100
AcDbText
  0
TEXT
  5
1F8
330
22
100
AcDbEntity
  8
0
100
AcDbText
 10
117.875
 20
23.525
 30
0.0
 40
3.5
  1
性
  7
BIGFONT
100
AcDbText
  0
TEXT
  5
1F9
330
22
100
AcDbEntity
  8
0
100
AcDbText
 10
125.85
 20
23.525
 30
0.0
 40
3.5
  1
DC24V
100
AcDbText
  0
TEXT
  5
1FA
330
22
100
AcDbEntity
  8
0
100
AcDbText
 10
136.25
 20
23.525
 30
0.0
 40
3.5
  1
　
  7
BIGFONT
100
AcDbText
  0
TEXT
  5
1FB
330
22
100
AcDbEntity
  8
0
100
AcDbText
 10
147.7117662966852
 20
23.525
 30
0.0
 40
3.5
  1
20mA
100
AcDbText
  0
LINE
  5
1FC
330
22
100
AcDbEntity
  8
0
100
AcDbLine
 10
112.125
 20
133.325
 30
0.0
 11
112.125
 21
114.325
 31
0.0
  0
LINE
  5
1FD
330
22
100
AcDbEntity
  8
0
100
AcDbLine
 10
118.275
 20
128.55
 30
0.0
 11
118.275
 21
114.325
 31
0.0
  0
LINE
  5
1FE
330
22
100
AcDbEntity
  8
0
100
AcDbLine
 10
109.075
 20
115.35
 30
0.0
 11
106.025
 21
115.35
 31
0.0
  0
LINE
  5
1FF
330
22
100
AcDbEntity
  8
0
100
AcDbLine
 10
121.35
 20
115.35
 30
0.0
 11
124.4
 21
115.35
 31
0.0
  0
LINE
  5
200
330
22
100
AcDbEntity
  8
0
100
AcDbLine
 10
112.125
 20
115.35
 30
0.0
 11
118.275
 21
115.35
 31
0.0
  0
SOLID
  5
201
330
22
100
AcDbEntity
  8
0
100
AcDbTrace
 10
109.075
 20
115.85
 30
0.0
 11
109.075
 21
114.85
 31
0.0
 12
109.075
 22
115.85
 32
0.0
 13
112.125
 23
115.35
 33
0.0
  0
LWPOLYLINE
  5
202
330
22
100
AcDbEntity
  8
0
100
AcDbPolyline
 90
        4
 70
     0
 43
0.2
 10
109.075
 20
115.85
 10
109.075
 20
114.85
 10
112.125
 20
115.35
 10
109.075
 20
115.85
  0
SOLID
  5
208
330
22
100
AcDbEntity
  8
0
100
AcDbTrace
 10
121.35
 20
115.85
 30
0.0
 11
121.35
 21
114.85
 31
0.0
 12
121.35
 22
115.85
 32
0.0
 13
118.275
 23
115.35
 33
0.0
  0
LWPOLYLINE
  5
209
330
22
100
AcDbEntity
  8
0
100
AcDbPolyline
 90
        4
 70
     0
 43
0.2
 10
121.35
 20
115.85
 10
121.35
 20
114.85
 10
118.275
 20
115.35
 10
121.35
 20
115.85
  0
TEXT
  5
20F
330
22
100
AcDbEntity
  8
0
100
AcDbText
 10
113.25
 20
116.375
 30
0.0
 40
3.5
  1
6
100
AcDbText
  0
LINE
  5
210
330
22
100
AcDbEntity
  8
0
100
AcDbLine
 10
112.125
 20
133.3
 30
0.0
 11
112.125
 21
121.65
 31
0.0
  0
LINE
  5
211
330
22
100
AcDbEntity
  8
0
100
AcDbLine
 10
66.15000000000001
 20
205.925
 30
0.0
 11
101.125
 21
214.4
 31
0.0
  0
CIRCLE
  5
212
330
22
100
AcDbEntity
  8
0
100
AcDbCircle
 10
103.6
 20
215.0
 30
0.0
 40
2.575
  0
TEXT
  5
213
330
22
100
AcDbEntity
  8
0
100
AcDbText
 10
151.0
 20
181.8
 30
0.0
 40
3.5
  1
4
100
AcDbText
  0
CIRCLE
  5
214
330
22
100
AcDbEntity
  8
0
100
AcDbCircle
 10
140.15
 20
140.7
 30
0.0
 40
2.575
  0
CIRCLE
  5
215
330
22
100
AcDbEntity
  8
0
100
AcDbCircle
 10
152.475
 20
140.725
 30
0.0
 40
2.575
  0
LINE
  5
216
330
22
100
AcDbEntity
  8
0
100
AcDbLine
 10
85.625
 20
101.75
 30
0.0
 11
85.625
 21
65.02500000000001
 31
0.0
  0
LINE
  5
217
330
22
100
AcDbEntity
  8
0
100
AcDbLine
 10
85.625
 20
65.02500000000001
 30
0.0
 11
179.075
 21
65.02500000000001
 31
0.0
  0
LINE
  5
218
330
22
100
AcDbEntity
  8
0
100
AcDbLine
 10
85.625
 20
71.15000000000001
 30
0.0
 11
179.075
 21
71.15000000000001
 31
0.0
  0
LINE
  5
219
330
22
100
AcDbEntity
  8
0
100
AcDbLine
 10
85.625
 20
77.275
 30
0.0
 11
179.075
 21
77.275
 31
0.0
  0
LINE
  5
21A
330
22
100
AcDbEntity
  8
0
100
AcDbLine
 10
85.625
 20
95.625
 30
0.0
 11
179.075
 21
95.625
 31
0.0
  0
LINE
  5
21B
330
22
100
AcDbEntity
  8
0
100
AcDbLine
 10
85.625
 20
101.75
 30
0.0
 11
179.075
 21
101.75
 31
0.0
  0
LINE
  5
21C
330
22
100
AcDbEntity
  8
0
100
AcDbLine
 10
97.85
 20
101.75
 30
0.0
 11
97.85
 21
65.02500000000001
 31
0.0
  0
LINE
  5
21D
330
22
100
AcDbEntity
  8
0
100
AcDbLine
 10
179.075
 20
101.75
 30
0.0
 11
179.075
 21
65.02500000000001
 31
0.0
  0
TEXT
  5
21E
330
22
100
AcDbEntity
  8
0
100
AcDbText
 10
99.82500000000001
 20
84.725
 30
0.0
 40
3.5
  1
操作スイッチ
  7
BIGFONT
100
AcDbText
  0
TEXT
  5
21F
330
22
100
AcDbEntity
  8
0
100
AcDbText
 10
87.825
 20
96.97499999999999
 30
0.0
 40
3.5
  1
番号
  7
BIGFONT
100
AcDbText
  0
TEXT
  5
220
330
22
100
AcDbEntity
  8
0
100
AcDbText
 10
110.025
 20
96.97499999999999
 30
0.0
 40
3.5
  1
　名　称
  7
BIGFONT
100
AcDbText
  0
TEXT
  5
221
330
22
100
AcDbEntity
  8
0
100
AcDbText
 10
90.92499999999999
 20
84.67499999999999
 30
0.0
 40
3.5
  1
2
100
AcDbText
  0
CIRCLE
  5
222
330
22
100
AcDbEntity
  8
0
100
AcDbCircle
 10
91.72499999999999
 20
86.45000000000001
 30
0.0
 40
2.575
  0
CIRCLE
  5
223
330
22
100
AcDbEntity
  8
0
100
AcDbCircle
 10
91.72499999999999
 20
92.575
 30
0.0
 40
2.575
  0
TEXT
  5
224
330
22
100
AcDbEntity
  8
0
100
AcDbText
 10
90.65000000000001
 20
90.8
 30
0.0
 40
3.5
  1
1
100
AcDbText
  0
TEXT
  5
225
330
22
100
AcDbEntity
  8
0
100
AcDbText
 10
99.82500000000001
 20
90.84999999999999
 30
0.0
 40
3.5
  1
カバープレート
  7
BIGFONT
100
AcDbText
  0
LINE
  5
226
330
22
100
AcDbEntity
  8
0
100
AcDbLine
 10
85.625
 20
89.525
 30
0.0
 11
179.075
 21
89.50000000000001
 31
0.0
  0
LINE
  5
227
330
22
100
AcDbEntity
  8
0
100
AcDbLine
 10
85.625
 20
83.40000000000001
 30
0.0
 11
179.075
 21
83.40000000000001
 31
0.0
  0
TEXT
  5
228
330
22
100
AcDbEntity
  8
0
100
AcDbText
 10
14.575
 20
60.525
 30
0.0
 40
3.5
  1
施解錠スイッチ
  7
BIGFONT
100
AcDbText
  0
LWPOLYLINE
  5
229
330
22
100
AcDbEntity
  8
0
100
AcDbPolyline
 90
        3
 70
     0
 43
0.2
 10
126.625
 20
165.875
 10
124.95
 20
126.3
 10
164.275
 20
126.3
  0
TEXT
  5
22E
330
22
100
AcDbEntity
  8
0
100
AcDbText
 10
131.75
 20
127.1
 30
0.0
 40
3.5
  1
線長は
  7
BIGFONT
100
AcDbText
  0
TEXT
  5
22F
330
22
100
AcDbEntity
  8
0
100
AcDbText
 10
144.1
 20
127.1
 30
0.0
 40
3.5
  1
50mm
100
AcDbText
  0
TEXT
  5
230
330
22
100
AcDbEntity
  8
0
100
AcDbText
 10
125.7
 20
121.9
 30
0.0
 40
3.5
  1
（コネクタ含まず）
  7
BIGFONT
100
AcDbText
  0
LINE
  5
231
330
22
100
AcDbEntity
  8
0
100
AcDbLine
 10
0.0
 20
8.925
 30
0.0
 11
188.95
 21
8.925
 31
0.0
  0
LINE
  5
232
330
22
100
AcDbEntity
  8
0
100
AcDbLine
 10
0.8
 20
17.1
 30
0.0
 11
188.95
 21
17.1
 31
0.0
  0
LINE
  5
233
330
22
100
AcDbEntity
  8
0
100
AcDbLine
 10
102.3
 20
17.1
 30
0.0
 11
102.3
 21
0.775
 31
0.0
  0
LINE
  5
234
330
22
100
AcDbEntity
  8
0
100
AcDbLine
 10
92.07500000000001
 20
17.1
 30
0.0
 11
92.07500000000001
 21
0.775
 31
0.0
  0
LINE
  5
235
330
22
100
AcDbEntity
  8
0
100
AcDbLine
 10
10.85
 20
17.1
 30
0.0
 11
10.85
 21
0.775
 31
0.0
  0
LINE
  5
236
330
22
100
AcDbEntity
  8
0
100
AcDbLine
 10
0.0
 20
0.775
 30
0.0
 11
188.95
 21
0.775
 31
0.0
  0
LINE
  5
237
330
22
100
AcDbEntity
  8
0
100
AcDbLine
 10
188.95
 20
0.775
 30
0.0
 11
188.95
 21
278.0
 31
0.0
  0
LINE
  5
238
330
22
100
AcDbEntity
  8
0
100
AcDbLine
 10
188.95
 20
278.0
 30
0.0
 11
0.0
 21
278.0
 31
0.0
  0
LINE
  5
239
330
22
100
AcDbEntity
  8
0
100
AcDbLine
 10
0.0
 20
278.0
 30
0.0
 11
0.0
 21
0.775
 31
0.0
  0
LINE
  5
23A
330
22
100
AcDbEntity
  8
0
100
AcDbLine
 10
0.0
 20
17.1
 30
0.0
 11
188.95
 21
17.1
 31
0.0
  0
TEXT
  5
23B
330
22
100
AcDbEntity
  8
0
100
AcDbText
 10
28.175
 20
11.5
 30
0.0
 40
3.649999999999999
  1
単位
  7
BIGFONT
100
AcDbText
  0
TEXT
  5
23C
330
22
100
AcDbEntity
  8
0
100
AcDbText
 10
37.0
 20
11.5
 30
0.0
 40
3.649999999999999
  1
 mm
100
AcDbText
  0
TEXT
  5
23D
330
22
100
AcDbEntity
  8
0
100
AcDbText
 10
42.72499999999999
 20
11.5
 30
0.0
 40
3.649999999999999
  1
　
  7
BIGFONT
100
AcDbText
  0
TEXT
  5
23E
330
22
100
AcDbEntity
  8
0
100
AcDbText
 10
112.65
 20
2.024999999999999
 30
0.0
 40
3.5
  1
　
  7
BIGFONT
100
AcDbText
  0
TEXT
  5
23F
330
22
100
AcDbEntity
  8
0
100
AcDbText
 10
119.6
 20
3.049999999999999
 30
0.0
 40
3.649999999999999
  1
　日本電子工業株式会社
  7
BIGFONT
100
AcDbText
  0
LINE
  5
240
330
22
100
AcDbEntity
  8
0
100
AcDbLine
 10
0.0
 20
267.75
 30
0.0
 11
188.95
 21
267.75
 31
0.0
  0
TEXT
  5
241
330
22
100
AcDbEntity
  8
0
100
AcDbText
 10
28.175
 20
3.049999999999999
 30
0.0
 40
3.649999999999999
  1
尺度　　　１／１
  7
BIGFONT
100
AcDbText
  0
LINE
  5
242
330
22
100
AcDbEntity
  8
0
100
AcDbLine
 10
158.425
 20
17.1
 30
0.0
 11
158.425
 21
8.925
 31
0.0
  0
LINE
  5
243
330
22
100
AcDbEntity
  8
0
100
AcDbLine
 10
143.1
 20
17.1
 30
0.0
 11
143.1
 21
8.925
 31
0.0
  0
TEXT
  5
244
330
22
100
AcDbEntity
  8
0
100
AcDbText
 10
162.35
 20
11.5
 30
0.0
 40
3.649999999999999
  1
SW-002A
100
AcDbText
  0
TEXT
  5
245
330
22
100
AcDbEntity
  8
0
100
AcDbText
 10
145.725
 20
11.5
 30
0.0
 40
3.649999999999999
  1
図番
  7
BIGFONT
100
AcDbText
  0
LINE
  5
246
330
22
100
AcDbEntity
  8
0
100
AcDbLine
 10
118.25
 20
168.975
 30
0.0
 11
118.25
 21
190.825
 31
0.0
  0
LINE
  5
247
330
22
100
AcDbEntity
  8
0
100
AcDbLine
 10
123.375
 20
168.975
 30
0.0
 11
123.375
 21
190.825
 31
0.0
  0
LINE
  5
248
330
22
100
AcDbEntity
  8
0
100
AcDbLine
 10
115.2
 20
189.8
 30
0.0
 11
112.125
 21
189.8
 31
0.0
  0
LINE
  5
249
330
22
100
AcDbEntity
  8
0
100
AcDbLine
 10
126.45
 20
189.8
 30
0.0
 11
129.5
 21
189.8
 31
0.0
  0
LINE
  5
24A
330
22
100
AcDbEntity
  8
0
100
AcDbLine
 10
118.25
 20
189.8
 30
0.0
 11
123.375
 21
189.8
 31
0.0
  0
SOLID
  5
24B
330
22
100
AcDbEntity
  8
0
100
AcDbTrace
 10
115.2
 20
190.325
 30
0.0
 11
115.2
 21
189.3
 31
0.0
 12
115.2
 22
190.325
 32
0.0
 13
118.25
 23
189.8
 33
0.0
  0
LWPOLYLINE
  5
24C
330
22
100
AcDbEntity
  8
0
100
AcDbPolyline
 90
        4
 70
     0
 43
0.2
 10
115.2
 20
190.325
 10
115.2
 20
189.3
 10
118.25
 20
189.8
 10
115.2
 20
190.325
  0
SOLID
  5
252
330
22
100
AcDbEntity
  8
0
100
AcDbTrace
 10
126.45
 20
190.325
 30
0.0
 11
126.45
 21
189.3
 31
0.0
 12
126.45
 22
190.325
 32
0.0
 13
123.375
 23
189.8
 33
0.0
  0
LWPOLYLINE
  5
253
330
22
100
AcDbEntity
  8
0
100
AcDbPolyline
 90
        4
 70
     0
 43
0.2
 10
126.45
 20
190.325
 10
126.45
 20
189.3
 10
123.375
 20
189.8
 10
126.45
 20
190.325
  0
TEXT
  5
259
330
22
100
AcDbEntity
  8
0
100
AcDbText
 10
118.85
 20
190.85
 30
0.0
 40
3.5
  1
5
100
AcDbText
  0
TEXT
  5
25A
330
22
100
AcDbEntity
  8
0
100
AcDbText
 10
167.65
 20
164.825
 30
0.0
 40
3.5
  1
2Pr
100
AcDbText
  0
TEXT
  5
25B
330
22
100
AcDbEntity
  8
0
100
AcDbText
 10
167.65
 20
154.625
 30
0.0
 40
3.5
  1
2Pr
100
AcDbText
  0
LINE
  5
25C
330
22
100
AcDbEntity
  8
0
  6
DASHED
 48
5.0
100
AcDbLine
 10
125.925
 20
238.8
 30
0.0
 11
120.8
 21
238.775
 31
0.0
  0
ARC
  5
25D
330
22
100
AcDbEntity
  8
0
  6
DASHED
 62
     7
 48
5.0
100
AcDbCircle
 10
120.825
 20
236.225
 30
0.0
 40
2.575
100
AcDbArc
 50
90.01562499999998
 51
180.0
  0
LINE
  5
25E
330
22
100
AcDbEntity
  8
0
  6
DASHED
 62
     7
 48
5.0
100
AcDbLine
 10
131.025
 20
244.9
 30
0.0
 11
170.8
 21
244.9
 31
0.0
  0
LINE
  5
25F
330
22
100
AcDbEntity
  8
0
  6
DASHED
 62
     7
 48
5.0
100
AcDbLine
 10
120.825
 20
140.85
 30
0.0
 11
125.9
 21
140.875
 31
0.0
  0
ARC
  5
260
330
22
100
AcDbEntity
  8
0
  6
DASHED
 62
     7
 48
5.0
100
AcDbCircle
 10
120.825
 20
143.4
 30
0.0
 40
2.575
100
AcDbArc
 50
180.0
 51
270.015625
  0
LINE
  5
261
330
22
100
AcDbEntity
  8
0
  6
DASHED
 62
     7
 48
5.0
100
AcDbLine
 10
131.025
 20
134.725
 30
0.0
 11
170.775
 21
134.725
 31
0.0
  0
LINE
  5
262
330
22
100
AcDbEntity
  8
0
  6
DASHED
 62
     7
 48
5.0
100
AcDbLine
 10
131.025
 20
245.9
 30
0.0
 11
131.025
 21
133.7
 31
0.0
  0
ARC
  5
263
330
22
100
AcDbEntity
  8
0
  6
DASHED
 62
     7
 48
5.0
100
AcDbCircle
 10
125.925
 20
138.325
 30
0.0
 40
2.575
100
AcDbArc
 50
0.0
 51
90.01562499999998
  0
ARC
  5
264
330
22
100
AcDbEntity
  8
0
  6
DASHED
 62
     7
 48
5.0
100
AcDbCircle
 10
125.925
 20
241.35
 30
0.0
 40
2.575
100
AcDbArc
 50
270.015625
 51
0.0
  0
LINE
  5
265
330
22
100
AcDbEntity
  8
0
  6
DASHED
 62
     7
 48
5.0
100
AcDbLine
 10
175.9
 20
239.8
 30
0.0
 11
175.9
 21
139.825
 31
0.0
  0
ARC
  5
266
330
22
100
AcDbEntity
  8
0
  6
DASHED
 62
     7
 48
5.0
100
AcDbCircle
 10
170.8
 20
139.825
 30
0.0
 40
5.125
100
AcDbArc
 50
270.0
 51
0.0
  0
ARC
  5
267
330
22
100
AcDbEntity
  8
0
  6
DASHED
 62
     7
 48
5.0
100
AcDbCircle
 10
170.8
 20
239.8
 30
0.0
 40
5.125
100
AcDbArc
 50
0.0
 51
90.0
  0
LINE
  5
268
330
22
100
AcDbEntity
  8
0
100
AcDbLine
 10
118.275
 20
236.225
 30
0.0
 11
118.275
 21
143.4
 31
0.0
  0
LINE
  5
269
330
22
100
AcDbEntity
  8
0
  6
DASHED
 48
5.0
100
AcDbLine
 10
128.475
 20
245.9
 30
0.0
 11
131.025
 21
245.9
 31
0.0
  0
LINE
  5
26A
330
22
100
AcDbEntity
  8
0
  6
DASHED
 48
5.0
100
AcDbLine
 10
128.475
 20
133.7
 30
0.0
 11
131.025
 21
133.7
 31
0.0
  0
LINE
  5
26B
330
22
100
AcDbEntity
  8
0
  6
DASHED
 62
     7
 48
5.0
100
AcDbLine
 10
128.475
 20
245.9
 30
0.0
 11
128.475
 21
133.7
 31
0.0
  0
TEXT
  5
26C
330
22
100
AcDbEntity
  8
0
100
AcDbText
 10
120.95
 20
259.125
 30
0.0
 40
3.0
  1
4
100
AcDbText
  0
TEXT
  5
26D
330
22
100
AcDbEntity
  8
0
100
AcDbText
 10
123.2
 20
259.125
 30
0.0
 40
3.0
  1
×
  7
BIGFONT
100
AcDbText
  0
TEXT
  5
26E
330
22
100
AcDbEntity
  8
0
100
AcDbText
 10
127.125
 20
259.125
 30
0.0
 40
3.0
  1
4
100
AcDbText
  0
TEXT
  5
26F
330
22
100
AcDbEntity
  8
0
100
AcDbText
 10
129.375
 20
259.125
 30
0.0
 40
3.0
  1
用アウトレット
  7
BIGFONT
100
AcDbText
  0
TEXT
  5
270
330
22
100
AcDbEntity
  8
0
100
AcDbText
 10
153.3
 20
259.125
 30
0.0
 40
3.0
  1
BOX
100
AcDbText
  0
TEXT
  5
271
330
22
100
AcDbEntity
  8
0
100
AcDbText
 10
162.0444138190912
 20
259.0790580432667
 30
0.0
 40
3.0
  1
浅型対応
  7
BIGFONT
100
AcDbText
  0
LWPOLYLINE
  5
272
330
22
100
AcDbEntity
  8
0
100
AcDbPolyline
 90
        3
 70
     0
 43
0.2
 10
163.375
 20
244.9
 10
179.675
 20
257.725
 10
119.975
 20
257.725
  0
TEXT
  5
277
330
22
100
AcDbEntity
  8
0
100
AcDbText
 10
129.35
 20
253.225
 30
0.0
 40
3.0
  1
(1
100
AcDbText
  0
TEXT
  5
278
330
22
100
AcDbEntity
  8
0
100
AcDbText
 10
133.275
 20
253.225
 30
0.0
 40
3.0
  1
ヶ用塗りしろ
  7
BIGFONT
100
AcDbText
  0
TEXT
  5
279
330
22
100
AcDbEntity
  8
0
100
AcDbText
 10
153.875
 20
253.225
 30
0.0
 40
3.0
  1
)
100
AcDbText
  0
LINE
  5
27C
330
22
100
AcDbEntity
  8
0
100
AcDbLine
 10
48.6
 20
203.125
 30
0.0
 11
48.6
 21
206.675
 31
0.0
  0
LINE
  5
27D
330
22
100
AcDbEntity
  8
0
100
AcDbLine
 10
53.525
 20
206.675
 30
0.0
 11
53.525
 21
203.125
 31
0.0
  0
LINE
  5
27E
330
22
100
AcDbEntity
  8
0
100
AcDbLine
 10
53.525
 20
203.125
 30
0.0
 11
48.6
 21
203.125
 31
0.0
  0
LINE
  5
27F
330
22
100
AcDbEntity
  8
0
100
AcDbLine
 10
51.225
 20
204.4
 30
0.0
 11
51.225
 21
203.5
 31
0.0
  0
LINE
  5
280
330
22
100
AcDbEntity
  8
0
100
AcDbLine
 10
50.85
 20
203.5
 30
0.0
 11
51.225
 21
203.5
 31
0.0
  0
LINE
  5
281
330
22
100
AcDbEntity
  8
0
100
AcDbLine
 10
50.85
 20
204.4
 30
0.0
 11
50.85
 21
203.5
 31
0.0
  0
LINE
  5
282
330
22
100
AcDbEntity
  8
0
100
AcDbLine
 10
48.6
 20
206.675
 30
0.0
 11
53.525
 21
206.675
 31
0.0
  0
ARC
  5
283
330
22
100
AcDbEntity
  8
0
100
AcDbCircle
 10
51.05
 20
205.15
 30
0.0
 40
0.75
100
AcDbArc
 50
283.578125
 51
254.5625
  0
ARC
  5
284
330
22
100
AcDbEntity
  8
0
100
AcDbCircle
 10
54.35
 20
206.975
 30
0.0
 40
2.075
100
AcDbArc
 50
9.796875
 51
170.203125
  0
LINE
  5
285
330
22
100
AcDbEntity
  8
0
100
AcDbLine
 10
52.175
 20
206.675
 30
0.0
 11
52.275
 21
207.325
 31
0.0
  0
LINE
  5
286
330
22
100
AcDbEntity
  8
0
100
AcDbLine
 10
56.475
 20
206.675
 30
0.0
 11
56.375
 21
207.325
 31
0.0
  0
ARC
  5
287
330
22
100
AcDbEntity
  8
0
100
AcDbCircle
 10
54.35
 20
206.975
 30
0.0
 40
1.425
100
AcDbArc
 50
9.28125
 51
170.875
  0
LINE
  5
288
330
22
100
AcDbEntity
  8
0
100
AcDbLine
 10
52.8
 20
206.675
 30
0.0
 11
52.925
 21
207.25
 31
0.0
  0
LINE
  5
289
330
22
100
AcDbEntity
  8
0
100
AcDbLine
 10
55.85
 20
206.675
 30
0.0
 11
55.775
 21
207.25
 31
0.0
  0
LINE
  5
28A
330
22
100
AcDbEntity
  8
0
100
AcDbLine
 10
55.85
 20
206.675
 30
0.0
 11
56.475
 21
206.675
 31
0.0
  0
TEXT
  5
28B
330
22
100
AcDbEntity
  8
0
100
AcDbText
 10
56.025
 20
203.375
 30
0.0
 40
4.224999999999999
  1
解錠
  7
BIGFONT
100
AcDbText
  0
ARC
  5
28C
330
22
100
AcDbEntity
  8
0
100
AcDbCircle
 10
50.85
 20
166.075
 30
0.0
 40
0.75
100
AcDbArc
 50
283.578125
 51
254.5625
  0
LINE
  5
28D
330
22
100
AcDbEntity
  8
0
100
AcDbLine
 10
53.325
 20
167.6
 30
0.0
 11
53.325
 21
164.05
 31
0.0
  0
LINE
  5
28E
330
22
100
AcDbEntity
  8
0
100
AcDbLine
 10
48.39999999999999
 20
164.05
 30
0.0
 11
48.39999999999999
 21
167.6
 31
0.0
  0
LINE
  5
28F
330
22
100
AcDbEntity
  8
0
100
AcDbLine
 10
53.325
 20
164.05
 30
0.0
 11
48.39999999999999
 21
164.05
 31
0.0
  0
LINE
  5
290
330
22
100
AcDbEntity
  8
0
100
AcDbLine
 10
50.65
 20
164.425
 30
0.0
 11
51.025
 21
164.425
 31
0.0
  0
LINE
  5
291
330
22
100
AcDbEntity
  8
0
100
AcDbLine
 10
51.025
 20
165.325
 30
0.0
 11
51.025
 21
164.425
 31
0.0
  0
LINE
  5
292
330
22
100
AcDbEntity
  8
0
100
AcDbLine
 10
50.65
 20
165.325
 30
0.0
 11
50.65
 21
164.425
 31
0.0
  0
LINE
  5
293
330
22
100
AcDbEntity
  8
0
100
AcDbLine
 10
48.39999999999999
 20
167.6
 30
0.0
 11
53.325
 21
167.6
 31
0.0
  0
ARC
  5
294
330
22
100
AcDbEntity
  8
0
100
AcDbCircle
 10
50.85
 20
167.9
 30
0.0
 40
1.425
100
AcDbArc
 50
9.28125
 51
170.875
  0
ARC
  5
295
330
22
100
AcDbEntity
  8
0
100
AcDbCircle
 10
50.85
 20
167.9
 30
0.0
 40
2.075
100
AcDbArc
 50
9.796875
 51
170.203125
  0
LINE
  5
296
330
22
100
AcDbEntity
  8
0
100
AcDbLine
 10
49.35
 20
167.6
 30
0.0
 11
49.42499999999999
 21
168.175
 31
0.0
  0
LINE
  5
297
330
22
100
AcDbEntity
  8
0
100
AcDbLine
 10
48.7
 20
167.6
 30
0.0
 11
48.825
 21
168.25
 31
0.0
  0
LINE
  5
298
330
22
100
AcDbEntity
  8
0
100
AcDbLine
 10
53.025
 20
167.6
 30
0.0
 11
52.9
 21
168.25
 31
0.0
  0
LINE
  5
299
330
22
100
AcDbEntity
  8
0
100
AcDbLine
 10
52.375
 20
167.6
 30
0.0
 11
52.275
 21
168.175
 31
0.0
  0
TEXT
  5
29A
330
22
100
AcDbEntity
  8
0
100
AcDbText
 10
55.04999999999999
 20
163.925
 30
0.0
 40
4.224999999999999
  1
施錠
  7
BIGFONT
100
AcDbText
  0
TEXT
  5
29B
330
22
100
AcDbEntity
  8
0
100
AcDbText
 10
49.8
 20
217.75
 30
0.0
 40
2.475
  1
施錠
  7
BIGFONT
100
AcDbText
  0
TEXT
  5
29C
330
22
100
AcDbEntity
  8
0
100
AcDbText
 10
60.1
 20
217.75
 30
0.0
 40
2.475
  1
解錠
  7
BIGFONT
100
AcDbText
  0
LWPOLYLINE
  5
29D
330
22
100
AcDbEntity
  8
0
100
AcDbPolyline
 90
        4
 70
     1
 43
0.2
 10
42.975
 20
153.6
 10
42.975
 20
226.05
 10
71.525
 20
226.025
 10
71.525
 20
153.6
  0
TEXT
  5
2A3
330
22
100
AcDbEntity
  8
0
100
AcDbText
 10
77.2
 20
154.775
 30
0.0
 40
3.5
  1
　
  7
BIGFONT
100
AcDbText
  0
TEXT
  5
2A4
330
22
100
AcDbEntity
  8
0
100
AcDbText
 10
44.275
 20
35.35
 30
0.0
 40
3.5
  1
施錠
  7
BIGFONT
100
AcDbText
  0
TEXT
  5
2A5
330
22
100
AcDbEntity
  8
0
100
AcDbText
 10
52.75
 20
35.35
 30
0.0
 40
3.5
  1
LED
100
AcDbText
  0
TEXT
  5
2A6
330
22
100
AcDbEntity
  8
0
100
AcDbText
 10
62.97253197793679
 20
35.35
 30
0.0
 40
3.5
  1
・解錠
  7
BIGFONT
100
AcDbText
  0
TEXT
  5
2A7
330
22
100
AcDbEntity
  8
0
100
AcDbText
 10
75.58776648739217
 20
35.35
 30
0.0
 40
3.5
  1
LED
100
AcDbText
  0
LINE
  5
2A8
330
22
100
AcDbEntity
  8
0
100
AcDbLine
 10
65.9
 20
166.575
 30
0.0
 11
86.54999999999999
 21
211.025
 31
0.0
  0
TEXT
  5
2A9
330
22
100
AcDbEntity
  8
0
100
AcDbText
 10
44.79999999999999
 20
29.575
 30
0.0
 40
3.524999999999999
  1
HP0.9-5P
100
AcDbText
  0
TEXT
  5
2AB
330
22
100
AcDbEntity
  8
0
100
AcDbText
 10
90.84999999999999
 20
78.525
 30
0.0
 40
3.5
  1
3
100
AcDbText
  0
CIRCLE
  5
2AC
330
22
100
AcDbEntity
  8
0
100
AcDbCircle
 10
91.65
 20
80.29999999999999
 30
0.0
 40
2.575
  0
TEXT
  5
2AD
330
22
100
AcDbEntity
  8
0
100
AcDbText
 10
88.15000000000001
 20
66.325
 30
0.0
 40
3.5
  1
4
100
AcDbText
  0
CIRCLE
  5
2AE
330
22
100
AcDbEntity
  8
0
100
AcDbCircle
 10
88.95000000000001
 20
68.09999999999999
 30
0.0
 40
2.575
  0
TEXT
  5
2AF
330
22
100
AcDbEntity
  8
0
100
AcDbText
 10
90.875
 20
72.375
 30
0.0
 40
3.5
  1
5
100
AcDbText
  0
TEXT
  5
2B0
330
22
100
AcDbEntity
  8
0
100
AcDbText
 10
99.75000000000001
 20
78.59999999999999
 30
0.0
 40
3.5
  1
接続コネクタ
  7
BIGFONT
100
AcDbText
  0
TEXT
  5
2B1
330
22
100
AcDbEntity
  8
0
100
AcDbText
 10
99.625
 20
66.375
 30
0.0
 40
3.5
  1
付属コネクタ
  7
BIGFONT
100
AcDbText
  0
TEXT
  5
2B2
330
22
100
AcDbEntity
  8
0
100
AcDbText
 10
93.34999999999999
 20
66.22499999999999
 30
0.0
 40
3.5
  1
6
100
AcDbText
  0
CIRCLE
  5
2B3
330
22
100
AcDbEntity
  8
0
100
AcDbCircle
 10
91.675
 20
74.15
 30
0.0
 40
2.575
  0
CIRCLE
  5
2B4
330
22
100
AcDbEntity
  8
0
100
AcDbCircle
 10
94.15
 20
68.0
 30
0.0
 40
2.575
  0
TEXT
  5
2B5
330
22
100
AcDbEntity
  8
0
100
AcDbText
 10
99.75000000000001
 20
72.52500000000001
 30
0.0
 40
3.5
  1
表示用コネクタ
  7
BIGFONT
100
AcDbText
  0
TEXT
  5
2B9
330
22
100
AcDbEntity
  8
0
100
AcDbText
 10
70.24001447420815
 20
29.4141574333554
 30
0.0
 40
3.5
  1
ケーブル
  7
BIGFONT
100
AcDbText
  0
MTEXT
  5
4A1
330
22
100
AcDbEntity
  8
0
  6
Continuous
100
AcDbMText
 10
94.47499999999999
 20
272.875
 30
0.0
 40
3.5
 41
100.0
 71
     5
 72
     5
  1
増設施解錠スイッチ（表示付）
  7
BIGFONT
 73
     1
 44
1.0
1001
ACAD
1000
MTEXTBEGIN
1070
    73
1070
     1
1070
    44
1040
1.0
1070
    74
1070
     0
1000
MTEXTEND
  0
MTEXT
  5
4A3
330
22
100
AcDbEntity
  8
0
  6
Continuous
100
AcDbMText
 10
183.95
 20
272.875
 30
0.0
 40
3.5
 41
50.0
 71
     6
 72
     5
  1
WP0190-04
  7
BIGFONT
 73
     1
 44
1.0
1001
ACAD
1000
MTEXTBEGIN
1070
    73
1070
     1
1070
    44
1040
1.0
1070
    74
1070
     0
1000
MTEXTEND
  0
ENDSEC
  0
SECTION
  2
OBJECTS
  0
DICTIONARY
  5
C
330
0
100
AcDbDictionary
281
     1
  3
ACAD_COLOR
350
1B
  3
ACAD_GROUP
350
D
  3
ACAD_LAYOUT
350
19
  3
ACAD_MATERIAL
350
1A
  3
ACAD_MLEADERSTYLE
350
47C
  3
ACAD_MLINESTYLE
350
16
  3
ACAD_PLOTSETTINGS
350
18
  3
ACAD_PLOTSTYLENAME
350
E
  3
ACAD_SCALELIST
350
45A
  3
ACAD_TABLESTYLE
350
1C
  3
ACAD_VISUALSTYLE
350
449
  3
ACDB_RECOMPOSE_DATA
350
48A
  3
AcDbVariableDictionary
350
2C0
  3
DWGPROPS
350
4AD
  0
DICTIONARY
  5
48C
330
8
100
AcDbDictionary
280
     1
281
     1
  0
DICTIONARY
  5
482
330
10
100
AcDbDictionary
280
     1
281
     1
  3
ADSK_XREC_LAYER_RECONCILED
360
483
  0
DICTIONARY
  5
484
330
31
100
AcDbDictionary
280
     1
281
     1
  3
ADSK_XREC_LAYER_RECONCILED
360
485
  0
DICTIONARY
  5
486
330
32
100
AcDbDictionary
280
     1
281
     1
  3
ADSK_XREC_LAYER_RECONCILED
360
487
  0
DICTIONARY
  5
1B
102
{ACAD_REACTORS
330
C
102
}
330
C
100
AcDbDictionary
281
     1
  0
DICTIONARY
  5
D
102
{ACAD_REACTORS
330
C
102
}
330
C
100
AcDbDictionary
281
     1
  0
DICTIONARY
  5
19
102
{ACAD_REACTORS
330
C
102
}
330
C
100
AcDbDictionary
281
     1
  3
Model
350
25
  3
レイアウト1
350
21
  0
DICTIONARY
  5
1A
102
{ACAD_REACTORS
330
C
102
}
330
C
100
AcDbDictionary
281
     1
  3
ByBlock
350
439
  3
ByLayer
350
431
  3
Global
350
441
  0
DICTIONARY
  5
47C
102
{ACAD_REACTORS
330
C
102
}
330
C
100
AcDbDictionary
281
     1
  3
Standard
350
47D
  0
DICTIONARY
  5
16
102
{ACAD_REACTORS
330
C
102
}
330
C
100
AcDbDictionary
281
     1
  3
Standard
350
17
  0
DICTIONARY
  5
18
102
{ACAD_REACTORS
330
C
102
}
330
C
100
AcDbDictionary
281
     1
  0
ACDBDICTIONARYWDFLT
  5
E
102
{ACAD_REACTORS
330
C
102
}
330
C
100
AcDbDictionary
281
     1
  3
Normal
350
F
100
AcDbDictionaryWithDefault
340
F
  0
DICTIONARY
  5
45A
102
{ACAD_REACTORS
330
C
102
}
330
C
100
AcDbDictionary
281
     1
  3
A0
350
45B
  3
A1
350
45C
  3
A2
350
45D
  3
A3
350
45E
  3
A4
350
45F
  3
A5
350
460
  3
A6
350
461
  3
A7
350
462
  3
A8
350
463
  3
A9
350
464
  3
B0
350
465
  3
B1
350
466
  3
B2
350
467
  3
B3
350
468
  3
B4
350
469
  3
B5
350
46A
  3
B6
350
46B
  3
B7
350
46C
  3
B8
350
46D
  3
B9
350
46E
  3
C0
350
46F
  3
C1
350
470
  3
C2
350
471
  3
C3
350
472
  3
C4
350
473
  3
C5
350
474
  3
C6
350
475
  3
C7
350
476
  3
C8
350
477
  3
C9
350
478
  3
D0
350
479
  3
D1
350
47A
  3
D2
350
47B
  0
DICTIONARY
  5
1C
102
{ACAD_REACTORS
330
C
102
}
330
C
100
AcDbDictionary
281
     1
  3
Standard
350
1D
  0
DICTIONARY
  5
449
102
{ACAD_REACTORS
330
C
102
}
330
C
100
AcDbDictionary
281
     1
  3
2dWireframe
350
44F
  3
3D Hidden
350
451
  3
3dWireframe
350
450
  3
Basic
350
44E
  3
Brighten
350
455
  3
ColorChange
350
459
  3
Conceptual
350
452
  3
Dim
350
454
  3
Facepattern
350
458
  3
Flat
350
44A
  3
FlatWithEdges
350
44B
  3
Gouraud
350
44C
  3
GouraudWithEdges
350
44D
  3
Linepattern
350
457
  3
Realistic
350
453
  3
Thicken
350
456
  0
XRECORD
  5
48A
102
{ACAD_REACTORS
330
C
102
}
330
C
100
AcDbXrecord
280
     1
 90
        1
330
1D
  0
DICTIONARY
  5
2C0
102
{ACAD_REACTORS
330
C
102
}
330
C
100
AcDbDictionary
281
     1
  3
CANNOSCALE
350
49A
  3
CMLEADERSTYLE
350
499
  3
CTABLESTYLE
350
2C1
  3
DIMASSOC
350
2C2
  3
INDEXCTL
350
49C
  3
LIGHTINGUNITS
350
4A6
  3
MSLTSCALE
350
4A5
  3
PROJECTNAME
350
2C3
  3
SORTENTS
350
49B
  0
XRECORD
  5
4AD
102
{ACAD_REACTORS
330
C
102
}
330
C
100
AcDbXrecord
280
     1
  1
DWGPROPS COOKIE
  2

  3

  4

  6

  7

  8
Takeshi_Nakagawa
  9

300
=
301
=
302
=
303
=
304
=
305
=
306
=
307
=
308
=
309
=
 40
0.0155556018518519
 41
2454291.59759566
 42
2456553.551827569
  1

 90
        0
  0
XRECORD
  5
483
102
{ACAD_REACTORS
330
482
102
}
330
482
100
AcDbXrecord
280
     1
290
     1
  0
XRECORD
  5
485
102
{ACAD_REACTORS
330
484
102
}
330
484
100
AcDbXrecord
280
     1
290
     1
  0
XRECORD
  5
487
102
{ACAD_REACTORS
330
486
102
}
330
486
100
AcDbXrecord
280
     1
290
     1
  0
LAYOUT
  5
25
102
{ACAD_XDICTIONARY
360
4B1
102
}
102
{ACAD_REACTORS
330
19
102
}
330
19
100
AcDbPlotSettings
  1

  2
Microsoft Office Document Image Writer
  4

  6

 40
0.0
 41
0.0
 42
0.0
 43
0.0
 44
0.0
 45
0.0
 46
0.0
 47
0.0
 48
0.0
 49
0.0
140
0.0
141
0.0
142
1.0
143
1.0
 70
  1712
 72
     0
 73
     0
 74
     0
  7
Microsoft Office Document Image Writer
 75
     0
147
1.0
148
0.0
149
0.0
100
AcDbLayout
  1
Model
 70
     1
 71
     0
 10
0.0
 20
0.0
 11
12.0
 21
9.0
 12
0.0
 22
0.0
 32
0.0
 14
0.0
 24
0.0
 34
0.0
 15
0.0
 25
0.0
 35
0.0
146
0.0
 13
0.0
 23
0.0
 33
0.0
 16
1.0
 26
0.0
 36
0.0
 17
0.0
 27
1.0
 37
0.0
 76
     0
330
22
331
42A
  0
LAYOUT
  5
21
102
{ACAD_XDICTIONARY
360
4AF
102
}
102
{ACAD_REACTORS
330
19
102
}
330
19
100
AcDbPlotSettings
  1

  2
Microsoft Office Document Image Writer
  4

  6

 40
0.0
 41
0.0
 42
0.0
 43
0.0
 44
0.0
 45
0.0
 46
0.0
 47
0.0
 48
0.0
 49
0.0
140
0.0
141
0.0
142
1.0
143
1.0
 70
   688
 72
     0
 73
     0
 74
     5
  7
Microsoft Office Document Image Writer
 75
    16
147
1.0
148
0.0
149
0.0
100
AcDbLayout
  1
レイアウト1
 70
     1
 71
     1
 10
0.0
 20
0.0
 11
12.0
 21
9.0
 12
0.0
 22
0.0
 32
0.0
 14
1.000000000000000E+20
 24
1.000000000000000E+20
 34
1.000000000000000E+20
 15
-1.000000000000000E+20
 25
-1.000000000000000E+20
 35
-1.000000000000000E+20
146
0.0
 13
0.0
 23
0.0
 33
0.0
 16
1.0
 26
0.0
 36
0.0
 17
0.0
 27
1.0
 37
0.0
 76
     0
330
1E
  0
MATERIAL
  5
439
102
{ACAD_XDICTIONARY
360
43A
102
}
102
{ACAD_REACTORS
330
1A
102
}
330
1A
100
AcDbMaterial
  1
ByBlock
 72
     0
 43
0.0208333333333333
 43
0.0
 43
0.0
 43
0.0
 43
0.0
 43
0.0208333333333333
 43
0.0
 43
0.0
 43
0.0
 43
0.0
 43
1.0
 43
0.0
 43
0.0
 43
0.0
 43
0.0
 43
1.0
 77
     0
 47
0.0208333333333333
 47
0.0
 47
0.0
 47
0.0
 47
0.0
 47
0.0208333333333333
 47
0.0
 47
0.0
 47
0.0
 47
0.0
 47
1.0
 47
0.0
 47
0.0
 47
0.0
 47
0.0
 47
1.0
171
     0
 49
0.0208333333333333
 49
0.0
 49
0.0
 49
0.0
 49
0.0
 49
0.0208333333333333
 49
0.0
 49
0.0
 49
0.0
 49
0.0
 49
1.0
 49
0.0
 49
0.0
 49
0.0
 49
0.0
 49
1.0
175
     0
142
0.0208333333333333
142
0.0
142
0.0
142
0.0
142
0.0
142
0.0208333333333333
142
0.0
142
0.0
142
0.0
142
0.0
142
1.0
142
0.0
142
0.0
142
0.0
142
0.0
142
1.0
179
     0
144
0.0208333333333333
144
0.0
144
0.0
144
0.0
144
0.0
144
0.0208333333333333
144
0.0
144
0.0
144
0.0
144
0.0
144
1.0
144
0.0
144
0.0
144
0.0
144
0.0
144
1.0
147
0.0208333333333333
147
0.0
147
0.0
147
0.0
147
0.0
147
0.0208333333333333
147
0.0
147
0.0
147
0.0
147
0.0
147
1.0
147
0.0
147
0.0
147
0.0
147
0.0
147
1.0
  0
MATERIAL
  5
431
102
{ACAD_XDICTIONARY
360
432
102
}
102
{ACAD_REACTORS
330
1A
102
}
330
1A
100
AcDbMaterial
  1
ByLayer
 72
     0
 43
0.0208333333333333
 43
0.0
 43
0.0
 43
0.0
 43
0.0
 43
0.0208333333333333
 43
0.0
 43
0.0
 43
0.0
 43
0.0
 43
1.0
 43
0.0
 43
0.0
 43
0.0
 43
0.0
 43
1.0
 77
     0
 47
0.0208333333333333
 47
0.0
 47
0.0
 47
0.0
 47
0.0
 47
0.0208333333333333
 47
0.0
 47
0.0
 47
0.0
 47
0.0
 47
1.0
 47
0.0
 47
0.0
 47
0.0
 47
0.0
 47
1.0
171
     0
 49
0.0208333333333333
 49
0.0
 49
0.0
 49
0.0
 49
0.0
 49
0.0208333333333333
 49
0.0
 49
0.0
 49
0.0
 49
0.0
 49
1.0
 49
0.0
 49
0.0
 49
0.0
 49
0.0
 49
1.0
175
     0
142
0.0208333333333333
142
0.0
142
0.0
142
0.0
142
0.0
142
0.0208333333333333
142
0.0
142
0.0
142
0.0
142
0.0
142
1.0
142
0.0
142
0.0
142
0.0
142
0.0
142
1.0
179
     0
144
0.0208333333333333
144
0.0
144
0.0
144
0.0
144
0.0
144
0.0208333333333333
144
0.0
144
0.0
144
0.0
144
0.0
144
1.0
144
0.0
144
0.0
144
0.0
144
0.0
144
1.0
147
0.0208333333333333
147
0.0
147
0.0
147
0.0
147
0.0
147
0.0208333333333333
147
0.0
147
0.0
147
0.0
147
0.0
147
1.0
147
0.0
147
0.0
147
0.0
147
0.0
147
1.0
  0
MATERIAL
  5
441
102
{ACAD_XDICTIONARY
360
442
102
}
102
{ACAD_REACTORS
330
1A
102
}
330
1A
100
AcDbMaterial
  1
Global
 72
     0
 43
0.0208333333333333
 43
0.0
 43
0.0
 43
0.0
 43
0.0
 43
0.0208333333333333
 43
0.0
 43
0.0
 43
0.0
 43
0.0
 43
1.0
 43
0.0
 43
0.0
 43
0.0
 43
0.0
 43
1.0
 77
     0
 47
0.0208333333333333
 47
0.0
 47
0.0
 47
0.0
 47
0.0
 47
0.0208333333333333
 47
0.0
 47
0.0
 47
0.0
 47
0.0
 47
1.0
 47
0.0
 47
0.0
 47
0.0
 47
0.0
 47
1.0
171
     0
 49
0.0208333333333333
 49
0.0
 49
0.0
 49
0.0
 49
0.0
 49
0.0208333333333333
 49
0.0
 49
0.0
 49
0.0
 49
0.0
 49
1.0
 49
0.0
 49
0.0
 49
0.0
 49
0.0
 49
1.0
175
     0
142
0.0208333333333333
142
0.0
142
0.0
142
0.0
142
0.0
142
0.0208333333333333
142
0.0
142
0.0
142
0.0
142
0.0
142
1.0
142
0.0
142
0.0
142
0.0
142
0.0
142
1.0
179
     0
144
0.0208333333333333
144
0.0
144
0.0
144
0.0
144
0.0
144
0.0208333333333333
144
0.0
144
0.0
144
0.0
144
0.0
144
1.0
144
0.0
144
0.0
144
0.0
144
0.0
144
1.0
147
0.0208333333333333
147
0.0
147
0.0
147
0.0
147
0.0
147
0.0208333333333333
147
0.0
147
0.0
147
0.0
147
0.0
147
1.0
147
0.0
147
0.0
147
0.0
147
0.0
147
1.0
  0
MLEADERSTYLE
  5
47D
102
{ACAD_REACTORS
330
47C
102
}
330
47C
100
AcDbMLeaderStyle
170
     2
171
     1
172
     0
 90
        2
 40
0.0
 41
0.0
173
     1
 91
-1056964608
340
13
 92
       -2
290
     1
 42
0.09
291
     1
 43
0.36
  3
Standard
 44
0.18
300

342
11
174
     1
178
     6
175
     1
176
     0
 93
-1056964608
 45
0.18
292
     0
297
     0
 46
0.18
 94
-1056964608
 47
1.0
 49
1.0
140
1.0
293
     1
141
0.0
294
     1
177
     0
142
1.0
295
     0
296
     0
143
0.125
1001
ACAD_MLEADERVER
1070
     2
  0
MLINESTYLE
  5
17
102
{ACAD_REACTORS
330
16
102
}
330
16
100
AcDbMlineStyle
  2
STANDARD
 70
     0
  3

 62
   256
 51
90.0
 52
90.0
 71
     2
 49
0.5
 62
   256
  6
BYLAYER
 49
-0.5
 62
   256
  6
BYLAYER
  0
ACDBPLACEHOLDER
  5
F
102
{ACAD_REACTORS
330
E
102
}
330
E
  0
SCALE
  5
45B
102
{ACAD_REACTORS
330
45A
102
}
330
45A
100
AcDbScale
 70
     0
300
1:1
140
1.0
141
1.0
290
     1
  0
SCALE
  5
45C
102
{ACAD_REACTORS
330
45A
102
}
330
45A
100
AcDbScale
 70
     0
300
1:2
140
1.0
141
2.0
290
     0
  0
SCALE
  5
45D
102
{ACAD_REACTORS
330
45A
102
}
330
45A
100
AcDbScale
 70
     0
300
1:4
140
1.0
141
4.0
290
     0
  0
SCALE
  5
45E
102
{ACAD_REACTORS
330
45A
102
}
330
45A
100
AcDbScale
 70
     0
300
1:5
140
1.0
141
5.0
290
     0
  0
SCALE
  5
45F
102
{ACAD_REACTORS
330
45A
102
}
330
45A
100
AcDbScale
 70
     0
300
1:8
140
1.0
141
8.0
290
     0
  0
SCALE
  5
460
102
{ACAD_REACTORS
330
45A
102
}
330
45A
100
AcDbScale
 70
     0
300
1:10
140
1.0
141
10.0
290
     0
  0
SCALE
  5
461
102
{ACAD_REACTORS
330
45A
102
}
330
45A
100
AcDbScale
 70
     0
300
1:16
140
1.0
141
16.0
290
     0
  0
SCALE
  5
462
102
{ACAD_REACTORS
330
45A
102
}
330
45A
100
AcDbScale
 70
     0
300
1:20
140
1.0
141
20.0
290
     0
  0
SCALE
  5
463
102
{ACAD_REACTORS
330
45A
102
}
330
45A
100
AcDbScale
 70
     0
300
1:30
140
1.0
141
30.0
290
     0
  0
SCALE
  5
464
102
{ACAD_REACTORS
330
45A
102
}
330
45A
100
AcDbScale
 70
     0
300
1:40
140
1.0
141
40.0
290
     0
  0
SCALE
  5
465
102
{ACAD_REACTORS
330
45A
102
}
330
45A
100
AcDbScale
 70
     0
300
1:50
140
1.0
141
50.0
290
     0
  0
SCALE
  5
466
102
{ACAD_REACTORS
330
45A
102
}
330
45A
100
AcDbScale
 70
     0
300
1:100
140
1.0
141
100.0
290
     0
  0
SCALE
  5
467
102
{ACAD_REACTORS
330
45A
102
}
330
45A
100
AcDbScale
 70
     0
300
2:1
140
2.0
141
1.0
290
     0
  0
SCALE
  5
468
102
{ACAD_REACTORS
330
45A
102
}
330
45A
100
AcDbScale
 70
     0
300
4:1
140
4.0
141
1.0
290
     0
  0
SCALE
  5
469
102
{ACAD_REACTORS
330
45A
102
}
330
45A
100
AcDbScale
 70
     0
300
8:1
140
8.0
141
1.0
290
     0
  0
SCALE
  5
46A
102
{ACAD_REACTORS
330
45A
102
}
330
45A
100
AcDbScale
 70
     0
300
10:1
140
10.0
141
1.0
290
     0
  0
SCALE
  5
46B
102
{ACAD_REACTORS
330
45A
102
}
330
45A
100
AcDbScale
 70
     0
300
100:1
140
100.0
141
1.0
290
     0
  0
SCALE
  5
46C
102
{ACAD_REACTORS
330
45A
102
}
330
45A
100
AcDbScale
 70
     0
300
1/128" = 1'-0"
140
0.0078125
141
12.0
290
     0
  0
SCALE
  5
46D
102
{ACAD_REACTORS
330
45A
102
}
330
45A
100
AcDbScale
 70
     0
300
1/64" = 1'-0"
140
0.015625
141
12.0
290
     0
  0
SCALE
  5
46E
102
{ACAD_REACTORS
330
45A
102
}
330
45A
100
AcDbScale
 70
     0
300
1/32" = 1'-0"
140
0.03125
141
12.0
290
     0
  0
SCALE
  5
46F
102
{ACAD_REACTORS
330
45A
102
}
330
45A
100
AcDbScale
 70
     0
300
1/16" = 1'-0"
140
0.0625
141
12.0
290
     0
  0
SCALE
  5
470
102
{ACAD_REACTORS
330
45A
102
}
330
45A
100
AcDbScale
 70
     0
300
3/32" = 1'-0"
140
0.09375
141
12.0
290
     0
  0
SCALE
  5
471
102
{ACAD_REACTORS
330
45A
102
}
330
45A
100
AcDbScale
 70
     0
300
1/8" = 1'-0"
140
0.125
141
12.0
290
     0
  0
SCALE
  5
472
102
{ACAD_REACTORS
330
45A
102
}
330
45A
100
AcDbScale
 70
     0
300
3/16" = 1'-0"
140
0.1875
141
12.0
290
     0
  0
SCALE
  5
473
102
{ACAD_REACTORS
330
45A
102
}
330
45A
100
AcDbScale
 70
     0
300
1/4" = 1'-0"
140
0.25
141
12.0
290
     0
  0
SCALE
  5
474
102
{ACAD_REACTORS
330
45A
102
}
330
45A
100
AcDbScale
 70
     0
300
3/8" = 1'-0"
140
0.375
141
12.0
290
     0
  0
SCALE
  5
475
102
{ACAD_REACTORS
330
45A
102
}
330
45A
100
AcDbScale
 70
     0
300
1/2" = 1'-0"
140
0.5
141
12.0
290
     0
  0
SCALE
  5
476
102
{ACAD_REACTORS
330
45A
102
}
330
45A
100
AcDbScale
 70
     0
300
3/4" = 1'-0"
140
0.75
141
12.0
290
     0
  0
SCALE
  5
477
102
{ACAD_REACTORS
330
45A
102
}
330
45A
100
AcDbScale
 70
     0
300
1" = 1'-0"
140
1.0
141
12.0
290
     0
  0
SCALE
  5
478
102
{ACAD_REACTORS
330
45A
102
}
330
45A
100
AcDbScale
 70
     0
300
1-1/2" = 1'-0"
140
1.5
141
12.0
290
     0
  0
SCALE
  5
479
102
{ACAD_REACTORS
330
45A
102
}
330
45A
100
AcDbScale
 70
     0
300
3" = 1'-0"
140
3.0
141
12.0
290
     0
  0
SCALE
  5
47A
102
{ACAD_REACTORS
330
45A
102
}
330
45A
100
AcDbScale
 70
     0
300
6" = 1'-0"
140
6.0
141
12.0
290
     0
  0
SCALE
  5
47B
102
{ACAD_REACTORS
330
45A
102
}
330
45A
100
AcDbScale
 70
     0
300
1'-0" = 1'-0"
140
12.0
141
12.0
290
     0
  0
TABLESTYLE
  5
1D
102
{ACAD_XDICTIONARY
360
488
102
}
102
{ACAD_REACTORS
330
1C
102
}
330
1C
100
AcDbTableStyle
  3
Standard
 70
     0
 71
     0
 40
0.06
 41
0.06
280
     0
281
     0
  7
STANDARD
140
0.18
170
     2
 62
     0
 63
     7
283
     0
274
    -2
284
     1
 64
     0
275
    -2
285
     1
 65
     0
276
    -2
286
     1
 66
     0
277
    -2
287
     1
 67
     0
278
    -2
288
     1
 68
     0
279
    -2
289
     1
 69
     0
  7
STANDARD
140
0.25
170
     5
 62
     0
 63
     7
283
     0
274
    -2
284
     1
 64
     0
275
    -2
285
     1
 65
     0
276
    -2
286
     1
 66
     0
277
    -2
287
     1
 67
     0
278
    -2
288
     1
 68
     0
279
    -2
289
     1
 69
     0
  7
STANDARD
140
0.18
170
     5
 62
     0
 63
     7
283
     0
274
    -2
284
     1
 64
     0
275
    -2
285
     1
 65
     0
276
    -2
286
     1
 66
     0
277
    -2
287
     1
 67
     0
278
    -2
288
     1
 68
     0
279
    -2
289
     1
 69
     0
  0
VISUALSTYLE
  5
44F
102
{ACAD_REACTORS
330
449
102
}
330
449
100
AcDbVisualStyle
  2
2dWireframe
 70
     4
 71
     0
 72
     2
 73
     0
 90
        0
 40
-0.6
 41
-30.0
 62
     5
 63
     7
 74
     1
 91
        4
 64
     7
 65
   257
 75
     1
175
     1
 42
1.0
 92
        0
 66
   257
 43
1.0
 76
     1
 77
     6
 78
     2
 67
     7
 79
     5
170
     0
171
     0
290
     0
174
     0
 93
        1
 44
0.0
173
     0
291
     0
 45
0.0
1001
ACAD
1000
AcDbSavedByObjectVersion
1070
     0
  0
VISUALSTYLE
  5
451
102
{ACAD_REACTORS
330
449
102
}
330
449
100
AcDbVisualStyle
  2
3D Hidden
 70
     6
 71
     1
 72
     2
 73
     2
 90
        0
 40
-0.6
 41
-30.0
 62
     5
 63
     7
 74
     2
 91
        2
 64
     7
 65
   257
 75
     2
175
     1
 42
40.0
 92
        0
 66
   257
 43
1.0
 76
     1
 77
     6
 78
     2
 67
     7
 79
     3
170
     0
171
     0
290
     0
174
     0
 93
        1
 44
0.0
173
     0
291
     0
 45
0.0
1001
ACAD
1000
AcDbSavedByObjectVersion
1070
     0
  0
VISUALSTYLE
  5
450
102
{ACAD_REACTORS
330
449
102
}
330
449
100
AcDbVisualStyle
  2
3dWireframe
 70
     5
 71
     0
 72
     2
 73
     0
 90
        0
 40
-0.6
 41
-30.0
 62
     5
 63
     7
 74
     1
 91
        4
 64
     7
 65
   257
 75
     1
175
     1
 42
1.0
 92
        0
 66
   257
 43
1.0
 76
     1
 77
     6
 78
     2
 67
     7
 79
     5
170
     0
171
     0
290
     0
174
     0
 93
        1
 44
0.0
173
     0
291
     0
 45
0.0
1001
ACAD
1000
AcDbSavedByObjectVersion
1070
     0
  0
VISUALSTYLE
  5
44E
102
{ACAD_REACTORS
330
449
102
}
330
449
100
AcDbVisualStyle
  2
Basic
 70
     7
 71
     1
 72
     0
 73
     1
 90
        0
 40
-0.6
 41
-30.0
 62
     5
 63
     7
 74
     0
 91
        4
 64
     7
 65
   257
 75
     1
175
     1
 42
1.0
 92
        8
 66
     7
 43
1.0
 76
     1
 77
     6
 78
     2
 67
     7
 79
     5
170
     0
171
     0
290
     0
174
     0
 93
        1
 44
0.0
173
     0
291
     1
 45
0.0
1001
ACAD
1000
AcDbSavedByObjectVersion
1070
     0
  0
VISUALSTYLE
  5
455
102
{ACAD_REACTORS
330
449
102
}
330
449
100
AcDbVisualStyle
  2
Brighten
 70
    12
 71
     2
 72
     2
 73
     0
 90
        0
 40
-0.6
 41
-30.0
 62
     5
 63
     7
 74
     1
 91
        4
 64
     7
 65
   257
 75
     1
175
     1
 42
1.0
 92
        8
 66
     7
 43
1.0
 76
     1
 77
     6
 78
     2
 67
     7
 79
     5
170
     0
171
     0
290
     0
174
     0
 93
        1
 44
50.0
173
     0
291
     1
 45
0.0
1001
ACAD
1000
AcDbSavedByObjectVersion
1070
     0
  0
VISUALSTYLE
  5
459
102
{ACAD_REACTORS
330
449
102
}
330
449
100
AcDbVisualStyle
  2
ColorChange
 70
    16
 71
     2
 72
     2
 73
     3
 90
        0
 40
-0.6
 41
-30.0
 62
     5
 63
     8
 74
     1
 91
        4
 64
     7
 65
   257
 75
     1
175
     1
 42
1.0
 92
        8
 66
     8
 43
1.0
 76
     1
 77
     6
 78
     2
 67
     7
 79
     5
170
     0
171
     0
290
     0
174
     0
 93
        1
 44
0.0
173
     0
291
     1
 45
0.0
1001
ACAD
1000
AcDbSavedByObjectVersion
1070
     0
  0
VISUALSTYLE
  5
452
102
{ACAD_REACTORS
330
449
102
}
330
449
100
AcDbVisualStyle
  2
Conceptual
 70
     9
 71
     3
 72
     2
 73
     0
 90
        0
 40
-0.6
 41
-30.0
 62
     5
 63
     7
 74
     2
 91
        2
 64
     7
 65
   257
 75
     1
175
     1
 42
40.0
 92
        8
 66
     7
 43
1.0
 76
     1
 77
     6
 78
     2
 67
     7
 79
     3
170
     0
171
     0
290
     0
174
     0
 93
        1
 44
0.0
173
     0
291
     0
 45
0.0
1001
ACAD
1000
AcDbSavedByObjectVersion
1070
     0
  0
VISUALSTYLE
  5
454
102
{ACAD_REACTORS
330
449
102
}
330
449
100
AcDbVisualStyle
  2
Dim
 70
    11
 71
     2
 72
     2
 73
     0
 90
        0
 40
-0.6
 41
-30.0
 62
     5
 63
     7
 74
     1
 91
        4
 64
     7
 65
   257
 75
     1
175
     1
 42
1.0
 92
        8
 66
     7
 43
1.0
 76
     1
 77
     6
 78
     2
 67
     7
 79
     5
170
     0
171
     0
290
     0
174
     0
 93
        1
 44
-50.0
173
     0
291
     1
 45
0.0
1001
ACAD
1000
AcDbSavedByObjectVersion
1070
     0
  0
VISUALSTYLE
  5
458
102
{ACAD_REACTORS
330
449
102
}
330
449
100
AcDbVisualStyle
  2
Facepattern
 70
    15
 71
     2
 72
     2
 73
     0
 90
        0
 40
-0.6
 41
-30.0
 62
     5
 63
     7
 74
     1
 91
        4
 64
     7
 65
   257
 75
     1
175
     1
 42
1.0
 92
        8
 66
     7
 43
1.0
 76
     1
 77
     6
 78
     2
 67
     7
 79
     5
170
     0
171
     0
290
     0
174
     0
 93
        1
 44
0.0
173
     0
291
     1
 45
0.0
1001
ACAD
1000
AcDbSavedByObjectVersion
1070
     0
  0
VISUALSTYLE
  5
44A
102
{ACAD_REACTORS
330
449
102
}
330
449
100
AcDbVisualStyle
  2
Flat
 70
     0
 71
     2
 72
     1
 73
     1
 90
        2
 40
-0.6
 41
30.0
 62
     5
 63
     7
 74
     0
 91
        4
 64
     7
 65
   257
 75
     1
175
     1
 42
1.0
 92
        8
 66
     7
 43
1.0
 76
     1
 77
     6
 78
     2
 67
     7
 79
     5
170
     0
171
     0
290
     0
174
     0
 93
       13
 44
0.0
173
     0
291
     1
 45
0.0
1001
ACAD
1000
AcDbSavedByObjectVersion
1070
     0
  0
VISUALSTYLE
  5
44B
102
{ACAD_REACTORS
330
449
102
}
330
449
100
AcDbVisualStyle
  2
FlatWithEdges
 70
     1
 71
     2
 72
     1
 73
     1
 90
        2
 40
-0.6
 41
30.0
 62
     5
 63
     7
 74
     1
 91
        4
 64
     7
 65
   257
 75
     1
175
     1
 42
1.0
 92
        0
 66
   257
 43
1.0
 76
     1
 77
     6
 78
     2
 67
     7
 79
     5
170
     0
171
     0
290
     0
174
     0
 93
       13
 44
0.0
173
     0
291
     1
 45
0.0
1001
ACAD
1000
AcDbSavedByObjectVersion
1070
     0
  0
VISUALSTYLE
  5
44C
102
{ACAD_REACTORS
330
449
102
}
330
449
100
AcDbVisualStyle
  2
Gouraud
 70
     2
 71
     2
 72
     2
 73
     1
 90
        2
 40
-0.6
 41
30.0
 62
     5
 63
     7
 74
     0
 91
        4
 64
     7
 65
   257
 75
     1
175
     1
 42
1.0
 92
        0
 66
     7
 43
1.0
 76
     1
 77
     6
 78
     2
 67
     7
 79
     5
170
     0
171
     0
290
     0
174
     0
 93
       13
 44
0.0
173
     0
291
     1
 45
0.0
1001
ACAD
1000
AcDbSavedByObjectVersion
1070
     0
  0
VISUALSTYLE
  5
44D
102
{ACAD_REACTORS
330
449
102
}
330
449
100
AcDbVisualStyle
  2
GouraudWithEdges
 70
     3
 71
     2
 72
     2
 73
     1
 90
        2
 40
-0.6
 41
30.0
 62
     5
 63
     7
 74
     1
 91
        4
 64
     7
 65
   257
 75
     1
175
     1
 42
1.0
 92
        0
 66
   257
 43
1.0
 76
     1
 77
     6
 78
     2
 67
     7
 79
     5
170
     0
171
     0
290
     0
174
     0
 93
       13
 44
0.0
173
     0
291
     1
 45
0.0
1001
ACAD
1000
AcDbSavedByObjectVersion
1070
     0
  0
VISUALSTYLE
  5
457
102
{ACAD_REACTORS
330
449
102
}
330
449
100
AcDbVisualStyle
  2
Linepattern
 70
    14
 71
     2
 72
     2
 73
     0
 90
        0
 40
-0.6
 41
-30.0
 62
     5
 63
     7
 74
     1
 91
        4
 64
     7
 65
   257
 75
     7
175
     7
 42
1.0
 92
        8
 66
     7
 43
1.0
 76
     1
 77
     6
 78
     2
 67
     7
 79
     5
170
     0
171
     0
290
     0
174
     0
 93
        1
 44
0.0
173
     0
291
     1
 45
0.0
1001
ACAD
1000
AcDbSavedByObjectVersion
1070
     0
  0
VISUALSTYLE
  5
453
102
{ACAD_REACTORS
330
449
102
}
330
449
100
AcDbVisualStyle
  2
Realistic
 70
     8
 71
     2
 72
     2
 73
     0
 90
        0
 40
-0.6
 41
-30.0
 62
     5
 63
     7
 74
     1
 91
        0
 64
     7
 65
   257
 75
     1
175
     1
 42
1.0
 92
        8
 66
     8
 43
1.0
 76
     1
 77
     6
 78
     2
 67
     7
 79
     5
170
     0
171
     0
290
     0
174
     0
 93
       13
 44
0.0
173
     0
291
     0
 45
0.0
1001
ACAD
1000
AcDbSavedByObjectVersion
1070
     0
  0
VISUALSTYLE
  5
456
102
{ACAD_REACTORS
330
449
102
}
330
449
100
AcDbVisualStyle
  2
Thicken
 70
    13
 71
     2
 72
     2
 73
     0
 90
        0
 40
-0.6
 41
-30.0
 62
     5
 63
     7
 74
     1
 91
        4
 64
     7
 65
   257
 75
     1
175
     1
 42
1.0
 92
       12
 66
     7
 43
1.0
 76
     1
 77
     6
 78
     2
 67
     7
 79
     5
170
     0
171
     0
290
     0
174
     0
 93
        1
 44
0.0
173
     0
291
     1
 45
0.0
1001
ACAD
1000
AcDbSavedByObjectVersion
1070
     0
  0
DICTIONARYVAR
  5
49A
102
{ACAD_REACTORS
330
2C0
102
}
330
2C0
100
DictionaryVariables
280
     0
  1
1:1
  0
DICTIONARYVAR
  5
499
102
{ACAD_REACTORS
330
2C0
102
}
330
2C0
100
DictionaryVariables
280
     0
  1
STANDARD
  0
DICTIONARYVAR
  5
2C1
102
{ACAD_REACTORS
330
2C0
102
}
330
2C0
100
DictionaryVariables
280
     0
  1
STANDARD
  0
DICTIONARYVAR
  5
2C2
102
{ACAD_REACTORS
330
2C0
102
}
330
2C0
100
DictionaryVariables
280
     0
  1
1
  0
DICTIONARYVAR
  5
49C
102
{ACAD_REACTORS
330
2C0
102
}
330
2C0
100
DictionaryVariables
280
     0
  1
0
  0
DICTIONARYVAR
  5
4A6
102
{ACAD_REACTORS
330
2C0
102
}
330
2C0
100
DictionaryVariables
280
     0
  1
0
  0
DICTIONARYVAR
  5
4A5
102
{ACAD_REACTORS
330
2C0
102
}
330
2C0
100
DictionaryVariables
280
     0
  1
0
  0
DICTIONARYVAR
  5
2C3
102
{ACAD_REACTORS
330
2C0
102
}
330
2C0
100
DictionaryVariables
280
     0
  1

  0
DICTIONARYVAR
  5
49B
102
{ACAD_REACTORS
330
2C0
102
}
330
2C0
100
DictionaryVariables
280
     0
  1
127
  0
DICTIONARY
  5
4B1
330
25
100
AcDbDictionary
280
     1
281
     1
  3
ACAD_XREC_ROUNDTRIP
360
4B2
  0
DICTIONARY
  5
4AF
330
21
100
AcDbDictionary
280
     1
281
     1
  3
ACAD_XREC_ROUNDTRIP
360
4B0
  0
DICTIONARY
  5
43A
330
439
100
AcDbDictionary
280
     1
281
     1
  3
ACAD_XREC_ROUNDTRIP
360
4B4
  3
BUMPTILE
360
43C
  3
DIFFUSETILE
360
43B
  3
OPACITYTILE
360
43F
  3
REFLECTIONTILE
360
43E
  3
REFRACTIONTILE
360
440
  3
SPECULARTILE
360
43D
  0
DICTIONARY
  5
432
330
431
100
AcDbDictionary
280
     1
281
     1
  3
ACAD_XREC_ROUNDTRIP
360
4B3
  3
BUMPTILE
360
434
  3
DIFFUSETILE
360
433
  3
OPACITYTILE
360
437
  3
REFLECTIONTILE
360
436
  3
REFRACTIONTILE
360
438
  3
SPECULARTILE
360
435
  0
DICTIONARY
  5
442
330
441
100
AcDbDictionary
280
     1
281
     1
  3
ACAD_XREC_ROUNDTRIP
360
4B5
  3
BUMPTILE
360
444
  3
DIFFUSETILE
360
443
  3
OPACITYTILE
360
447
  3
REFLECTIONTILE
360
446
  3
REFRACTIONTILE
360
448
  3
SPECULARTILE
360
445
  0
DICTIONARY
  5
488
330
1D
100
AcDbDictionary
280
     1
281
     1
  3
ACAD_ROUNDTRIP_2008_TABLESTYLE_CELLSTYLEMAP
360
4AC
  3
ACAD_XREC_ROUNDTRIP
360
4AE
  0
XRECORD
  5
4B2
102
{ACAD_REACTORS
330
4B1
102
}
330
4B1
100
AcDbXrecord
280
     1
102
SHADEPLOT
 70
     0
102
SHADEPLOTRESLEVEL
 70
     2
102
SHADEPLOTCUSTOMDPI
 70
   300
  0
XRECORD
  5
4B0
102
{ACAD_REACTORS
330
4AF
102
}
330
4AF
100
AcDbXrecord
280
     1
102
SHADEPLOT
 70
     0
102
SHADEPLOTRESLEVEL
 70
     2
102
SHADEPLOTCUSTOMDPI
 70
   300
  0
XRECORD
  5
4B4
102
{ACAD_REACTORS
330
43A
102
}
330
43A
100
AcDbXrecord
280
     1
102
MATERIAL
148
0.0
149
0.0
149
0.0
 93
        0
 94
      127
282
     0
 72
     0
 77
     0
171
     0
175
     0
179
     0
273
     0
  0
XRECORD
  5
43C
102
{ACAD_REACTORS
330
43A
102
}
330
43A
100
AcDbXrecord
280
     1
270
     1
271
     1
  0
XRECORD
  5
43B
102
{ACAD_REACTORS
330
43A
102
}
330
43A
100
AcDbXrecord
280
     1
270
     1
271
     1
  0
XRECORD
  5
43F
102
{ACAD_REACTORS
330
43A
102
}
330
43A
100
AcDbXrecord
280
     1
270
     1
271
     1
  0
XRECORD
  5
43E
102
{ACAD_REACTORS
330
43A
102
}
330
43A
100
AcDbXrecord
280
     1
270
     1
271
     1
  0
XRECORD
  5
440
102
{ACAD_REACTORS
330
43A
102
}
330
43A
100
AcDbXrecord
280
     1
270
     1
271
     1
  0
XRECORD
  5
43D
102
{ACAD_REACTORS
330
43A
102
}
330
43A
100
AcDbXrecord
280
     1
270
     1
271
     1
  0
XRECORD
  5
4B3
102
{ACAD_REACTORS
330
432
102
}
330
432
100
AcDbXrecord
280
     1
102
MATERIAL
148
0.0
149
0.0
149
0.0
 93
        0
 94
      127
282
     0
 72
     0
 77
     0
171
     0
175
     0
179
     0
273
     0
  0
XRECORD
  5
434
102
{ACAD_REACTORS
330
432
102
}
330
432
100
AcDbXrecord
280
     1
270
     1
271
     1
  0
XRECORD
  5
433
102
{ACAD_REACTORS
330
432
102
}
330
432
100
AcDbXrecord
280
     1
270
     1
271
     1
  0
XRECORD
  5
437
102
{ACAD_REACTORS
330
432
102
}
330
432
100
AcDbXrecord
280
     1
270
     1
271
     1
  0
XRECORD
  5
436
102
{ACAD_REACTORS
330
432
102
}
330
432
100
AcDbXrecord
280
     1
270
     1
271
     1
  0
XRECORD
  5
438
102
{ACAD_REACTORS
330
432
102
}
330
432
100
AcDbXrecord
280
     1
270
     1
271
     1
  0
XRECORD
  5
435
102
{ACAD_REACTORS
330
432
102
}
330
432
100
AcDbXrecord
280
     1
270
     1
271
     1
  0
XRECORD
  5
4B5
102
{ACAD_REACTORS
330
442
102
}
330
442
100
AcDbXrecord
280
     1
102
MATERIAL
148
0.0
149
0.0
149
0.0
 93
        0
 94
      127
282
     0
 72
     0
 77
     0
171
     0
175
     0
179
     0
273
     0
  0
XRECORD
  5
444
102
{ACAD_REACTORS
330
442
102
}
330
442
100
AcDbXrecord
280
     1
270
     1
271
     1
  0
XRECORD
  5
443
102
{ACAD_REACTORS
330
442
102
}
330
442
100
AcDbXrecord
280
     1
270
     1
271
     1
  0
XRECORD
  5
447
102
{ACAD_REACTORS
330
442
102
}
330
442
100
AcDbXrecord
280
     1
270
     1
271
     1
  0
XRECORD
  5
446
102
{ACAD_REACTORS
330
442
102
}
330
442
100
AcDbXrecord
280
     1
270
     1
271
     1
  0
XRECORD
  5
448
102
{ACAD_REACTORS
330
442
102
}
330
442
100
AcDbXrecord
280
     1
270
     1
271
     1
  0
XRECORD
  5
445
102
{ACAD_REACTORS
330
442
102
}
330
442
100
AcDbXrecord
280
     1
270
     1
271
     1
  0
CELLSTYLEMAP
  5
4AC
102
{ACAD_REACTORS
330
488
102
}
330
488
100
AcDbCellStyleMap
 90
        3
300
CELLSTYLE
  1
TABLEFORMAT_BEGIN
 90
        5
170
     1
 91
        0
 92
    32768
 62
   257
 93
        1
300
CONTENTFORMAT
  1
CONTENTFORMAT_BEGIN
 90
        0
 91
        0
 92
        4
 93
        0
300

 40
0.0
140
1.0
 94
        5
 62
     0
340
11
144
0.25
309
CONTENTFORMAT_END
171
     0
 94
        6
 95
        1
302
GRIDFORMAT
  1
GRIDFORMAT_BEGIN
 90
        0
 91
        1
 62
     0
 92
       -2
340
0
 93
        0
 40
0.045
309
GRIDFORMAT_END
 95
        2
302
GRIDFORMAT
  1
GRIDFORMAT_BEGIN
 90
        0
 91
        1
 62
     0
 92
       -2
340
0
 93
        0
 40
0.045
309
GRIDFORMAT_END
 95
        4
302
GRIDFORMAT
  1
GRIDFORMAT_BEGIN
 90
        0
 91
        1
 62
     0
 92
       -2
340
0
 93
        0
 40
0.045
309
GRIDFORMAT_END
 95
        8
302
GRIDFORMAT
  1
GRIDFORMAT_BEGIN
 90
        0
 91
        1
 62
     0
 92
       -2
340
0
 93
        0
 40
0.045
309
GRIDFORMAT_END
 95
       16
302
GRIDFORMAT
  1
GRIDFORMAT_BEGIN
 90
        0
 91
        1
 62
     0
 92
       -2
340
0
 93
        0
 40
0.045
309
GRIDFORMAT_END
 95
       32
302
GRIDFORMAT
  1
GRIDFORMAT_BEGIN
 90
        0
 91
        1
 62
     0
 92
       -2
340
0
 93
        0
 40
0.045
309
GRIDFORMAT_END
309
TABLEFORMAT_END
  1
CELLSTYLE_BEGIN
 90
        1
 91
        1
300
_TITLE
309
CELLSTYLE_END
300
CELLSTYLE
  1
TABLEFORMAT_BEGIN
 90
        5
170
     1
 91
        0
 92
        0
 62
   257
 93
        1
300
CONTENTFORMAT
  1
CONTENTFORMAT_BEGIN
 90
        0
 91
        0
 92
        4
 93
        0
300

 40
0.0
140
1.0
 94
        5
 62
     0
340
11
144
0.18
309
CONTENTFORMAT_END
171
     0
 94
        6
 95
        1
302
GRIDFORMAT
  1
GRIDFORMAT_BEGIN
 90
        0
 91
        1
 62
     0
 92
       -2
340
0
 93
        0
 40
0.045
309
GRIDFORMAT_END
 95
        2
302
GRIDFORMAT
  1
GRIDFORMAT_BEGIN
 90
        0
 91
        1
 62
     0
 92
       -2
340
0
 93
        0
 40
0.045
309
GRIDFORMAT_END
 95
        4
302
GRIDFORMAT
  1
GRIDFORMAT_BEGIN
 90
        0
 91
        1
 62
     0
 92
       -2
340
0
 93
        0
 40
0.045
309
GRIDFORMAT_END
 95
        8
302
GRIDFORMAT
  1
GRIDFORMAT_BEGIN
 90
        0
 91
        1
 62
     0
 92
       -2
340
0
 93
        0
 40
0.045
309
GRIDFORMAT_END
 95
       16
302
GRIDFORMAT
  1
GRIDFORMAT_BEGIN
 90
        0
 91
        1
 62
     0
 92
       -2
340
0
 93
        0
 40
0.045
309
GRIDFORMAT_END
 95
       32
302
GRIDFORMAT
  1
GRIDFORMAT_BEGIN
 90
        0
 91
        1
 62
     0
 92
       -2
340
0
 93
        0
 40
0.045
309
GRIDFORMAT_END
309
TABLEFORMAT_END
  1
CELLSTYLE_BEGIN
 90
        2
 91
        1
300
_HEADER
309
CELLSTYLE_END
300
CELLSTYLE
  1
TABLEFORMAT_BEGIN
 90
        5
170
     1
 91
        0
 92
        0
 62
   257
 93
        1
300
CONTENTFORMAT
  1
CONTENTFORMAT_BEGIN
 90
        0
 91
        0
 92
        4
 93
        0
300

 40
0.0
140
1.0
 94
        2
 62
     0
340
11
144
0.18
309
CONTENTFORMAT_END
171
     0
 94
        6
 95
        1
302
GRIDFORMAT
  1
GRIDFORMAT_BEGIN
 90
        0
 91
        1
 62
     0
 92
       -2
340
0
 93
        0
 40
0.045
309
GRIDFORMAT_END
 95
        2
302
GRIDFORMAT
  1
GRIDFORMAT_BEGIN
 90
        0
 91
        1
 62
     0
 92
       -2
340
0
 93
        0
 40
0.045
309
GRIDFORMAT_END
 95
        4
302
GRIDFORMAT
  1
GRIDFORMAT_BEGIN
 90
        0
 91
        1
 62
     0
 92
       -2
340
0
 93
        0
 40
0.045
309
GRIDFORMAT_END
 95
        8
302
GRIDFORMAT
  1
GRIDFORMAT_BEGIN
 90
        0
 91
        1
 62
     0
 92
       -2
340
0
 93
        0
 40
0.045
309
GRIDFORMAT_END
 95
       16
302
GRIDFORMAT
  1
GRIDFORMAT_BEGIN
 90
        0
 91
        1
 62
     0
 92
       -2
340
0
 93
        0
 40
0.045
309
GRIDFORMAT_END
 95
       32
302
GRIDFORMAT
  1
GRIDFORMAT_BEGIN
 90
        0
 91
        1
 62
     0
 92
       -2
340
0
 93
        0
 40
0.045
309
GRIDFORMAT_END
309
TABLEFORMAT_END
  1
CELLSTYLE_BEGIN
 90
        3
 91
        2
300
_DATA
309
CELLSTYLE_END
  0
XRECORD
  5
4AE
102
{ACAD_REACTORS
330
488
102
}
330
488
100
AcDbXrecord
280
     1
102
ACAD_ROUNDTRIP_PRE2007_TABLESTYLE
 90
        4
 91
        0
  1

 92
        4
 93
        0
  2

 94
        4
 95
        0
  3

  0
ENDSEC
  0
EOF
