  0
SECTION
  2
HEADER
  9
$ACADVER
  1
AC1014
  9
$ACADMAINTVER
 70
     0
  9
$DWGCODEPAGE
  3
ANSI_932
  9
$INSBASE
 10
0.0
 20
0.0
 30
0.0
  9
$EXTMIN
 10
0.0
 20
0.0
 30
0.0
  9
$EXTMAX
 10
841.0
 20
594.0
 30
0.0
  9
$LIMMIN
 10
0.0
 20
0.0
  9
$LIMMAX
 10
841.0
 20
594.0
  9
$ORTHOMODE
 70
     0
  9
$REGENMODE
 70
     1
  9
$FILLMODE
 70
     1
  9
$QTEXTMODE
 70
     0
  9
$MIRRTEXT
 70
     1
  9
$DRAGMODE
 70
     2
  9
$LTSCALE
 40
1.0
  9
$OSMODE
 70
     0
  9
$ATTMODE
 70
     1
  9
$TEXTSIZE
 40
0.2
  9
$TRACEWID
 40
0.05
  9
$TEXTSTYLE
  7
STANDARD
  9
$CLAYER
  8
LAY-1
  9
$CELTYPE
  6
CONTINUOUS
  9
$CECOLOR
 62
   256
  9
$CELTSCALE
 40
1.0
  9
$DELOBJ
 70
     1
  9
$DISPSILH
 70
     0
  9
$DIMSCALE
 40
1.0
  9
$DIMASZ
 40
0.18
  9
$DIMEXO
 40
0.0625
  9
$DIMDLI
 40
0.38
  9
$DIMRND
 40
0.0
  9
$DIMDLE
 40
0.0
  9
$DIMEXE
 40
0.18
  9
$DIMTP
 40
0.0
  9
$DIMTM
 40
0.0
  9
$DIMTXT
 40
0.18
  9
$DIMCEN
 40
0.09
  9
$DIMTSZ
 40
0.0
  9
$DIMTOL
 70
     0
  9
$DIMLIM
 70
     0
  9
$DIMTIH
 70
     1
  9
$DIMTOH
 70
     1
  9
$DIMSE1
 70
     0
  9
$DIMSE2
 70
     0
  9
$DIMTAD
 70
     0
  9
$DIMZIN
 70
     0
  9
$DIMBLK
  1

  9
$DIMASO
 70
     1
  9
$DIMSHO
 70
     1
  9
$DIMPOST
  1

  9
$DIMAPOST
  1

  9
$DIMALT
 70
     0
  9
$DIMALTD
 70
     2
  9
$DIMALTF
 40
25.4
  9
$DIMLFAC
 40
1.0
  9
$DIMTOFL
 70
     0
  9
$DIMTVP
 40
0.0
  9
$DIMTIX
 70
     0
  9
$DIMSOXD
 70
     0
  9
$DIMSAH
 70
     0
  9
$DIMBLK1
  1

  9
$DIMBLK2
  1

  9
$DIMSTYLE
  2
STANDARD
  9
$DIMCLRD
 70
     0
  9
$DIMCLRE
 70
     0
  9
$DIMCLRT
 70
     0
  9
$DIMTFAC
 40
1.0
  9
$DIMGAP
 40
0.09
  9
$DIMJUST
 70
     0
  9
$DIMSD1
 70
     0
  9
$DIMSD2
 70
     0
  9
$DIMTOLJ
 70
     1
  9
$DIMTZIN
 70
     0
  9
$DIMALTZ
 70
     0
  9
$DIMALTTZ
 70
     0
  9
$DIMFIT
 70
     3
  9
$DIMUPT
 70
     0
  9
$DIMUNIT
 70
     2
  9
$DIMDEC
 70
     4
  9
$DIMTDEC
 70
     4
  9
$DIMALTU
 70
     2
  9
$DIMALTTD
 70
     2
  9
$DIMTXSTY
  7
STANDARD
  9
$DIMAUNIT
 70
     0
  9
$LUNITS
 70
     2
  9
$LUPREC
 70
     4
  9
$SKETCHINC
 40
0.1
  9
$FILLETRAD
 40
0.0
  9
$AUNITS
 70
     0
  9
$AUPREC
 70
     0
  9
$MENU
  1
acad
  9
$ELEVATION
 40
0.0
  9
$PELEVATION
 40
0.0
  9
$THICKNESS
 40
0.0
  9
$LIMCHECK
 70
     0
  9
$BLIPMODE
 70
     1
  9
$CHAMFERA
 40
0.0
  9
$CHAMFERB
 40
0.0
  9
$CHAMFERC
 40
0.0
  9
$CHAMFERD
 40
0.0
  9
$SKPOLY
 70
     0
  9
$TDCREATE
 40
2454542.102612593
  9
$TDUPDATE
 40
2454542.102612593
  9
$TDINDWG
 40
0.0000000000
  9
$TDUSRTIMER
 40
0.0000000000
  9
$USRTIMER
 70
     1
  9
$ANGBASE
 50
0.0
  9
$ANGDIR
 70
     0
  9
$PDMODE
 70
     0
  9
$PDSIZE
 40
0.0
  9
$PLINEWID
 40
0.0
  9
$COORDS
 70
     1
  9
$SPLFRAME
 70
     0
  9
$SPLINETYPE
 70
     6
  9
$SPLINESEGS
 70
     8
  9
$ATTDIA
 70
     0
  9
$ATTREQ
 70
     1
  9
$HANDLING
 70
     1
  9
$HANDSEED
  5
703
  9
$SURFTAB1
 70
     6
  9
$SURFTAB2
 70
     6
  9
$SURFTYPE
 70
     6
  9
$SURFU
 70
     6
  9
$SURFV
 70
     6
  9
$UCSNAME
  2

  9
$UCSORG
 10
0.0
 20
0.0
 30
0.0
  9
$UCSXDIR
 10
1.0
 20
0.0
 30
0.0
  9
$UCSYDIR
 10
0.0
 20
1.0
 30
0.0
  9
$PUCSNAME
  2

  9
$PUCSORG
 10
0.0
 20
0.0
 30
0.0
  9
$PUCSXDIR
 10
1.0
 20
0.0
 30
0.0
  9
$PUCSYDIR
 10
0.0
 20
1.0
 30
0.0
  9
$USERI1
 70
     0
  9
$USERI2
 70
     0
  9
$USERI3
 70
     0
  9
$USERI4
 70
     0
  9
$USERI5
 70
     0
  9
$USERR1
 40
0.0
  9
$USERR2
 40
0.0
  9
$USERR3
 40
0.0
  9
$USERR4
 40
0.0
  9
$USERR5
 40
0.0
  9
$WORLDVIEW
 70
     1
  9
$SHADEDGE
 70
     3
  9
$SHADEDIF
 70
    70
  9
$TILEMODE
 70
     1
  9
$MAXACTVP
 70
    16
  9
$PINSBASE
 10
0.0
 20
0.0
 30
0.0
  9
$PLIMCHECK
 70
     0
  9
$PEXTMIN
 10
1.000000E+20
 20
1.000000E+20
 30
1.000000E+20
  9
$PEXTMAX
 10
-1.000000E+20
 20
-1.000000E+20
 30
-1.000000E+20
  9
$PLIMMIN
 10
0.0
 20
0.0
  9
$PLIMMAX
 10
12.0
 20
9.0
  9
$UNITMODE
 70
     0
  9
$VISRETAIN
 70
     0
  9
$PLINEGEN
 70
     1
  9
$PSLTSCALE
 70
     0
  9
$TREEDEPTH
 70
  3020
  9
$PICKSTYLE
 70
     1
  9
$CMLSTYLE
  2
Standard
  9
$CMLJUST
 70
     0
  9
$CMLSCALE
 40
1.0
  9
$PROXYGRAPHICS
 70
     0
  9
$MEASUREMENT
 70
     0
  0
ENDSEC
  0
SECTION
  2
CLASSES
  0
CLASS
  1
LWPOLYLINE
  2
AcDbPolyline
  3
"AutoCAD"
 90
        0
280
     0
281
     1
  0
CLASS
  1
IMAGE
  2
AcDbRasterImage
  3
ISM
 90
      127
280
     0
281
     1
  0
CLASS
  1
OLE2FRAME
  2
AcDbOle2Frame
  3
""
 90
        0
280
     0
281
     1
  0
CLASS
  1
HATCH
  2
AcDbHatch
  3
"ACAD_SEDONA"
 90
        0
280
     0
281
     1
  0
CLASS
  1
DICTIONARYVAR
  2
AcDbDictionaryVar
  3
"AutoCAD"
 90
        0
280
     0
281
     0
  0
CLASS
  1
RASTERVARIABLES
  2
AcDbRasterVariables
  3
ISM
 90
        0
280
     0
281
     0
  0
CLASS
  1
IMAGEDEF
  2
AcDbRasterImageDef
  3
ISM
 90
        0
280
     0
281
     0
  0
CLASS
  1
IMAGEDEF_REACTOR
  2
AcDbRasterImageDefReactor
  3
ISM
 90
        1
280
     0
281
     0
  0
CLASS
  1
IDBUFFER
  2
AcDbIdBuffer
  3
"Acad"
 90
        0
280
     0
281
     0
  0
CLASS
  1
SPATIAL_FILTER
  2
AcDbSpatialFilter
  3
"Acad"
 90
        0
280
     0
281
     0
  0
CLASS
  1
XRECORD
  2
AcDbXrecord
  3
"<Built In>"
 90
        0
280
     0
281
     0
  0
CLASS
  1
SORTENTSTABLE
  2
AcDbSortentsTable
  3
"AutoCAD"
 90
        0
280
     0
281
     0
  0
CLASS
  1
LAYER_INDEX
  2
AcDbLayerIndex
  3
"Acad"
 90
        0
280
     0
281
     0
  0
CLASS
  1
SPATIAL_INDEX
  2
AcDbSpatialIndex
  3
"Acad"
 90
        0
280
     0
281
     0
  0
CLASS
  1
OBJECT_PTR
  2
CAseDLPNTableRecord
  3
"ASE-LPNTableRecord"
 90
        1
280
     0
281
     0
  0
CLASS
  1
LAYOUT
  2
AcDbLayout
  3
"AutoCAD 2000"
 90
        0
280
     0
281
     0
  0
CLASS
  1
PLOTSETTINGS
  2
AcDbPlotSettings
  3
"AutoCAD 2000"
 90
        0
280
     0
281
     0
  0
CLASS
  1
ACDBDICTIONARYWDFLT
  2
AcDbDictionaryWithDefault
  3
"AutoCAD 2000"
 90
        0
280
     0
281
     0
  0
CLASS
  1
ACDBPLACEHOLDER
  2
AcDbPlaceHolder
  3
"AutoCAD 2000"
 90
        0
280
     0
281
     0
  0
CLASS
  1
VBA_PROJECT
  2
AcDbVbaProject
  3
"acadvba"
 90
        0
280
     0
281
     0
  0
CLASS
  1
WIPEOUT
  2
AcDbWipeout
  3
WipeOut|AutoCAD Express Tool|expresstools@autodesk.com
 90
      127
280
     0
281
     1
  0
CLASS
  1
WIPEOUTVARIABLES
  2
AcDbWipeoutVariables
  3
WipeOut|AutoCAD Express Tool|expresstools@autodesk.com
 90
        0
280
     0
281
     0
  0
CLASS
  1
RTEXT
  2
RText
  3
RText|AutoCAD Express Tool|expresstools@autodesk.com
 90
        0
280
     0
281
     1
  0
CLASS
  1
ARCALIGNEDTEXT
  2
AcDbArcAlignedText
  3
ATEXT|AutoCAD Express Tool|expresstools@autodesk.com
 90
        0
280
     0
281
     1
  0
ENDSEC
  0
SECTION
  2
TABLES
  0
TABLE
  2
VPORT
  5
7
100
AcDbSymbolTable
 70
     1
  0
VPORT
  5
15
100
AcDbSymbolTableRecord
100
AcDbViewportTableRecord
  2
*ACTIVE
 70
     0
 10
0.0
 20
0.0
 11
1.0
 21
1.0
 12
420.5
 22
297.0
 13
0.0
 23
0.0
 14
1.0
 24
1.0
 15
0.0
 25
0.0
 16
0.0
 26
0.0
 36
1.0
 17
0.0
 27
0.0
 37
0.0
 40
594.0
 41
1.722533
 42
50.0
 43
0.0
 44
0.0
 50
0.0
 51
0.0
 71
     0
 72
   100
 73
     1
 74
     1
 75
     0
 76
     0
 77
     0
 78
     0
  0
ENDTAB
  0
TABLE
  2
LTYPE
  5
4
100
AcDbSymbolTable
 70
     9
  0
LTYPE
  5
11
100
AcDbSymbolTableRecord
100
AcDbLinetypeTableRecord
  2
BYBLOCK
 70
    64
  3

 72
    65
 73
     0
 40
0.0
  0
LTYPE
  5
12
100
AcDbSymbolTableRecord
100
AcDbLinetypeTableRecord
  2
BYLAYER
 70
    64
  3

 72
    65
 73
     0
 40
0.0
  0
LTYPE
  5
13
100
AcDbSymbolTableRecord
100
AcDbLinetypeTableRecord
  2
CONTINUOUS
 70
    64
  3
実線
 72
    65
 73
     0
 40
0.0
  0
LTYPE
  5
1D
100
AcDbSymbolTableRecord
100
AcDbLinetypeTableRecord
  2
DASHED
 70
    64
  3
Dashed __ __ __ __ __ __ __ __ __ __ __ __ __ _
 72
    65
 73
     2
 40
19.05
 49
12.7
 74
     0
 49
-6.35
 74
     0
  0
LTYPE
  5
1E
100
AcDbSymbolTableRecord
100
AcDbLinetypeTableRecord
  2
DASHED2
 70
    64
  3
Dashed (.5x) _ _ _ _ _ _ _ _ _ _ _ _ _ _ _ _ _ 
 72
    65
 73
     2
 40
9.525
 49
6.35
 74
     0
 49
-3.175
 74
     0
  0
LTYPE
  5
1F
100
AcDbSymbolTableRecord
100
AcDbLinetypeTableRecord
  2
DASHDOT
 70
    64
  3
Dash dot __ . __ . __ . __ . __ . __ . __ . __
 72
    65
 73
     4
 40
25.4
 49
12.7
 74
     0
 49
-6.35
 74
     0
 49
0.0
 74
     0
 49
-6.35
 74
     0
  0
LTYPE
  5
20
100
AcDbSymbolTableRecord
100
AcDbLinetypeTableRecord
  2
DIVIDE
 70
    64
  3
Divide ____ . . ____ . . ____ . . ____ . . ____
 72
    65
 73
     6
 40
31.75
 49
12.7
 74
     0
 49
-6.35
 74
     0
 49
0.0
 74
     0
 49
-6.35
 74
     0
 49
0.0
 74
     0
 49
-6.35
 74
     0
  0
LTYPE
  5
21
100
AcDbSymbolTableRecord
100
AcDbLinetypeTableRecord
  2
ACAD_ISO06W100
 70
    64
  3
ISO long-dash triple-dot ____ ... ____ ... ____
 72
    65
 73
     8
 40
36.0
 49
24.0
 74
     0
 49
-3.0
 74
     0
 49
0.0
 74
     0
 49
-3.0
 74
     0
 49
0.0
 74
     0
 49
-3.0
 74
     0
 49
0.0
 74
     0
 49
-3.0
 74
     0
  0
LTYPE
  5
22
100
AcDbSymbolTableRecord
100
AcDbLinetypeTableRecord
  2
ACAD_ISO15W100
 70
    64
  3
ISO double-dash triple-dot __ __ . . . __ __ . .
 72
    65
 73
    10
 40
39.0
 49
12.0
 74
     0
 49
-3.0
 74
     0
 49
12.0
 74
     0
 49
-3.0
 74
     0
 49
0.0
 74
     0
 49
-3.0
 74
     0
 49
0.0
 74
     0
 49
-3.0
 74
     0
 49
0.0
 74
     0
 49
-3.0
 74
     0
  0
ENDTAB
  0
TABLE
  2
LAYER
  5
2
100
AcDbSymbolTable
 70
     9
  0
LAYER
  5
14
100
AcDbSymbolTableRecord
100
AcDbLayerTableRecord
  2
0
 70
     0
 62
     7
  6
CONTINUOUS
  0
LAYER
  5
25
100
AcDbSymbolTableRecord
100
AcDbLayerTableRecord
  2
LAY-1
 70
    64
 62
     3
  6
CONTINUOUS
  0
LAYER
  5
26
100
AcDbSymbolTableRecord
100
AcDbLayerTableRecord
  2
LAY-2
 70
    64
 62
     3
  6
CONTINUOUS
  0
LAYER
  5
27
100
AcDbSymbolTableRecord
100
AcDbLayerTableRecord
  2
LAY-3
 70
    64
 62
     3
  6
CONTINUOUS
  0
LAYER
  5
28
100
AcDbSymbolTableRecord
100
AcDbLayerTableRecord
  2
LAY-4
 70
    64
 62
     3
  6
CONTINUOUS
  0
LAYER
  5
29
100
AcDbSymbolTableRecord
100
AcDbLayerTableRecord
  2
LAY-5
 70
    64
 62
     1
  6
DASHDOT
  0
LAYER
  5
2A
100
AcDbSymbolTableRecord
100
AcDbLayerTableRecord
  2
LAY-6
 70
    64
 62
     2
  6
CONTINUOUS
  0
LAYER
  5
2B
100
AcDbSymbolTableRecord
100
AcDbLayerTableRecord
  2
LAY-9
 70
    64
 62
     1
  6
CONTINUOUS
  0
LAYER
  5
2C
100
AcDbSymbolTableRecord
100
AcDbLayerTableRecord
  2
LAY-10
 70
    64
 62
     5
  6
CONTINUOUS
  0
ENDTAB
  0
TABLE
  2
STYLE
  5
3
100
AcDbSymbolTable
 70
     3
  0
STYLE
  5
17
100
AcDbSymbolTableRecord
100
AcDbTextStyleTableRecord
  2
STANDARD
 70
     0
 40
0.0
 41
1.0
 50
0.0
 71
     0
 42
0.0
  3
monotxt
  4
extfont
  0
STYLE
  5
23
100
AcDbSymbolTableRecord
100
AcDbTextStyleTableRecord
  2
EXCADSTD
 70
    64
 40
0.0
 41
1.0
 50
0.0
 71
     0
 42
0.2
  3
monotxt
  4
extfont
  0
STYLE
  5
24
100
AcDbSymbolTableRecord
100
AcDbTextStyleTableRecord
  2
EXCADVERT
 70
    68
 40
0.0
 41
1.0
 50
0.0
 71
     0
 42
0.286885
  3
monotxt
  4
extfont
  0
ENDTAB
  0
TABLE
  2
VIEW
  5
5
100
AcDbSymbolTable
 70
     0
  0
ENDTAB
  0
TABLE
  2
UCS
  5
6
100
AcDbSymbolTable
 70
     0
  0
ENDTAB
  0
TABLE
  2
APPID
  5
8
100
AcDbSymbolTable
 70
     1
  0
APPID
  5
16
100
AcDbSymbolTableRecord
100
AcDbRegAppTableRecord
  2
ACAD
 70
     0
  0
ENDTAB
  0
TABLE
  2
DIMSTYLE
  5
9
100
AcDbSymbolTable
 70
     1
  0
DIMSTYLE
105
18
100
AcDbSymbolTableRecord
100
AcDbDimStyleTableRecord
  2
STANDARD
 70
     0
  3

  4

  5

  6

  7

 40
1.0
 41
0.18
 42
0.0625
 43
0.38
 44
0.18
 45
0.0
 46
0.0
 47
0.0
 48
0.0
 71
     0
 72
     0
 73
     1
 74
     1
 75
     0
 76
     0
 77
     0
 78
     0
140
0.18
141
0.09
142
0.0
143
25.4
144
1.0
145
0.0
146
1.0
147
0.09
170
     0
171
     2
172
     1
173
     0
174
     0
175
     0
176
     0
177
     0
178
     0
270
     2
271
     4
272
     4
273
     2
274
     2
275
     0
280
     0
281
     0
282
     0
283
     1
284
     0
285
     0
286
     0
287
     3
288
     0
340
17
  0
ENDTAB
  0
TABLE
  2
BLOCK_RECORD
  5
1
100
AcDbSymbolTable
 70
    16
  0
BLOCK_RECORD
  5
A
100
AcDbSymbolTableRecord
100
AcDbBlockTableRecord
  2
*MODEL_SPACE
  0
BLOCK_RECORD
  5
B
100
AcDbSymbolTableRecord
100
AcDbBlockTableRecord
  2
*PAPER_SPACE
  0
BLOCK_RECORD
  5
2D
100
AcDbSymbolTableRecord
100
AcDbBlockTableRecord
  2
_EX_NORM
  0
BLOCK_RECORD
  5
2E
100
AcDbSymbolTableRecord
100
AcDbBlockTableRecord
  2
_EX_BNORM
  0
BLOCK_RECORD
  5
2F
100
AcDbSymbolTableRecord
100
AcDbBlockTableRecord
  2
_EX_BCIR
  0
BLOCK_RECORD
  5
30
100
AcDbSymbolTableRecord
100
AcDbBlockTableRecord
  2
_EX_RCIVIL
  0
BLOCK_RECORD
  5
31
100
AcDbSymbolTableRecord
100
AcDbBlockTableRecord
  2
_EX_SLANT
  0
BLOCK_RECORD
  5
32
100
AcDbSymbolTableRecord
100
AcDbBlockTableRecord
  2
_EX_NONE
  0
BLOCK_RECORD
  5
33
100
AcDbSymbolTableRecord
100
AcDbBlockTableRecord
  2
_EX_CIVIL
  0
BLOCK_RECORD
  5
34
100
AcDbSymbolTableRecord
100
AcDbBlockTableRecord
  2
_EX_WCIR
  0
BLOCK_RECORD
  5
35
100
AcDbSymbolTableRecord
100
AcDbBlockTableRecord
  2
_EX_WCIR2
  0
BLOCK_RECORD
  5
36
100
AcDbSymbolTableRecord
100
AcDbBlockTableRecord
  2
_EX_WNORM
  0
BLOCK_RECORD
  5
37
100
AcDbSymbolTableRecord
100
AcDbBlockTableRecord
  2
_EX_NNORM
  0
BLOCK_RECORD
  5
38
100
AcDbSymbolTableRecord
100
AcDbBlockTableRecord
  2
_EX_BBOX
  0
BLOCK_RECORD
  5
39
100
AcDbSymbolTableRecord
100
AcDbBlockTableRecord
  2
_EX_WBOX
  0
BLOCK_RECORD
  5
3A
100
AcDbSymbolTableRecord
100
AcDbBlockTableRecord
  2
_EX_INTEGRAL
  0
BLOCK_RECORD
  5
3B
100
AcDbSymbolTableRecord
100
AcDbBlockTableRecord
  2
SYM-1
  0
BLOCK_RECORD
  5
3C
100
AcDbSymbolTableRecord
100
AcDbBlockTableRecord
  2
SYM-2
  0
ENDTAB
  0
ENDSEC
  0
SECTION
  2
BLOCKS
  0
BLOCK
  5
D
100
AcDbEntity
  8
0
100
AcDbBlockBegin
  2
*MODEL_SPACE
 70
     0
 10
0.0
 20
0.0
 30
0.0
  3
*MODEL_SPACE
  1

  0
ENDBLK
  5
E
100
AcDbEntity
  8
0
100
AcDbBlockEnd
  0
BLOCK
  5
F
100
AcDbEntity
 67
     1
  8
0
100
AcDbBlockBegin
  2
*PAPER_SPACE
 70
     0
 10
0.0
 20
0.0
 30
0.0
  3
*PAPER_SPACE
  1

  0
ENDBLK
  5
10
100
AcDbEntity
 67
     1
  8
0
100
AcDbBlockEnd
  0
BLOCK
  5
3D
100
AcDbEntity
  8
0
100
AcDbBlockBegin
  2
_EX_NORM
 70
     0
 10
0.0
 20
0.0
 30
0.0
  3
_EX_NORM
  1

  0
LINE
  5
3E
100
AcDbEntity
  8
0
  6
CONTINUOUS
 62
     0
100
AcDbLine
 10
0.0
 20
0.0
 30
0.0
 11
-1.0
 21
0.0
 31
0.0
  0
LINE
  5
3F
100
AcDbEntity
  8
0
  6
CONTINUOUS
 62
     0
100
AcDbLine
 10
0.0
 20
0.0
 30
0.0
 11
-1.0
 21
0.166667
 31
0.0
  0
LINE
  5
40
100
AcDbEntity
  8
0
  6
CONTINUOUS
 62
     0
100
AcDbLine
 10
0.0
 20
0.0
 30
0.0
 11
-1.0
 21
-0.166667
 31
0.0
  0
ENDBLK
  5
41
100
AcDbEntity
  8
0
100
AcDbBlockEnd
  0
BLOCK
  5
42
100
AcDbEntity
  8
0
100
AcDbBlockBegin
  2
_EX_BNORM
 70
     0
 10
0.0
 20
0.0
 30
0.0
  3
_EX_BNORM
  1

  0
LINE
  5
43
100
AcDbEntity
  8
0
  6
CONTINUOUS
 62
     0
100
AcDbLine
 10
0.0
 20
0.0
 30
0.0
 11
-1.0
 21
0.0
 31
0.0
  0
LINE
  5
44
100
AcDbEntity
  8
0
  6
CONTINUOUS
 62
     0
100
AcDbLine
 10
0.0
 20
0.0
 30
0.0
 11
-1.0
 21
0.166667
 31
0.0
  0
LINE
  5
45
100
AcDbEntity
  8
0
  6
CONTINUOUS
 62
     0
100
AcDbLine
 10
0.0
 20
0.0
 30
0.0
 11
-1.0
 21
-0.166667
 31
0.0
  0
LINE
  5
46
100
AcDbEntity
  8
0
  6
CONTINUOUS
 62
     0
100
AcDbLine
 10
0.0
 20
0.0
 30
0.0
 11
-1.0
 21
0.083333
 31
0.0
  0
LINE
  5
47
100
AcDbEntity
  8
0
  6
CONTINUOUS
 62
     0
100
AcDbLine
 10
0.0
 20
0.0
 30
0.0
 11
-1.0
 21
-0.083333
 31
0.0
  0
LINE
  5
48
100
AcDbEntity
  8
0
  6
CONTINUOUS
 62
     0
100
AcDbLine
 10
-1.0
 20
0.166667
 30
0.0
 11
-1.0
 21
-0.166667
 31
0.0
  0
ENDBLK
  5
49
100
AcDbEntity
  8
0
100
AcDbBlockEnd
  0
BLOCK
  5
4A
100
AcDbEntity
  8
0
100
AcDbBlockBegin
  2
_EX_BCIR
 70
     0
 10
0.0
 20
0.0
 30
0.0
  3
_EX_BCIR
  1

  0
LINE
  5
4B
100
AcDbEntity
  8
0
  6
CONTINUOUS
 62
     0
100
AcDbLine
 10
0.0
 20
0.0
 30
0.0
 11
-1.0
 21
0.0
 31
0.0
  0
CIRCLE
  5
4C
100
AcDbEntity
  8
0
  6
CONTINUOUS
 62
     0
100
AcDbCircle
 10
0.0
 20
0.0
 30
0.0
 40
0.5
  0
CIRCLE
  5
4D
100
AcDbEntity
  8
0
  6
CONTINUOUS
 62
     0
100
AcDbCircle
 10
0.0
 20
0.0
 30
0.0
 40
0.25
  0
ENDBLK
  5
4E
100
AcDbEntity
  8
0
100
AcDbBlockEnd
  0
BLOCK
  5
4F
100
AcDbEntity
  8
0
100
AcDbBlockBegin
  2
_EX_RCIVIL
 70
     0
 10
0.0
 20
0.0
 30
0.0
  3
_EX_RCIVIL
  1

  0
LINE
  5
50
100
AcDbEntity
  8
0
  6
CONTINUOUS
 62
     0
100
AcDbLine
 10
0.0
 20
0.0
 30
0.0
 11
-1.0
 21
0.0
 31
0.0
  0
LINE
  5
51
100
AcDbEntity
  8
0
  6
CONTINUOUS
 62
     0
100
AcDbLine
 10
-1.0
 20
-0.25
 30
0.0
 11
0.0
 21
-0.25
 31
0.0
  0
LINE
  5
52
100
AcDbEntity
  8
0
  6
CONTINUOUS
 62
     0
100
AcDbLine
 10
-1.0
 20
-0.125
 30
0.0
 11
0.0
 21
-0.125
 31
0.0
  0
ENDBLK
  5
53
100
AcDbEntity
  8
0
100
AcDbBlockEnd
  0
BLOCK
  5
54
100
AcDbEntity
  8
0
100
AcDbBlockBegin
  2
_EX_SLANT
 70
     0
 10
0.0
 20
0.0
 30
0.0
  3
_EX_SLANT
  1

  0
LINE
  5
55
100
AcDbEntity
  8
0
  6
CONTINUOUS
 62
     0
100
AcDbLine
 10
0.0
 20
0.0
 30
0.0
 11
-1.0
 21
0.0
 31
0.0
  0
LINE
  5
56
100
AcDbEntity
  8
0
  6
CONTINUOUS
 62
     0
100
AcDbLine
 10
0.707107
 20
0.707107
 30
0.0
 11
-0.707107
 21
-0.707107
 31
0.0
  0
ENDBLK
  5
57
100
AcDbEntity
  8
0
100
AcDbBlockEnd
  0
BLOCK
  5
58
100
AcDbEntity
  8
0
100
AcDbBlockBegin
  2
_EX_NONE
 70
     0
 10
0.0
 20
0.0
 30
0.0
  3
_EX_NONE
  1

  0
LINE
  5
59
100
AcDbEntity
  8
0
  6
CONTINUOUS
 62
     0
100
AcDbLine
 10
0.0
 20
0.0
 30
0.0
 11
-1.0
 21
0.0
 31
0.0
  0
ENDBLK
  5
5A
100
AcDbEntity
  8
0
100
AcDbBlockEnd
  0
BLOCK
  5
5B
100
AcDbEntity
  8
0
100
AcDbBlockBegin
  2
_EX_CIVIL
 70
     0
 10
0.0
 20
0.0
 30
0.0
  3
_EX_CIVIL
  1

  0
LINE
  5
5C
100
AcDbEntity
  8
0
  6
CONTINUOUS
 62
     0
100
AcDbLine
 10
0.0
 20
0.0
 30
0.0
 11
-1.0
 21
0.0
 31
0.0
  0
LINE
  5
5D
100
AcDbEntity
  8
0
  6
CONTINUOUS
 62
     0
100
AcDbLine
 10
-1.0
 20
0.25
 30
0.0
 11
0.0
 21
0.25
 31
0.0
  0
LINE
  5
5E
100
AcDbEntity
  8
0
  6
CONTINUOUS
 62
     0
100
AcDbLine
 10
-1.0
 20
0.125
 30
0.0
 11
0.0
 21
0.125
 31
0.0
  0
ENDBLK
  5
5F
100
AcDbEntity
  8
0
100
AcDbBlockEnd
  0
BLOCK
  5
60
100
AcDbEntity
  8
0
100
AcDbBlockBegin
  2
_EX_WCIR
 70
     0
 10
0.0
 20
0.0
 30
0.0
  3
_EX_WCIR
  1

  0
LINE
  5
61
100
AcDbEntity
  8
0
  6
CONTINUOUS
 62
     0
100
AcDbLine
 10
0.0
 20
0.0
 30
0.0
 11
-1.0
 21
0.0
 31
0.0
  0
CIRCLE
  5
62
100
AcDbEntity
  8
0
  6
CONTINUOUS
 62
     0
100
AcDbCircle
 10
0.0
 20
0.0
 30
0.0
 40
0.5
  0
ENDBLK
  5
63
100
AcDbEntity
  8
0
100
AcDbBlockEnd
  0
BLOCK
  5
64
100
AcDbEntity
  8
0
100
AcDbBlockBegin
  2
_EX_WCIR2
 70
     0
 10
0.0
 20
0.0
 30
0.0
  3
_EX_WCIR2
  1

  0
LINE
  5
65
100
AcDbEntity
  8
0
  6
CONTINUOUS
 62
     0
100
AcDbLine
 10
-0.5
 20
0.0
 30
0.0
 11
-1.0
 21
0.0
 31
0.0
  0
CIRCLE
  5
66
100
AcDbEntity
  8
0
  6
CONTINUOUS
 62
     0
100
AcDbCircle
 10
0.0
 20
0.0
 30
0.0
 40
0.5
  0
ENDBLK
  5
67
100
AcDbEntity
  8
0
100
AcDbBlockEnd
  0
BLOCK
  5
68
100
AcDbEntity
  8
0
100
AcDbBlockBegin
  2
_EX_WNORM
 70
     0
 10
0.0
 20
0.0
 30
0.0
  3
_EX_WNORM
  1

  0
LINE
  5
69
100
AcDbEntity
  8
0
  6
CONTINUOUS
 62
     0
100
AcDbLine
 10
-1.0
 20
0.0
 30
0.0
 11
-1.0
 21
0.0
 31
0.0
  0
LINE
  5
6A
100
AcDbEntity
  8
0
  6
CONTINUOUS
 62
     0
100
AcDbLine
 10
0.0
 20
0.0
 30
0.0
 11
-1.0
 21
0.166667
 31
0.0
  0
LINE
  5
6B
100
AcDbEntity
  8
0
  6
CONTINUOUS
 62
     0
100
AcDbLine
 10
0.0
 20
0.0
 30
0.0
 11
-1.0
 21
-0.166667
 31
0.0
  0
LINE
  5
6C
100
AcDbEntity
  8
0
  6
CONTINUOUS
 62
     0
100
AcDbLine
 10
-1.0
 20
0.166667
 30
0.0
 11
-1.0
 21
-0.166667
 31
0.0
  0
ENDBLK
  5
6D
100
AcDbEntity
  8
0
100
AcDbBlockEnd
  0
BLOCK
  5
6E
100
AcDbEntity
  8
0
100
AcDbBlockBegin
  2
_EX_NNORM
 70
     0
 10
0.0
 20
0.0
 30
0.0
  3
_EX_NNORM
  1

  0
LINE
  5
6F
100
AcDbEntity
  8
0
  6
CONTINUOUS
 62
     0
100
AcDbLine
 10
0.0
 20
0.0
 30
0.0
 11
-1.0
 21
0.0
 31
0.0
  0
LINE
  5
70
100
AcDbEntity
  8
0
  6
CONTINUOUS
 62
     0
100
AcDbLine
 10
0.0
 20
0.0
 30
0.0
 11
-1.0
 21
0.166667
 31
0.0
  0
LINE
  5
71
100
AcDbEntity
  8
0
  6
CONTINUOUS
 62
     0
100
AcDbLine
 10
0.0
 20
0.0
 30
0.0
 11
-1.0
 21
-0.166667
 31
0.0
  0
LINE
  5
72
100
AcDbEntity
  8
0
  6
CONTINUOUS
 62
     0
100
AcDbLine
 10
-1.0
 20
0.166667
 30
0.0
 11
-1.0
 21
-0.166667
 31
0.0
  0
ENDBLK
  5
73
100
AcDbEntity
  8
0
100
AcDbBlockEnd
  0
BLOCK
  5
74
100
AcDbEntity
  8
0
100
AcDbBlockBegin
  2
_EX_BBOX
 70
     0
 10
0.0
 20
0.0
 30
0.0
  3
_EX_BBOX
  1

  0
LINE
  5
75
100
AcDbEntity
  8
0
  6
CONTINUOUS
 62
     0
100
AcDbLine
 10
0.0
 20
0.0
 30
0.0
 11
-1.0
 21
0.0
 31
0.0
  0
LINE
  5
76
100
AcDbEntity
  8
0
  6
CONTINUOUS
 62
     0
100
AcDbLine
 10
-0.5
 20
0.5
 30
0.0
 11
0.5
 21
0.5
 31
0.0
  0
LINE
  5
77
100
AcDbEntity
  8
0
  6
CONTINUOUS
 62
     0
100
AcDbLine
 10
0.5
 20
0.5
 30
0.0
 11
0.5
 21
-0.5
 31
0.0
  0
LINE
  5
78
100
AcDbEntity
  8
0
  6
CONTINUOUS
 62
     0
100
AcDbLine
 10
0.5
 20
-0.5
 30
0.0
 11
-0.5
 21
-0.5
 31
0.0
  0
LINE
  5
79
100
AcDbEntity
  8
0
  6
CONTINUOUS
 62
     0
100
AcDbLine
 10
-0.5
 20
-0.5
 30
0.0
 11
-0.5
 21
0.5
 31
0.0
  0
LINE
  5
7A
100
AcDbEntity
  8
0
  6
CONTINUOUS
 62
     0
100
AcDbLine
 10
-0.25
 20
0.25
 30
0.0
 11
0.25
 21
0.25
 31
0.0
  0
LINE
  5
7B
100
AcDbEntity
  8
0
  6
CONTINUOUS
 62
     0
100
AcDbLine
 10
0.25
 20
0.25
 30
0.0
 11
0.25
 21
-0.25
 31
0.0
  0
LINE
  5
7C
100
AcDbEntity
  8
0
  6
CONTINUOUS
 62
     0
100
AcDbLine
 10
0.25
 20
-0.25
 30
0.0
 11
-0.25
 21
-0.25
 31
0.0
  0
LINE
  5
7D
100
AcDbEntity
  8
0
  6
CONTINUOUS
 62
     0
100
AcDbLine
 10
-0.25
 20
-0.25
 30
0.0
 11
-0.25
 21
0.25
 31
0.0
  0
ENDBLK
  5
7E
100
AcDbEntity
  8
0
100
AcDbBlockEnd
  0
BLOCK
  5
7F
100
AcDbEntity
  8
0
100
AcDbBlockBegin
  2
_EX_WBOX
 70
     0
 10
0.0
 20
0.0
 30
0.0
  3
_EX_WBOX
  1

  0
LINE
  5
80
100
AcDbEntity
  8
0
  6
CONTINUOUS
 62
     0
100
AcDbLine
 10
-0.5
 20
0.0
 30
0.0
 11
-1.0
 21
0.0
 31
0.0
  0
LINE
  5
81
100
AcDbEntity
  8
0
  6
CONTINUOUS
 62
     0
100
AcDbLine
 10
-0.5
 20
0.5
 30
0.0
 11
0.5
 21
0.5
 31
0.0
  0
LINE
  5
82
100
AcDbEntity
  8
0
  6
CONTINUOUS
 62
     0
100
AcDbLine
 10
0.5
 20
0.5
 30
0.0
 11
0.5
 21
-0.5
 31
0.0
  0
LINE
  5
83
100
AcDbEntity
  8
0
  6
CONTINUOUS
 62
     0
100
AcDbLine
 10
0.5
 20
-0.5
 30
0.0
 11
-0.5
 21
-0.5
 31
0.0
  0
LINE
  5
84
100
AcDbEntity
  8
0
  6
CONTINUOUS
 62
     0
100
AcDbLine
 10
-0.5
 20
-0.5
 30
0.0
 11
-0.5
 21
0.5
 31
0.0
  0
ENDBLK
  5
85
100
AcDbEntity
  8
0
100
AcDbBlockEnd
  0
BLOCK
  5
86
100
AcDbEntity
  8
0
100
AcDbBlockBegin
  2
_EX_INTEGRAL
 70
     0
 10
0.0
 20
0.0
 30
0.0
  3
_EX_INTEGRAL
  1

  0
LINE
  5
87
100
AcDbEntity
  8
0
  6
CONTINUOUS
 62
     0
100
AcDbLine
 10
0.0
 20
0.0
 30
0.0
 11
-1.0
 21
0.0
 31
0.0
  0
ARC
  5
88
100
AcDbEntity
  8
0
  6
CONTINUOUS
 62
     0
100
AcDbCircle
 10
0.542115
 20
0.164992
 30
0.0
 40
0.56667
100
AcDbArc
 50
73.07249
 51
196.927513
  0
ARC
  5
89
100
AcDbEntity
  8
0
  6
CONTINUOUS
 62
     0
100
AcDbCircle
 10
-0.542115
 20
-0.164992
 30
0.0
 40
0.56667
100
AcDbArc
 50
253.072487
 51
16.927513
  0
ENDBLK
  5
8A
100
AcDbEntity
  8
0
100
AcDbBlockEnd
  0
BLOCK
  5
8B
100
AcDbEntity
  8
0
100
AcDbBlockBegin
  2
SYM-1
 70
     0
 10
0.0
 20
0.0
 30
0.0
  3
SYM-1
  1

  0
ARC
  5
8C
100
AcDbEntity
  8
0
  6
CONTINUOUS
 62
     3
100
AcDbCircle
 10
1.5
 20
1.5
 30
0.0
 40
1.0
100
AcDbArc
 50
180.0
 51
270.0
  0
ARC
  5
8D
100
AcDbEntity
  8
0
  6
CONTINUOUS
 62
     3
100
AcDbCircle
 10
-1.5
 20
-1.5
 30
0.0
 40
1.0
100
AcDbArc
 50
0.0
 51
90.0
  0
ARC
  5
8E
100
AcDbEntity
  8
0
  6
CONTINUOUS
 62
     3
100
AcDbCircle
 10
-1.5
 20
1.5
 30
0.0
 40
1.0
100
AcDbArc
 50
270.0
 51
0.0
  0
ARC
  5
8F
100
AcDbEntity
  8
0
  6
CONTINUOUS
 62
     3
100
AcDbCircle
 10
1.5
 20
-1.5
 30
0.0
 40
1.0
100
AcDbArc
 50
90.0
 51
180.0
  0
ARC
  5
90
100
AcDbEntity
  8
0
  6
CONTINUOUS
 62
     3
100
AcDbCircle
 10
1.5
 20
1.5
 30
0.0
 40
1.0
100
AcDbArc
 50
180.0
 51
270.0
  0
ARC
  5
91
100
AcDbEntity
  8
0
  6
CONTINUOUS
 62
     3
100
AcDbCircle
 10
1.5
 20
-1.5
 30
0.0
 40
1.0
100
AcDbArc
 50
90.0
 51
180.0
  0
CIRCLE
  5
92
100
AcDbEntity
  8
0
  6
CONTINUOUS
 62
     3
100
AcDbCircle
 10
0.0
 20
0.0
 30
0.0
 40
4.0
  0
LINE
  5
93
100
AcDbEntity
  8
0
  6
CONTINUOUS
 62
     3
100
AcDbLine
 10
0.5
 20
1.5
 30
0.0
 11
0.5
 21
2.25
 31
0.0
  0
LINE
  5
94
100
AcDbEntity
  8
0
  6
CONTINUOUS
 62
     3
100
AcDbLine
 10
-0.5
 20
2.25
 30
0.0
 11
0.5
 21
2.25
 31
0.0
  0
LINE
  5
95
100
AcDbEntity
  8
0
  6
CONTINUOUS
 62
     3
100
AcDbLine
 10
-0.5
 20
1.5
 30
0.0
 11
-0.5
 21
2.25
 31
0.0
  0
LINE
  5
96
100
AcDbEntity
  8
0
  6
CONTINUOUS
 62
     3
100
AcDbLine
 10
-0.5
 20
1.5
 30
0.0
 11
-0.5
 21
2.25
 31
0.0
  0
LINE
  5
97
100
AcDbEntity
  8
0
  6
CONTINUOUS
 62
     3
100
AcDbLine
 10
0.5
 20
2.25
 30
0.0
 11
-0.5
 21
2.25
 31
0.0
  0
LINE
  5
98
100
AcDbEntity
  8
0
  6
CONTINUOUS
 62
     3
100
AcDbLine
 10
0.5
 20
1.5
 30
0.0
 11
0.5
 21
2.25
 31
0.0
  0
LINE
  5
99
100
AcDbEntity
  8
0
  6
CONTINUOUS
 62
     3
100
AcDbLine
 10
-2.25
 20
-0.5
 30
0.0
 11
-2.25
 21
0.5
 31
0.0
  0
LINE
  5
9A
100
AcDbEntity
  8
0
  6
CONTINUOUS
 62
     3
100
AcDbLine
 10
0.5
 20
-2.25
 30
0.0
 11
-0.5
 21
-2.25
 31
0.0
  0
LINE
  5
9B
100
AcDbEntity
  8
0
  6
CONTINUOUS
 62
     3
100
AcDbLine
 10
2.25
 20
0.5
 30
0.0
 11
2.25
 21
-0.5
 31
0.0
  0
LINE
  5
9C
100
AcDbEntity
  8
0
  6
CONTINUOUS
 62
     3
100
AcDbLine
 10
-1.5
 20
-0.5
 30
0.0
 11
-2.25
 21
-0.5
 31
0.0
  0
LINE
  5
9D
100
AcDbEntity
  8
0
  6
CONTINUOUS
 62
     3
100
AcDbLine
 10
-1.5
 20
0.5
 30
0.0
 11
-2.25
 21
0.5
 31
0.0
  0
LINE
  5
9E
100
AcDbEntity
  8
0
  6
CONTINUOUS
 62
     3
100
AcDbLine
 10
0.5
 20
-1.5
 30
0.0
 11
0.5
 21
-2.25
 31
0.0
  0
LINE
  5
9F
100
AcDbEntity
  8
0
  6
CONTINUOUS
 62
     3
100
AcDbLine
 10
-0.5
 20
-1.5
 30
0.0
 11
-0.5
 21
-2.25
 31
0.0
  0
LINE
  5
A0
100
AcDbEntity
  8
0
  6
CONTINUOUS
 62
     3
100
AcDbLine
 10
-0.5
 20
-1.5
 30
0.0
 11
-0.5
 21
-2.25
 31
0.0
  0
LINE
  5
A1
100
AcDbEntity
  8
0
  6
CONTINUOUS
 62
     3
100
AcDbLine
 10
0.5
 20
-1.5
 30
0.0
 11
0.5
 21
-2.25
 31
0.0
  0
LINE
  5
A2
100
AcDbEntity
  8
0
  6
CONTINUOUS
 62
     3
100
AcDbLine
 10
1.5
 20
-0.5
 30
0.0
 11
2.25
 21
-0.5
 31
0.0
  0
LINE
  5
A3
100
AcDbEntity
  8
0
  6
CONTINUOUS
 62
     3
100
AcDbLine
 10
1.5
 20
0.5
 30
0.0
 11
2.25
 21
0.5
 31
0.0
  0
LINE
  5
A4
100
AcDbEntity
  8
0
  6
CONTINUOUS
 62
     3
100
AcDbLine
 10
1.5
 20
0.5
 30
0.0
 11
2.25
 21
0.5
 31
0.0
  0
ENDBLK
  5
A5
100
AcDbEntity
  8
0
100
AcDbBlockEnd
  0
BLOCK
  5
A6
100
AcDbEntity
  8
0
100
AcDbBlockBegin
  2
SYM-2
 70
     0
 10
0.0
 20
0.0
 30
0.0
  3
SYM-2
  1

  0
TEXT
  5
A7
100
AcDbEntity
  8
0
  6
CONTINUOUS
 62
     2
100
AcDbText
 10
-2.7
 20
-1.0
 30
0.0
 40
5.0
  1
Ｐ
 41
0.672
  7
EXCADSTD
 72
     5
 11
0.5
 21
-1.0
 31
0.0
100
AcDbText
  0
TEXT
  5
A8
100
AcDbEntity
  8
0
  6
CONTINUOUS
 62
     2
100
AcDbText
 10
-1.8
 20
-0.9
 30
0.0
 40
5.0
  1
Ｌ
 41
0.672
  7
EXCADSTD
 72
     5
 11
1.4
 21
-0.9
 31
0.0
100
AcDbText
  0
ENDBLK
  5
A9
100
AcDbEntity
  8
0
100
AcDbBlockEnd
  0
ENDSEC
  0
SECTION
  2
ENTITIES
  0
LINE
  5
AA
100
AcDbEntity
  8
LAY-1
  6
CONTINUOUS
 62
     3
100
AcDbLine
 10
489.721344
 20
493.940918
 30
0.0
 11
307.721344
 21
493.940918
 31
0.0
  0
LINE
  5
AB
100
AcDbEntity
  8
LAY-1
  6
CONTINUOUS
 62
     3
100
AcDbLine
 10
489.721344
 20
530.940918
 30
0.0
 11
307.721344
 21
530.940918
 31
0.0
  0
LINE
  5
AC
100
AcDbEntity
  8
LAY-1
  6
CONTINUOUS
 62
     3
100
AcDbLine
 10
489.721344
 20
530.940918
 30
0.0
 11
489.721344
 21
493.940979
 31
0.0
  0
LINE
  5
AD
100
AcDbEntity
  8
LAY-1
  6
CONTINUOUS
 62
     3
100
AcDbLine
 10
307.721344
 20
530.940918
 30
0.0
 11
307.721344
 21
493.940979
 31
0.0
  0
LINE
  5
AE
100
AcDbEntity
  8
LAY-1
  6
CONTINUOUS
 62
     3
100
AcDbLine
 10
314.721344
 20
496.440979
 30
0.0
 11
314.721344
 21
528.440918
 31
0.0
  0
LINE
  5
AF
100
AcDbEntity
  8
LAY-1
  6
CONTINUOUS
 62
     3
100
AcDbLine
 10
314.721344
 20
528.440918
 30
0.0
 11
483.721344
 21
528.440918
 31
0.0
  0
LINE
  5
B0
100
AcDbEntity
  8
LAY-1
  6
CONTINUOUS
 62
     3
100
AcDbLine
 10
314.721344
 20
496.440979
 30
0.0
 11
483.721344
 21
496.440979
 31
0.0
  0
LINE
  5
B1
100
AcDbEntity
  8
LAY-1
  6
CONTINUOUS
 62
     3
100
AcDbLine
 10
483.721344
 20
528.440918
 30
0.0
 11
483.721344
 21
496.440979
 31
0.0
  0
CIRCLE
  5
B2
100
AcDbEntity
  8
LAY-1
  6
DASHED2
 62
     3
100
AcDbCircle
 10
323.721344
 20
503.440979
 30
0.0
 40
6.0
  0
CIRCLE
  5
B3
100
AcDbEntity
  8
LAY-1
  6
CONTINUOUS
 62
     3
100
AcDbCircle
 10
323.721344
 20
503.440979
 30
0.0
 40
3.35
  0
CIRCLE
  5
B4
100
AcDbEntity
  8
LAY-1
  6
DASHED2
 62
     3
100
AcDbCircle
 10
470.721344
 20
503.440979
 30
0.0
 40
6.0
  0
CIRCLE
  5
B5
100
AcDbEntity
  8
LAY-1
  6
CONTINUOUS
 62
     3
100
AcDbCircle
 10
470.721344
 20
503.440979
 30
0.0
 40
3.35
  0
CIRCLE
  5
B6
100
AcDbEntity
  8
LAY-1
  6
DASHED2
 62
     3
100
AcDbCircle
 10
323.721344
 20
521.440918
 30
0.0
 40
6.0
  0
CIRCLE
  5
B7
100
AcDbEntity
  8
LAY-1
  6
CONTINUOUS
 62
     3
100
AcDbCircle
 10
323.721344
 20
521.440918
 30
0.0
 40
3.35
  0
CIRCLE
  5
B8
100
AcDbEntity
  8
LAY-1
  6
DASHED2
 62
     3
100
AcDbCircle
 10
470.721344
 20
521.440918
 30
0.0
 40
6.0
  0
CIRCLE
  5
B9
100
AcDbEntity
  8
LAY-1
  6
CONTINUOUS
 62
     3
100
AcDbCircle
 10
470.721344
 20
521.440918
 30
0.0
 40
3.35
  0
CIRCLE
  5
BA
100
AcDbEntity
  8
LAY-1
  6
CONTINUOUS
 62
     3
100
AcDbCircle
 10
348.721329
 20
512.440918
 30
0.0
 40
6.25
  0
LINE
  5
BB
100
AcDbEntity
  8
LAY-1
  6
CONTINUOUS
 62
     3
100
AcDbLine
 10
460.721314
 20
510.190918
 30
0.0
 11
460.721344
 21
514.690918
 31
0.0
  0
LINE
  5
BC
100
AcDbEntity
  8
LAY-1
  6
CONTINUOUS
 62
     3
100
AcDbLine
 10
357.951035
 20
514.690918
 30
0.0
 11
460.721344
 21
514.690918
 31
0.0
  0
LINE
  5
BD
100
AcDbEntity
  8
LAY-1
  6
CONTINUOUS
 62
     3
100
AcDbLine
 10
357.951035
 20
510.190918
 30
0.0
 11
460.721344
 21
510.190918
 31
0.0
  0
ARC
  5
BE
100
AcDbEntity
  8
LAY-1
  6
CONTINUOUS
 62
     3
100
AcDbCircle
 10
408.721344
 20
512.440918
 30
0.0
 40
5.0
100
AcDbArc
 50
26.743665
 51
153.256355
  0
ARC
  5
BF
100
AcDbEntity
  8
LAY-1
  6
CONTINUOUS
 62
     3
100
AcDbCircle
 10
408.721344
 20
512.440918
 30
0.0
 40
5.0
100
AcDbArc
 50
205.468338
 51
331.882709
  0
ARC
  5
C0
100
AcDbEntity
  8
LAY-1
  6
CONTINUOUS
 62
     3
100
AcDbCircle
 10
449.721344
 20
512.440918
 30
0.0
 40
6.0
100
AcDbArc
 50
22.024383
 51
156.514709
  0
ARC
  5
C1
100
AcDbEntity
  8
LAY-1
  6
CONTINUOUS
 62
     3
100
AcDbCircle
 10
449.721344
 20
512.440918
 30
0.0
 40
6.0
100
AcDbArc
 50
203.485273
 51
337.366545
  0
LINE
  5
C2
100
AcDbEntity
  8
LAY-1
  6
CONTINUOUS
 62
     3
100
AcDbLine
 10
434.721375
 20
509.890991
 30
0.0
 11
422.721375
 21
509.890991
 31
0.0
  0
LINE
  5
C3
100
AcDbEntity
  8
LAY-1
  6
CONTINUOUS
 62
     3
100
AcDbLine
 10
434.721375
 20
514.990967
 30
0.0
 11
422.721375
 21
514.990967
 31
0.0
  0
LINE
  5
C4
100
AcDbEntity
  8
LAY-1
  6
CONTINUOUS
 62
     3
100
AcDbLine
 10
434.721375
 20
518.190979
 30
0.0
 11
422.721375
 21
518.190979
 31
0.0
  0
LINE
  5
C5
100
AcDbEntity
  8
LAY-1
  6
CONTINUOUS
 62
     3
100
AcDbLine
 10
422.721375
 20
506.690979
 30
0.0
 11
434.721375
 21
506.690979
 31
0.0
  0
LINE
  5
C6
100
AcDbEntity
  8
LAY-1
  6
CONTINUOUS
 62
     3
100
AcDbLine
 10
434.721375
 20
518.190979
 30
0.0
 11
434.721375
 21
514.990967
 31
0.0
  0
LINE
  5
C7
100
AcDbEntity
  8
LAY-1
  6
CONTINUOUS
 62
     3
100
AcDbLine
 10
422.721375
 20
518.190979
 30
0.0
 11
422.721375
 21
514.990967
 31
0.0
  0
LINE
  5
C8
100
AcDbEntity
  8
LAY-1
  6
CONTINUOUS
 62
     3
100
AcDbLine
 10
434.721375
 20
506.690979
 30
0.0
 11
434.721375
 21
509.890991
 31
0.0
  0
LINE
  5
C9
100
AcDbEntity
  8
LAY-1
  6
CONTINUOUS
 62
     3
100
AcDbLine
 10
422.721375
 20
506.690979
 30
0.0
 11
422.721375
 21
509.890869
 31
0.0
  0
LINE
  5
CA
100
AcDbEntity
  8
LAY-1
  6
CONTINUOUS
 62
     3
100
AcDbLine
 10
432.221375
 20
514.990967
 30
0.0
 11
432.221375
 21
514.690918
 31
0.0
  0
LINE
  5
CB
100
AcDbEntity
  8
LAY-1
  6
CONTINUOUS
 62
     3
100
AcDbLine
 10
425.221375
 20
514.990967
 30
0.0
 11
425.221375
 21
514.690918
 31
0.0
  0
LINE
  5
CC
100
AcDbEntity
  8
LAY-1
  6
CONTINUOUS
 62
     3
100
AcDbLine
 10
432.221375
 20
510.190918
 30
0.0
 11
432.221375
 21
509.890991
 31
0.0
  0
LINE
  5
CD
100
AcDbEntity
  8
LAY-1
  6
CONTINUOUS
 62
     3
100
AcDbLine
 10
425.221375
 20
510.190918
 30
0.0
 11
425.221375
 21
509.890991
 31
0.0
  0
CIRCLE
  5
CE
100
AcDbEntity
  8
LAY-1
  6
CONTINUOUS
 62
     3
100
AcDbCircle
 10
348.721344
 20
512.440857
 30
0.0
 40
9.45
  0
LINE
  5
CF
100
AcDbEntity
  8
LAY-1
  6
CONTINUOUS
 62
     3
100
AcDbLine
 10
113.971329
 20
498.570984
 30
0.0
 11
113.971329
 21
496.370972
 31
0.0
  0
LINE
  5
D0
100
AcDbEntity
  8
LAY-1
  6
CONTINUOUS
 62
     3
100
AcDbLine
 10
101.471329
 20
498.570984
 30
0.0
 11
101.471329
 21
496.370972
 31
0.0
  0
LINE
  5
D1
100
AcDbEntity
  8
LAY-1
  6
CONTINUOUS
 62
     3
100
AcDbLine
 10
248.721344
 20
498.570984
 30
0.0
 11
66.721344
 21
498.570984
 31
0.0
  0
LINE
  5
D2
100
AcDbEntity
  8
LAY-1
  6
CONTINUOUS
 62
     3
100
AcDbLine
 10
248.721344
 20
499.370972
 30
0.0
 11
248.721344
 21
498.570984
 31
0.0
  0
LINE
  5
D3
100
AcDbEntity
  8
LAY-1
  6
CONTINUOUS
 62
     3
100
AcDbLine
 10
66.721344
 20
499.370972
 30
0.0
 11
66.721344
 21
498.570984
 31
0.0
  0
LINE
  5
D4
100
AcDbEntity
  8
LAY-1
  6
CONTINUOUS
 62
     3
100
AcDbLine
 10
73.721344
 20
499.370972
 30
0.0
 11
73.721344
 21
505.370972
 31
0.0
  0
LINE
  5
D5
100
AcDbEntity
  8
LAY-1
  6
CONTINUOUS
 62
     3
100
AcDbLine
 10
242.721344
 20
499.370972
 30
0.0
 11
242.721344
 21
505.370972
 31
0.0
  0
LINE
  5
D6
100
AcDbEntity
  8
LAY-1
  6
CONTINUOUS
 62
     3
100
AcDbLine
 10
73.721344
 20
505.370972
 30
0.0
 11
242.721344
 21
505.370972
 31
0.0
  0
CIRCLE
  5
D7
100
AcDbEntity
  8
LAY-1
  6
CONTINUOUS
 62
     3
100
AcDbCircle
 10
187.721314
 20
516.870972
 30
0.0
 40
3.5
  0
ARC
  5
D8
100
AcDbEntity
  8
LAY-1
  6
CONTINUOUS
 62
     3
100
AcDbCircle
 10
187.721314
 20
516.870972
 30
0.0
 40
6.0
100
AcDbArc
 50
0.0
 51
180.00002
  0
ARC
  5
D9
100
AcDbEntity
  8
LAY-1
  6
CONTINUOUS
 62
     3
100
AcDbCircle
 10
208.721314
 20
520.870972
 30
0.0
 40
6.0
100
AcDbArc
 50
305.685646
 51
234.314969
  0
LINE
  5
DA
100
AcDbEntity
  8
LAY-1
  6
CONTINUOUS
 62
     3
100
AcDbLine
 10
203.621338
 20
505.371033
 30
0.0
 11
203.621338
 21
511.371033
 31
0.0
  0
LINE
  5
DB
100
AcDbEntity
  8
LAY-1
  6
CONTINUOUS
 62
     3
100
AcDbLine
 10
213.821351
 20
505.371033
 30
0.0
 11
213.821351
 21
511.371033
 31
0.0
  0
LINE
  5
DC
100
AcDbEntity
  8
LAY-1
  6
CONTINUOUS
 62
     3
100
AcDbLine
 10
203.621338
 20
511.371033
 30
0.0
 11
213.821351
 21
511.371033
 31
0.0
  0
LINE
  5
DD
100
AcDbEntity
  8
LAY-1
  6
CONTINUOUS
 62
     1
100
AcDbLine
 10
204.221344
 20
505.371033
 30
0.0
 11
204.221344
 21
511.371033
 31
0.0
  0
LINE
  5
DE
100
AcDbEntity
  8
LAY-1
  6
CONTINUOUS
 62
     1
100
AcDbLine
 10
213.221344
 20
505.371033
 30
0.0
 11
213.221344
 21
511.371033
 31
0.0
  0
LINE
  5
DF
100
AcDbEntity
  8
LAY-1
  6
CONTINUOUS
 62
     3
100
AcDbLine
 10
205.221344
 20
515.997559
 30
0.0
 11
205.221344
 21
511.371033
 31
0.0
  0
LINE
  5
E0
100
AcDbEntity
  8
LAY-1
  6
CONTINUOUS
 62
     3
100
AcDbLine
 10
212.221344
 20
515.997559
 30
0.0
 11
212.221344
 21
511.371033
 31
0.0
  0
LINE
  5
E1
100
AcDbEntity
  8
LAY-1
  6
CONTINUOUS
 62
     3
100
AcDbLine
 10
205.221344
 20
515.997559
 30
0.0
 11
212.221375
 21
515.997559
 31
0.0
  0
LINE
  5
E2
100
AcDbEntity
  8
LAY-1
  6
CONTINUOUS
 62
     3
100
AcDbLine
 10
193.721314
 20
516.870972
 30
0.0
 11
193.721314
 21
505.371033
 31
0.0
  0
LINE
  5
E3
100
AcDbEntity
  8
LAY-1
  6
CONTINUOUS
 62
     3
100
AcDbLine
 10
181.721314
 20
516.870972
 30
0.0
 11
181.721314
 21
505.371033
 31
0.0
  0
ARC
  5
E4
100
AcDbEntity
  8
LAY-1
  6
CONTINUOUS
 62
     3
100
AcDbCircle
 10
208.721314
 20
520.870972
 30
0.0
 40
11.0
100
AcDbArc
 50
333.214091
 51
359.999982
  0
ARC
  5
E5
100
AcDbEntity
  8
LAY-1
  6
CONTINUOUS
 62
     3
100
AcDbCircle
 10
207.721314
 20
523.370972
 30
0.0
 40
12.0
100
AcDbArc
 50
0.0
 51
94.76361
  0
LINE
  5
E6
100
AcDbEntity
  8
LAY-1
  6
CONTINUOUS
 62
     3
100
AcDbLine
 10
219.721314
 20
523.370972
 30
0.0
 11
219.721314
 21
520.870972
 31
0.0
  0
ARC
  5
E7
100
AcDbEntity
  8
LAY-1
  6
CONTINUOUS
 62
     3
100
AcDbCircle
 10
216.327973
 20
517.267517
 30
0.0
 40
2.5
100
AcDbArc
 50
180.00002
 51
328.367269
  0
LINE
  5
E8
100
AcDbEntity
  8
LAY-1
  6
CONTINUOUS
 62
     3
100
AcDbLine
 10
206.721314
 20
535.370972
 30
0.0
 11
119.721314
 21
512.870972
 31
0.0
  0
LINE
  5
E9
100
AcDbEntity
  8
LAY-1
  6
CONTINUOUS
 62
     3
100
AcDbLine
 10
204.721314
 20
516.398804
 30
0.0
 11
204.721314
 21
513.663025
 31
0.0
  0
LINE
  5
EA
100
AcDbEntity
  8
LAY-1
  6
CONTINUOUS
 62
     3
100
AcDbLine
 10
193.721314
 20
510.282776
 30
0.0
 11
203.950348
 21
512.689575
 31
0.0
  0
ARC
  5
EB
100
AcDbEntity
  8
LAY-1
  6
CONTINUOUS
 62
     3
100
AcDbCircle
 10
203.721314
 20
513.663025
 30
0.0
 40
1.0
100
AcDbArc
 50
283.240597
 51
359.999982
  0
LINE
  5
EC
100
AcDbEntity
  8
LAY-1
  6
CONTINUOUS
 62
     3
100
AcDbLine
 10
181.721314
 20
508.694519
 30
0.0
 11
171.991913
 21
508.408264
 31
0.0
  0
LINE
  5
ED
100
AcDbEntity
  8
LAY-1
  6
CONTINUOUS
 62
     3
100
AcDbLine
 10
119.721314
 20
506.870972
 30
0.0
 11
162.448853
 21
508.127625
 31
0.0
  0
ARC
  5
EE
100
AcDbEntity
  8
LAY-1
  6
CONTINUOUS
 62
     3
100
AcDbCircle
 10
162.478257
 20
507.128052
 30
0.0
 40
1.0
100
AcDbArc
 50
32.083058
 51
91.684649
  0
ARC
  5
EF
100
AcDbEntity
  8
LAY-1
  6
CONTINUOUS
 62
     3
100
AcDbCircle
 10
172.021317
 20
507.408752
 30
0.0
 40
1.0
100
AcDbArc
 50
91.684764
 51
180.00002
  0
ARC
  5
F0
100
AcDbEntity
  8
LAY-1
  6
DASHED2
 62
     3
100
AcDbCircle
 10
169.074692
 20
500.370972
 30
0.0
 40
1.0
100
AcDbArc
 50
212.083135
 51
270.0
  0
ARC
  5
F1
100
AcDbEntity
  8
LAY-1
  6
DASHED2
 62
     3
100
AcDbCircle
 10
170.021317
 20
500.370972
 30
0.0
 40
1.0
100
AcDbArc
 50
270.0
 51
359.999982
  0
LINE
  5
F2
100
AcDbEntity
  8
LAY-1
  6
CONTINUOUS
 62
     3
100
AcDbLine
 10
171.021317
 20
507.408752
 30
0.0
 11
171.021317
 21
505.370972
 31
0.0
  0
LINE
  5
F3
100
AcDbEntity
  8
LAY-1
  6
DASHED2
 62
     3
100
AcDbLine
 10
171.021332
 20
505.370972
 30
0.0
 11
171.021317
 21
500.370972
 31
0.0
  0
LINE
  5
F4
100
AcDbEntity
  8
LAY-1
  6
CONTINUOUS
 62
     3
100
AcDbLine
 10
163.325531
 20
507.65918
 30
0.0
 11
164.759995
 21
505.370972
 31
0.0
  0
LINE
  5
F5
100
AcDbEntity
  8
LAY-1
  6
DASHED2
 62
     3
100
AcDbLine
 10
164.759964
 20
505.370972
 30
0.0
 11
168.227417
 21
499.839783
 31
0.0
  0
LINE
  5
F6
100
AcDbEntity
  8
LAY-1
  6
CONTINUOUS
 62
     3
100
AcDbLine
 10
119.721314
 20
512.870972
 30
0.0
 11
117.22136
 21
512.870972
 31
0.0
  0
LINE
  5
F7
100
AcDbEntity
  8
LAY-1
  6
CONTINUOUS
 62
     3
100
AcDbLine
 10
119.721314
 20
506.870972
 30
0.0
 11
117.22136
 21
506.870972
 31
0.0
  0
LINE
  5
F8
100
AcDbEntity
  8
LAY-1
  6
CONTINUOUS
 62
     3
100
AcDbLine
 10
98.271363
 20
505.371033
 30
0.0
 11
98.271363
 21
537.371033
 31
0.0
  0
LINE
  5
F9
100
AcDbEntity
  8
LAY-1
  6
CONTINUOUS
 62
     3
100
AcDbLine
 10
117.171357
 20
505.371033
 30
0.0
 11
117.171357
 21
537.371033
 31
0.0
  0
LINE
  5
FA
100
AcDbEntity
  8
LAY-1
  6
CONTINUOUS
 62
     3
100
AcDbLine
 10
98.271363
 20
537.371033
 30
0.0
 11
117.171357
 21
537.371033
 31
0.0
  0
LINE
  5
FB
100
AcDbEntity
  8
LAY-1
  6
CONTINUOUS
 62
     3
100
AcDbLine
 10
248.721344
 20
499.370972
 30
0.0
 11
66.721344
 21
499.370972
 31
0.0
  0
LINE
  5
FC
100
AcDbEntity
  8
LAY-1
  6
DASHED2
 62
     3
100
AcDbLine
 10
76.721344
 20
499.770966
 30
0.0
 11
76.721344
 21
499.370972
 31
0.0
  0
LINE
  5
FD
100
AcDbEntity
  8
LAY-1
  6
DASHED2
 62
     3
100
AcDbLine
 10
82.721344
 20
499.770966
 30
0.0
 11
76.721344
 21
499.770966
 31
0.0
  0
LINE
  5
FE
100
AcDbEntity
  8
LAY-1
  6
DASHED2
 62
     3
100
AcDbLine
 10
79.721344
 20
502.770966
 30
0.0
 11
79.721344
 21
509.870972
 31
0.0
  0
LINE
  5
FF
100
AcDbEntity
  8
LAY-1
  6
DASHED2
 62
     3
100
AcDbLine
 10
82.721344
 20
502.770966
 30
0.0
 11
79.721344
 21
502.770966
 31
0.0
  0
LINE
  5
100
100
AcDbEntity
  8
LAY-1
  6
DASHED2
 62
     3
100
AcDbLine
 10
79.721344
 20
502.770966
 30
0.0
 11
76.721344
 21
499.770966
 31
0.0
  0
LINE
  5
101
100
AcDbEntity
  8
LAY-1
  6
CONTINUOUS
 62
     3
100
AcDbLine
 10
79.721344
 20
515.370972
 30
0.0
 11
82.721344
 21
515.370972
 31
0.0
  0
LINE
  5
102
100
AcDbEntity
  8
LAY-1
  6
CONTINUOUS
 62
     3
100
AcDbLine
 10
79.721344
 20
509.870972
 30
0.0
 11
79.721344
 21
515.370972
 31
0.0
  0
LINE
  5
103
100
AcDbEntity
  8
LAY-1
  6
DASHED2
 62
     1
100
AcDbLine
 10
80.221344
 20
502.770966
 30
0.0
 11
80.221344
 21
509.870972
 31
0.0
  0
LINE
  5
104
100
AcDbEntity
  8
LAY-1
  6
CONTINUOUS
 62
     1
100
AcDbLine
 10
80.221344
 20
509.870972
 30
0.0
 11
80.221344
 21
515.370972
 31
0.0
  0
LINE
  5
105
100
AcDbEntity
  8
LAY-1
  6
CONTINUOUS
 62
     3
100
AcDbLine
 10
85.721344
 20
515.370972
 30
0.0
 11
82.721344
 21
515.370972
 31
0.0
  0
LINE
  5
106
100
AcDbEntity
  8
LAY-1
  6
CONTINUOUS
 62
     1
100
AcDbLine
 10
85.221344
 20
509.870972
 30
0.0
 11
85.221344
 21
515.370972
 31
0.0
  0
LINE
  5
107
100
AcDbEntity
  8
LAY-1
  6
CONTINUOUS
 62
     3
100
AcDbLine
 10
85.721344
 20
509.870972
 30
0.0
 11
85.721344
 21
515.370972
 31
0.0
  0
LINE
  5
108
100
AcDbEntity
  8
LAY-1
  6
DASHED2
 62
     1
100
AcDbLine
 10
85.221344
 20
502.770966
 30
0.0
 11
85.221344
 21
509.870972
 31
0.0
  0
LINE
  5
109
100
AcDbEntity
  8
LAY-1
  6
DASHED2
 62
     3
100
AcDbLine
 10
85.721344
 20
502.770966
 30
0.0
 11
85.721344
 21
509.870972
 31
0.0
  0
LINE
  5
10A
100
AcDbEntity
  8
LAY-1
  6
DASHED2
 62
     3
100
AcDbLine
 10
82.721344
 20
502.770966
 30
0.0
 11
85.721344
 21
502.770966
 31
0.0
  0
LINE
  5
10B
100
AcDbEntity
  8
LAY-1
  6
DASHED2
 62
     3
100
AcDbLine
 10
85.721344
 20
502.770966
 30
0.0
 11
88.721344
 21
499.770966
 31
0.0
  0
LINE
  5
10C
100
AcDbEntity
  8
LAY-1
  6
DASHED2
 62
     3
100
AcDbLine
 10
88.721344
 20
499.770966
 30
0.0
 11
88.721344
 21
499.370972
 31
0.0
  0
LINE
  5
10D
100
AcDbEntity
  8
LAY-1
  6
DASHED2
 62
     3
100
AcDbLine
 10
82.721344
 20
499.770966
 30
0.0
 11
88.721344
 21
499.770966
 31
0.0
  0
LINE
  5
10E
100
AcDbEntity
  8
LAY-1
  6
DASHED2
 62
     3
100
AcDbLine
 10
223.721314
 20
499.770966
 30
0.0
 11
223.721314
 21
499.370972
 31
0.0
  0
LINE
  5
10F
100
AcDbEntity
  8
LAY-1
  6
DASHED2
 62
     3
100
AcDbLine
 10
229.721314
 20
499.770966
 30
0.0
 11
223.721314
 21
499.770966
 31
0.0
  0
LINE
  5
110
100
AcDbEntity
  8
LAY-1
  6
DASHED2
 62
     3
100
AcDbLine
 10
226.721314
 20
502.770966
 30
0.0
 11
226.721314
 21
509.870972
 31
0.0
  0
LINE
  5
111
100
AcDbEntity
  8
LAY-1
  6
DASHED2
 62
     3
100
AcDbLine
 10
229.721314
 20
502.770966
 30
0.0
 11
226.721314
 21
502.770966
 31
0.0
  0
LINE
  5
112
100
AcDbEntity
  8
LAY-1
  6
DASHED2
 62
     3
100
AcDbLine
 10
226.721314
 20
502.770966
 30
0.0
 11
223.721314
 21
499.770966
 31
0.0
  0
LINE
  5
113
100
AcDbEntity
  8
LAY-1
  6
CONTINUOUS
 62
     3
100
AcDbLine
 10
226.721314
 20
515.370972
 30
0.0
 11
229.721314
 21
515.370972
 31
0.0
  0
LINE
  5
114
100
AcDbEntity
  8
LAY-1
  6
CONTINUOUS
 62
     3
100
AcDbLine
 10
226.721314
 20
509.870972
 30
0.0
 11
226.721314
 21
515.370972
 31
0.0
  0
LINE
  5
115
100
AcDbEntity
  8
LAY-1
  6
DASHED2
 62
     1
100
AcDbLine
 10
227.221314
 20
502.770966
 30
0.0
 11
227.221314
 21
509.870972
 31
0.0
  0
LINE
  5
116
100
AcDbEntity
  8
LAY-1
  6
CONTINUOUS
 62
     1
100
AcDbLine
 10
227.221314
 20
509.870972
 30
0.0
 11
227.221314
 21
515.370972
 31
0.0
  0
LINE
  5
117
100
AcDbEntity
  8
LAY-1
  6
CONTINUOUS
 62
     3
100
AcDbLine
 10
232.721314
 20
515.370972
 30
0.0
 11
229.721314
 21
515.370972
 31
0.0
  0
LINE
  5
118
100
AcDbEntity
  8
LAY-1
  6
CONTINUOUS
 62
     1
100
AcDbLine
 10
232.221314
 20
509.870972
 30
0.0
 11
232.221314
 21
515.370972
 31
0.0
  0
LINE
  5
119
100
AcDbEntity
  8
LAY-1
  6
CONTINUOUS
 62
     3
100
AcDbLine
 10
232.721314
 20
509.870972
 30
0.0
 11
232.721314
 21
515.370972
 31
0.0
  0
LINE
  5
11A
100
AcDbEntity
  8
LAY-1
  6
DASHED2
 62
     1
100
AcDbLine
 10
232.221314
 20
502.770966
 30
0.0
 11
232.221314
 21
509.870972
 31
0.0
  0
LINE
  5
11B
100
AcDbEntity
  8
LAY-1
  6
DASHED2
 62
     3
100
AcDbLine
 10
232.721314
 20
502.770966
 30
0.0
 11
232.721314
 21
509.870972
 31
0.0
  0
LINE
  5
11C
100
AcDbEntity
  8
LAY-1
  6
DASHED2
 62
     3
100
AcDbLine
 10
229.721314
 20
502.770966
 30
0.0
 11
232.721314
 21
502.770966
 31
0.0
  0
LINE
  5
11D
100
AcDbEntity
  8
LAY-1
  6
DASHED2
 62
     3
100
AcDbLine
 10
232.721314
 20
502.770966
 30
0.0
 11
235.721314
 21
499.770966
 31
0.0
  0
LINE
  5
11E
100
AcDbEntity
  8
LAY-1
  6
DASHED2
 62
     3
100
AcDbLine
 10
235.721314
 20
499.770966
 30
0.0
 11
235.721314
 21
499.370972
 31
0.0
  0
LINE
  5
11F
100
AcDbEntity
  8
LAY-1
  6
DASHED2
 62
     3
100
AcDbLine
 10
229.721314
 20
499.770966
 30
0.0
 11
235.721314
 21
499.770966
 31
0.0
  0
LINE
  5
120
100
AcDbEntity
  8
LAY-1
  6
CONTINUOUS
 62
     3
100
AcDbLine
 10
665.799821
 20
498.570984
 30
0.0
 11
665.799821
 21
496.370972
 31
0.0
  0
LINE
  5
121
100
AcDbEntity
  8
LAY-1
  6
CONTINUOUS
 62
     3
100
AcDbLine
 10
653.299821
 20
498.570984
 30
0.0
 11
653.299821
 21
496.370972
 31
0.0
  0
LINE
  5
122
100
AcDbEntity
  8
LAY-1
  6
CONTINUOUS
 62
     3
100
AcDbLine
 10
650.099855
 20
505.371033
 30
0.0
 11
650.099855
 21
537.371033
 31
0.0
  0
LINE
  5
123
100
AcDbEntity
  8
LAY-1
  6
CONTINUOUS
 62
     3
100
AcDbLine
 10
668.999849
 20
505.371033
 30
0.0
 11
668.999849
 21
537.371033
 31
0.0
  0
LINE
  5
124
100
AcDbEntity
  8
LAY-1
  6
CONTINUOUS
 62
     3
100
AcDbLine
 10
650.099855
 20
537.371033
 30
0.0
 11
668.999849
 21
537.371033
 31
0.0
  0
LINE
  5
125
100
AcDbEntity
  8
LAY-1
  6
CONTINUOUS
 62
     3
100
AcDbLine
 10
678.049836
 20
498.570984
 30
0.0
 11
678.049836
 21
499.370972
 31
0.0
  0
LINE
  5
126
100
AcDbEntity
  8
LAY-1
  6
CONTINUOUS
 62
     3
100
AcDbLine
 10
678.049836
 20
498.570984
 30
0.0
 11
641.049836
 21
498.570984
 31
0.0
  0
LINE
  5
127
100
AcDbEntity
  8
LAY-1
  6
CONTINUOUS
 62
     3
100
AcDbLine
 10
678.049836
 20
499.370972
 30
0.0
 11
641.049836
 21
499.370972
 31
0.0
  0
LINE
  5
128
100
AcDbEntity
  8
LAY-1
  6
CONTINUOUS
 62
     3
100
AcDbLine
 10
641.049836
 20
498.570984
 30
0.0
 11
641.049836
 21
499.370972
 31
0.0
  0
LINE
  5
129
100
AcDbEntity
  8
LAY-1
  6
CONTINUOUS
 62
     3
100
AcDbLine
 10
643.549836
 20
499.370972
 30
0.0
 11
643.549836
 21
505.370972
 31
0.0
  0
LINE
  5
12A
100
AcDbEntity
  8
LAY-1
  6
CONTINUOUS
 62
     3
100
AcDbLine
 10
675.549836
 20
499.370972
 30
0.0
 11
675.549836
 21
505.370972
 31
0.0
  0
LINE
  5
12B
100
AcDbEntity
  8
LAY-1
  6
CONTINUOUS
 62
     3
100
AcDbLine
 10
643.549836
 20
505.370972
 30
0.0
 11
675.549836
 21
505.370972
 31
0.0
  0
LINE
  5
12C
100
AcDbEntity
  8
LAY-2
  6
CONTINUOUS
 62
     3
100
AcDbLine
 10
483.721344
 20
406.370972
 30
0.0
 11
332.721329
 21
406.370972
 31
0.0
  0
LINE
  5
12D
100
AcDbEntity
  8
LAY-2
  6
CONTINUOUS
 62
     3
100
AcDbLine
 10
483.721344
 20
438.370972
 30
0.0
 11
332.721329
 21
438.370972
 31
0.0
  0
LINE
  5
12E
100
AcDbEntity
  8
LAY-2
  6
CONTINUOUS
 62
     3
100
AcDbLine
 10
483.721344
 20
438.370972
 30
0.0
 11
483.721344
 21
406.370972
 31
0.0
  0
LINE
  5
12F
100
AcDbEntity
  8
LAY-2
  6
CONTINUOUS
 62
     3
100
AcDbLine
 10
332.721329
 20
438.370972
 30
0.0
 11
332.721329
 21
406.370972
 31
0.0
  0
CIRCLE
  5
130
100
AcDbEntity
  8
LAY-2
  6
CONTINUOUS
 62
     3
100
AcDbCircle
 10
348.721344
 20
422.370911
 30
0.0
 40
6.25
  0
CIRCLE
  5
131
100
AcDbEntity
  8
LAY-2
  6
CONTINUOUS
 62
     3
100
AcDbCircle
 10
348.721344
 20
422.370911
 30
0.0
 40
11.9
  0
CIRCLE
  5
132
100
AcDbEntity
  8
LAY-2
  6
CONTINUOUS
 62
     3
100
AcDbCircle
 10
378.721329
 20
430.370972
 30
0.0
 40
6.0
  0
CIRCLE
  5
133
100
AcDbEntity
  8
LAY-2
  6
CONTINUOUS
 62
     3
100
AcDbCircle
 10
378.721329
 20
430.370972
 30
0.0
 40
3.35
  0
CIRCLE
  5
134
100
AcDbEntity
  8
LAY-2
  6
CONTINUOUS
 62
     3
100
AcDbCircle
 10
424.721344
 20
414.370972
 30
0.0
 40
6.0
  0
CIRCLE
  5
135
100
AcDbEntity
  8
LAY-2
  6
CONTINUOUS
 62
     3
100
AcDbCircle
 10
424.721344
 20
414.370972
 30
0.0
 40
3.35
  0
CIRCLE
  5
136
100
AcDbEntity
  8
LAY-2
  6
CONTINUOUS
 62
     3
100
AcDbCircle
 10
470.721344
 20
430.370972
 30
0.0
 40
6.0
  0
CIRCLE
  5
137
100
AcDbEntity
  8
LAY-2
  6
CONTINUOUS
 62
     3
100
AcDbCircle
 10
470.721344
 20
430.370972
 30
0.0
 40
3.35
  0
LINE
  5
138
100
AcDbEntity
  8
LAY-2
  6
CONTINUOUS
 62
     3
100
AcDbLine
 10
242.721344
 20
490.370972
 30
0.0
 11
91.721329
 21
490.370972
 31
0.0
  0
LINE
  5
139
100
AcDbEntity
  8
LAY-2
  6
CONTINUOUS
 62
     3
100
AcDbLine
 10
242.721344
 20
496.370972
 30
0.0
 11
242.721344
 21
490.370972
 31
0.0
  0
LINE
  5
13A
100
AcDbEntity
  8
LAY-2
  6
CONTINUOUS
 62
     3
100
AcDbLine
 10
91.721329
 20
496.370972
 30
0.0
 11
91.721329
 21
490.370972
 31
0.0
  0
LINE
  5
13B
100
AcDbEntity
  8
LAY-2
  6
CONTINUOUS
 62
     3
100
AcDbLine
 10
242.721344
 20
496.370972
 30
0.0
 11
91.721329
 21
496.370972
 31
0.0
  0
ARC
  5
13C
100
AcDbEntity
  8
LAY-2
  6
CONTINUOUS
 62
     3
100
AcDbCircle
 10
104.421344
 20
480.570972
 30
0.0
 40
5.2
100
AcDbArc
 50
180.0
 51
270.0
  0
LINE
  5
13D
100
AcDbEntity
  8
LAY-2
  6
CONTINUOUS
 62
     3
100
AcDbLine
 10
111.021344
 20
475.370972
 30
0.0
 11
104.421344
 21
475.370972
 31
0.0
  0
ARC
  5
13E
100
AcDbEntity
  8
LAY-2
  6
CONTINUOUS
 62
     3
100
AcDbCircle
 10
111.021344
 20
480.570972
 30
0.0
 40
5.2
100
AcDbArc
 50
270.0
 51
0.0
  0
LINE
  5
13F
100
AcDbEntity
  8
LAY-2
  6
CONTINUOUS
 62
     3
100
AcDbLine
 10
93.721344
 20
490.370972
 30
0.0
 11
93.721344
 21
489.170972
 31
0.0
  0
LINE
  5
140
100
AcDbEntity
  8
LAY-2
  6
CONTINUOUS
 62
     3
100
AcDbLine
 10
121.721344
 20
490.370972
 30
0.0
 11
121.721344
 21
489.170972
 31
0.0
  0
LINE
  5
141
100
AcDbEntity
  8
LAY-2
  6
CONTINUOUS
 62
     3
100
AcDbLine
 10
93.721344
 20
489.170972
 30
0.0
 11
121.721344
 21
489.170972
 31
0.0
  0
ARC
  5
142
100
AcDbEntity
  8
LAY-2
  6
CONTINUOUS
 62
     3
100
AcDbCircle
 10
95.871344
 20
489.170972
 30
0.0
 40
1.0
100
AcDbArc
 50
180.0
 51
270.0
  0
LINE
  5
143
100
AcDbEntity
  8
LAY-2
  6
CONTINUOUS
 62
     3
100
AcDbLine
 10
95.871344
 20
488.170972
 30
0.0
 11
119.571344
 21
488.170972
 31
0.0
  0
ARC
  5
144
100
AcDbEntity
  8
LAY-2
  6
CONTINUOUS
 62
     3
100
AcDbCircle
 10
119.571344
 20
489.170972
 30
0.0
 40
1.0
100
AcDbArc
 50
270.0
 51
0.0
  0
ARC
  5
145
100
AcDbEntity
  8
LAY-2
  6
CONTINUOUS
 62
     3
100
AcDbCircle
 10
98.721344
 20
487.670972
 30
0.0
 40
0.5
100
AcDbArc
 50
0.0
 51
90.0
  0
ARC
  5
146
100
AcDbEntity
  8
LAY-2
  6
CONTINUOUS
 62
     3
100
AcDbCircle
 10
116.721344
 20
487.670972
 30
0.0
 40
0.5
100
AcDbArc
 50
90.0
 51
180.0
  0
LINE
  5
147
100
AcDbEntity
  8
LAY-2
  6
CONTINUOUS
 62
     3
100
AcDbLine
 10
116.221344
 20
487.670972
 30
0.0
 11
116.221344
 21
480.570972
 31
0.0
  0
LINE
  5
148
100
AcDbEntity
  8
LAY-2
  6
CONTINUOUS
 62
     3
100
AcDbLine
 10
99.221344
 20
487.670972
 30
0.0
 11
99.221344
 21
480.570972
 31
0.0
  0
LINE
  5
149
100
AcDbEntity
  8
LAY-2
  6
DASHED2
 62
     3
100
AcDbLine
 10
131.721329
 20
495.970978
 30
0.0
 11
131.721329
 21
496.370972
 31
0.0
  0
LINE
  5
14A
100
AcDbEntity
  8
LAY-2
  6
DASHED2
 62
     3
100
AcDbLine
 10
131.721329
 20
495.970978
 30
0.0
 11
137.721329
 21
495.970978
 31
0.0
  0
LINE
  5
14B
100
AcDbEntity
  8
LAY-2
  6
DASHED2
 62
     3
100
AcDbLine
 10
134.721329
 20
492.970978
 30
0.0
 11
134.721329
 21
485.870972
 31
0.0
  0
LINE
  5
14C
100
AcDbEntity
  8
LAY-2
  6
DASHED2
 62
     3
100
AcDbLine
 10
134.721329
 20
492.970978
 30
0.0
 11
137.721329
 21
492.970978
 31
0.0
  0
LINE
  5
14D
100
AcDbEntity
  8
LAY-2
  6
DASHED2
 62
     3
100
AcDbLine
 10
131.721329
 20
495.970978
 30
0.0
 11
134.721329
 21
492.970978
 31
0.0
  0
LINE
  5
14E
100
AcDbEntity
  8
LAY-2
  6
CONTINUOUS
 62
     3
100
AcDbLine
 10
137.721329
 20
480.370972
 30
0.0
 11
134.721329
 21
480.370972
 31
0.0
  0
LINE
  5
14F
100
AcDbEntity
  8
LAY-2
  6
CONTINUOUS
 62
     3
100
AcDbLine
 10
134.721329
 20
485.870972
 30
0.0
 11
134.721329
 21
480.370972
 31
0.0
  0
LINE
  5
150
100
AcDbEntity
  8
LAY-2
  6
CONTINUOUS
 62
     1
100
AcDbLine
 10
135.221329
 20
485.870972
 30
0.0
 11
135.221329
 21
480.370972
 31
0.0
  0
LINE
  5
151
100
AcDbEntity
  8
LAY-2
  6
DASHED2
 62
     1
100
AcDbLine
 10
135.221329
 20
492.970978
 30
0.0
 11
135.221329
 21
485.870972
 31
0.0
  0
LINE
  5
152
100
AcDbEntity
  8
LAY-2
  6
DASHED2
 62
     3
100
AcDbLine
 10
140.721329
 20
492.970978
 30
0.0
 11
137.721329
 21
492.970978
 31
0.0
  0
LINE
  5
153
100
AcDbEntity
  8
LAY-2
  6
DASHED2
 62
     3
100
AcDbLine
 10
143.721329
 20
495.970978
 30
0.0
 11
140.721329
 21
492.970978
 31
0.0
  0
LINE
  5
154
100
AcDbEntity
  8
LAY-2
  6
DASHED2
 62
     3
100
AcDbLine
 10
143.721329
 20
495.970978
 30
0.0
 11
137.721329
 21
495.970978
 31
0.0
  0
LINE
  5
155
100
AcDbEntity
  8
LAY-2
  6
DASHED2
 62
     3
100
AcDbLine
 10
143.721329
 20
495.970978
 30
0.0
 11
143.721329
 21
496.370972
 31
0.0
  0
LINE
  5
156
100
AcDbEntity
  8
LAY-2
  6
DASHED2
 62
     3
100
AcDbLine
 10
140.721329
 20
492.970978
 30
0.0
 11
140.721329
 21
485.870972
 31
0.0
  0
LINE
  5
157
100
AcDbEntity
  8
LAY-2
  6
DASHED2
 62
     1
100
AcDbLine
 10
140.221329
 20
492.970978
 30
0.0
 11
140.221329
 21
485.870972
 31
0.0
  0
LINE
  5
158
100
AcDbEntity
  8
LAY-2
  6
CONTINUOUS
 62
     1
100
AcDbLine
 10
140.221329
 20
485.870972
 30
0.0
 11
140.221329
 21
480.370972
 31
0.0
  0
LINE
  5
159
100
AcDbEntity
  8
LAY-2
  6
CONTINUOUS
 62
     3
100
AcDbLine
 10
140.721329
 20
485.870972
 30
0.0
 11
140.721329
 21
480.370972
 31
0.0
  0
LINE
  5
15A
100
AcDbEntity
  8
LAY-2
  6
CONTINUOUS
 62
     3
100
AcDbLine
 10
137.721329
 20
480.370972
 30
0.0
 11
140.721329
 21
480.370972
 31
0.0
  0
LINE
  5
15B
100
AcDbEntity
  8
LAY-2
  6
DASHED2
 62
     3
100
AcDbLine
 10
177.721344
 20
495.970978
 30
0.0
 11
177.721344
 21
496.370972
 31
0.0
  0
LINE
  5
15C
100
AcDbEntity
  8
LAY-2
  6
DASHED2
 62
     3
100
AcDbLine
 10
177.721344
 20
495.970978
 30
0.0
 11
183.721344
 21
495.970978
 31
0.0
  0
LINE
  5
15D
100
AcDbEntity
  8
LAY-2
  6
DASHED2
 62
     3
100
AcDbLine
 10
180.721344
 20
492.970978
 30
0.0
 11
180.721344
 21
485.870972
 31
0.0
  0
LINE
  5
15E
100
AcDbEntity
  8
LAY-2
  6
DASHED2
 62
     3
100
AcDbLine
 10
180.721344
 20
492.970978
 30
0.0
 11
183.721344
 21
492.970978
 31
0.0
  0
LINE
  5
15F
100
AcDbEntity
  8
LAY-2
  6
DASHED2
 62
     3
100
AcDbLine
 10
177.721344
 20
495.970978
 30
0.0
 11
180.721344
 21
492.970978
 31
0.0
  0
LINE
  5
160
100
AcDbEntity
  8
LAY-2
  6
CONTINUOUS
 62
     3
100
AcDbLine
 10
183.721344
 20
480.370972
 30
0.0
 11
180.721344
 21
480.370972
 31
0.0
  0
LINE
  5
161
100
AcDbEntity
  8
LAY-2
  6
CONTINUOUS
 62
     3
100
AcDbLine
 10
180.721344
 20
485.870972
 30
0.0
 11
180.721344
 21
480.370972
 31
0.0
  0
LINE
  5
162
100
AcDbEntity
  8
LAY-2
  6
CONTINUOUS
 62
     1
100
AcDbLine
 10
181.221344
 20
485.870972
 30
0.0
 11
181.221344
 21
480.370972
 31
0.0
  0
LINE
  5
163
100
AcDbEntity
  8
LAY-2
  6
DASHED2
 62
     1
100
AcDbLine
 10
181.221344
 20
492.970978
 30
0.0
 11
181.221344
 21
485.870972
 31
0.0
  0
LINE
  5
164
100
AcDbEntity
  8
LAY-2
  6
DASHED2
 62
     3
100
AcDbLine
 10
186.721344
 20
492.970978
 30
0.0
 11
183.721344
 21
492.970978
 31
0.0
  0
LINE
  5
165
100
AcDbEntity
  8
LAY-2
  6
DASHED2
 62
     3
100
AcDbLine
 10
189.721344
 20
495.970978
 30
0.0
 11
186.721344
 21
492.970978
 31
0.0
  0
LINE
  5
166
100
AcDbEntity
  8
LAY-2
  6
DASHED2
 62
     3
100
AcDbLine
 10
189.721344
 20
495.970978
 30
0.0
 11
183.721344
 21
495.970978
 31
0.0
  0
LINE
  5
167
100
AcDbEntity
  8
LAY-2
  6
DASHED2
 62
     3
100
AcDbLine
 10
189.721344
 20
495.970978
 30
0.0
 11
189.721344
 21
496.370972
 31
0.0
  0
LINE
  5
168
100
AcDbEntity
  8
LAY-2
  6
DASHED2
 62
     3
100
AcDbLine
 10
186.721344
 20
492.970978
 30
0.0
 11
186.721344
 21
485.870972
 31
0.0
  0
LINE
  5
169
100
AcDbEntity
  8
LAY-2
  6
DASHED2
 62
     1
100
AcDbLine
 10
186.221344
 20
492.970978
 30
0.0
 11
186.221344
 21
485.870972
 31
0.0
  0
LINE
  5
16A
100
AcDbEntity
  8
LAY-2
  6
CONTINUOUS
 62
     1
100
AcDbLine
 10
186.221344
 20
485.870972
 30
0.0
 11
186.221344
 21
480.370972
 31
0.0
  0
LINE
  5
16B
100
AcDbEntity
  8
LAY-2
  6
CONTINUOUS
 62
     3
100
AcDbLine
 10
186.721344
 20
485.870972
 30
0.0
 11
186.721344
 21
480.370972
 31
0.0
  0
LINE
  5
16C
100
AcDbEntity
  8
LAY-2
  6
CONTINUOUS
 62
     3
100
AcDbLine
 10
183.721344
 20
480.370972
 30
0.0
 11
186.721344
 21
480.370972
 31
0.0
  0
LINE
  5
16D
100
AcDbEntity
  8
LAY-2
  6
DASHED2
 62
     3
100
AcDbLine
 10
223.721344
 20
495.970978
 30
0.0
 11
223.721344
 21
496.370972
 31
0.0
  0
LINE
  5
16E
100
AcDbEntity
  8
LAY-2
  6
DASHED2
 62
     3
100
AcDbLine
 10
223.721344
 20
495.970978
 30
0.0
 11
229.721344
 21
495.970978
 31
0.0
  0
LINE
  5
16F
100
AcDbEntity
  8
LAY-2
  6
DASHED2
 62
     3
100
AcDbLine
 10
226.721344
 20
492.970978
 30
0.0
 11
226.721344
 21
485.870972
 31
0.0
  0
LINE
  5
170
100
AcDbEntity
  8
LAY-2
  6
DASHED2
 62
     3
100
AcDbLine
 10
226.721344
 20
492.970978
 30
0.0
 11
229.721344
 21
492.970978
 31
0.0
  0
LINE
  5
171
100
AcDbEntity
  8
LAY-2
  6
DASHED2
 62
     3
100
AcDbLine
 10
223.721344
 20
495.970978
 30
0.0
 11
226.721344
 21
492.970978
 31
0.0
  0
LINE
  5
172
100
AcDbEntity
  8
LAY-2
  6
CONTINUOUS
 62
     3
100
AcDbLine
 10
229.721344
 20
480.370972
 30
0.0
 11
226.721344
 21
480.370972
 31
0.0
  0
LINE
  5
173
100
AcDbEntity
  8
LAY-2
  6
CONTINUOUS
 62
     3
100
AcDbLine
 10
226.721344
 20
485.870972
 30
0.0
 11
226.721344
 21
480.370972
 31
0.0
  0
LINE
  5
174
100
AcDbEntity
  8
LAY-2
  6
CONTINUOUS
 62
     1
100
AcDbLine
 10
227.221344
 20
485.870972
 30
0.0
 11
227.221344
 21
480.370972
 31
0.0
  0
LINE
  5
175
100
AcDbEntity
  8
LAY-2
  6
DASHED2
 62
     1
100
AcDbLine
 10
227.221344
 20
492.970978
 30
0.0
 11
227.221344
 21
485.870972
 31
0.0
  0
LINE
  5
176
100
AcDbEntity
  8
LAY-2
  6
DASHED2
 62
     3
100
AcDbLine
 10
232.721344
 20
492.970978
 30
0.0
 11
229.721344
 21
492.970978
 31
0.0
  0
LINE
  5
177
100
AcDbEntity
  8
LAY-2
  6
DASHED2
 62
     3
100
AcDbLine
 10
235.721344
 20
495.970978
 30
0.0
 11
232.721344
 21
492.970978
 31
0.0
  0
LINE
  5
178
100
AcDbEntity
  8
LAY-2
  6
DASHED2
 62
     3
100
AcDbLine
 10
235.721344
 20
495.970978
 30
0.0
 11
229.721344
 21
495.970978
 31
0.0
  0
LINE
  5
179
100
AcDbEntity
  8
LAY-2
  6
DASHED2
 62
     3
100
AcDbLine
 10
235.721344
 20
495.970978
 30
0.0
 11
235.721344
 21
496.370972
 31
0.0
  0
LINE
  5
17A
100
AcDbEntity
  8
LAY-2
  6
DASHED2
 62
     3
100
AcDbLine
 10
232.721344
 20
492.970978
 30
0.0
 11
232.721344
 21
485.870972
 31
0.0
  0
LINE
  5
17B
100
AcDbEntity
  8
LAY-2
  6
DASHED2
 62
     1
100
AcDbLine
 10
232.221344
 20
492.970978
 30
0.0
 11
232.221344
 21
485.870972
 31
0.0
  0
LINE
  5
17C
100
AcDbEntity
  8
LAY-2
  6
CONTINUOUS
 62
     1
100
AcDbLine
 10
232.221344
 20
485.870972
 30
0.0
 11
232.221344
 21
480.370972
 31
0.0
  0
LINE
  5
17D
100
AcDbEntity
  8
LAY-2
  6
CONTINUOUS
 62
     3
100
AcDbLine
 10
232.721344
 20
485.870972
 30
0.0
 11
232.721344
 21
480.370972
 31
0.0
  0
LINE
  5
17E
100
AcDbEntity
  8
LAY-2
  6
CONTINUOUS
 62
     3
100
AcDbLine
 10
229.721344
 20
480.370972
 30
0.0
 11
232.721344
 21
480.370972
 31
0.0
  0
LINE
  5
17F
100
AcDbEntity
  8
LAY-2
  6
CONTINUOUS
 62
     3
100
AcDbLine
 10
643.549821
 20
496.370972
 30
0.0
 11
643.549821
 21
490.370972
 31
0.0
  0
ARC
  5
180
100
AcDbEntity
  8
LAY-2
  6
CONTINUOUS
 62
     3
100
AcDbCircle
 10
656.249836
 20
480.570972
 30
0.0
 40
5.2
100
AcDbArc
 50
180.0
 51
270.0
  0
LINE
  5
181
100
AcDbEntity
  8
LAY-2
  6
CONTINUOUS
 62
     3
100
AcDbLine
 10
662.849836
 20
475.370972
 30
0.0
 11
656.249836
 21
475.370972
 31
0.0
  0
ARC
  5
182
100
AcDbEntity
  8
LAY-2
  6
CONTINUOUS
 62
     3
100
AcDbCircle
 10
662.849836
 20
480.570972
 30
0.0
 40
5.2
100
AcDbArc
 50
270.0
 51
0.0
  0
LINE
  5
183
100
AcDbEntity
  8
LAY-2
  6
CONTINUOUS
 62
     3
100
AcDbLine
 10
645.549836
 20
490.370972
 30
0.0
 11
645.549836
 21
489.170972
 31
0.0
  0
LINE
  5
184
100
AcDbEntity
  8
LAY-2
  6
CONTINUOUS
 62
     3
100
AcDbLine
 10
673.549836
 20
490.370972
 30
0.0
 11
673.549836
 21
489.170972
 31
0.0
  0
LINE
  5
185
100
AcDbEntity
  8
LAY-2
  6
CONTINUOUS
 62
     3
100
AcDbLine
 10
645.549836
 20
489.170972
 30
0.0
 11
673.549836
 21
489.170972
 31
0.0
  0
ARC
  5
186
100
AcDbEntity
  8
LAY-2
  6
CONTINUOUS
 62
     3
100
AcDbCircle
 10
647.699836
 20
489.170972
 30
0.0
 40
1.0
100
AcDbArc
 50
180.0
 51
270.0
  0
LINE
  5
187
100
AcDbEntity
  8
LAY-2
  6
CONTINUOUS
 62
     3
100
AcDbLine
 10
647.699836
 20
488.170972
 30
0.0
 11
671.399836
 21
488.170972
 31
0.0
  0
ARC
  5
188
100
AcDbEntity
  8
LAY-2
  6
CONTINUOUS
 62
     3
100
AcDbCircle
 10
671.399836
 20
489.170972
 30
0.0
 40
1.0
100
AcDbArc
 50
270.0
 51
0.0
  0
ARC
  5
189
100
AcDbEntity
  8
LAY-2
  6
CONTINUOUS
 62
     3
100
AcDbCircle
 10
650.549836
 20
487.670972
 30
0.0
 40
0.5
100
AcDbArc
 50
0.0
 51
90.0
  0
ARC
  5
18A
100
AcDbEntity
  8
LAY-2
  6
CONTINUOUS
 62
     3
100
AcDbCircle
 10
668.549836
 20
487.670972
 30
0.0
 40
0.5
100
AcDbArc
 50
90.0
 51
180.0
  0
LINE
  5
18B
100
AcDbEntity
  8
LAY-2
  6
CONTINUOUS
 62
     3
100
AcDbLine
 10
668.049836
 20
487.670972
 30
0.0
 11
668.049836
 21
480.570972
 31
0.0
  0
LINE
  5
18C
100
AcDbEntity
  8
LAY-2
  6
CONTINUOUS
 62
     3
100
AcDbLine
 10
651.049836
 20
487.670972
 30
0.0
 11
651.049836
 21
480.570972
 31
0.0
  0
LINE
  5
18D
100
AcDbEntity
  8
LAY-2
  6
CONTINUOUS
 62
     3
100
AcDbLine
 10
675.549851
 20
496.370972
 30
0.0
 11
675.549851
 21
490.370972
 31
0.0
  0
LINE
  5
18E
100
AcDbEntity
  8
LAY-2
  6
CONTINUOUS
 62
     3
100
AcDbLine
 10
675.549851
 20
490.370972
 30
0.0
 11
643.549821
 21
490.370972
 31
0.0
  0
LINE
  5
18F
100
AcDbEntity
  8
LAY-2
  6
CONTINUOUS
 62
     3
100
AcDbLine
 10
675.549851
 20
496.370972
 30
0.0
 11
643.549821
 21
496.370972
 31
0.0
  0
LINE
  5
190
100
AcDbEntity
  8
LAY-3
  6
CONTINUOUS
 62
     3
100
AcDbLine
 10
128.22136
 20
329.052124
 30
0.0
 11
89.221344
 21
329.052124
 31
0.0
  0
LINE
  5
191
100
AcDbEntity
  8
LAY-3
  6
CONTINUOUS
 62
     3
100
AcDbLine
 10
89.22136
 20
329.052124
 30
0.0
 11
128.22136
 21
329.052124
 31
0.0
  0
LINE
  5
192
100
AcDbEntity
  8
LAY-3
  6
DASHED2
 62
     3
100
AcDbLine
 10
120.321344
 20
349.052124
 30
0.0
 11
120.321344
 21
329.052124
 31
0.0
  0
LINE
  5
193
100
AcDbEntity
  8
LAY-3
  6
DASHED2
 62
     3
100
AcDbLine
 10
95.121344
 20
349.052124
 30
0.0
 11
95.121344
 21
329.052124
 31
0.0
  0
LINE
  5
194
100
AcDbEntity
  8
LAY-3
  6
CONTINUOUS
 62
     3
100
AcDbLine
 10
255.721344
 20
347.552124
 30
0.0
 11
255.721344
 21
338.552124
 31
0.0
  0
LINE
  5
195
100
AcDbEntity
  8
LAY-3
  6
CONTINUOUS
 62
     3
100
AcDbLine
 10
131.22136
 20
337.052124
 30
0.0
 11
254.221344
 21
337.052124
 31
0.0
  0
LINE
  5
196
100
AcDbEntity
  8
LAY-3
  6
CONTINUOUS
 62
     3
100
AcDbLine
 10
129.72136
 20
335.552124
 30
0.0
 11
129.72136
 21
330.552124
 31
0.0
  0
ARC
  5
197
100
AcDbEntity
  8
LAY-3
  6
CONTINUOUS
 62
     3
100
AcDbCircle
 10
131.22136
 20
335.552124
 30
0.0
 40
1.5
100
AcDbArc
 50
89.999981
 51
180.00002
  0
ARC
  5
198
100
AcDbEntity
  8
LAY-3
  6
CONTINUOUS
 62
     3
100
AcDbCircle
 10
128.22136
 20
330.552124
 30
0.0
 40
1.5
100
AcDbArc
 50
270.0
 51
359.999982
  0
ARC
  5
199
100
AcDbEntity
  8
LAY-3
  6
CONTINUOUS
 62
     3
100
AcDbCircle
 10
254.221344
 20
347.552124
 30
0.0
 40
1.5
100
AcDbArc
 50
0.0
 51
89.999981
  0
ARC
  5
19A
100
AcDbEntity
  8
LAY-3
  6
CONTINUOUS
 62
     3
100
AcDbCircle
 10
254.221344
 20
338.552124
 30
0.0
 40
1.5
100
AcDbArc
 50
270.0
 51
359.999982
  0
LINE
  5
19B
100
AcDbEntity
  8
LAY-3
  6
CONTINUOUS
 62
     3
100
AcDbLine
 10
87.72136
 20
330.552124
 30
0.0
 11
87.72136
 21
347.552124
 31
0.0
  0
ARC
  5
19C
100
AcDbEntity
  8
LAY-3
  6
CONTINUOUS
 62
     3
100
AcDbCircle
 10
89.22136
 20
330.552124
 30
0.0
 40
1.5
100
AcDbArc
 50
180.00002
 51
270.0
  0
ARC
  5
19D
100
AcDbEntity
  8
LAY-3
  6
CONTINUOUS
 62
     3
100
AcDbCircle
 10
89.22136
 20
347.552124
 30
0.0
 40
1.5
100
AcDbArc
 50
89.999981
 51
180.00002
  0
LINE
  5
19E
100
AcDbEntity
  8
LAY-3
  6
CONTINUOUS
 62
     3
100
AcDbLine
 10
87.72136
 20
349.067413
 30
0.0
 11
87.72136
 21
349.052094
 31
0.0
  0
LINE
  5
19F
100
AcDbEntity
  8
LAY-3
  6
CONTINUOUS
 62
     3
100
AcDbLine
 10
255.721314
 20
349.067413
 30
0.0
 11
255.721314
 21
349.052124
 31
0.0
  0
LINE
  5
1A0
100
AcDbEntity
  8
LAY-3
  6
CONTINUOUS
 62
     3
100
AcDbLine
 10
89.22136
 20
349.052124
 30
0.0
 11
254.221344
 21
349.052124
 31
0.0
  0
LINE
  5
1A1
100
AcDbEntity
  8
LAY-3
  6
DASHED2
 62
     3
100
AcDbLine
 10
145.22136
 20
340.052124
 30
0.0
 11
135.22136
 21
340.052124
 31
0.0
  0
LINE
  5
1A2
100
AcDbEntity
  8
LAY-3
  6
CONTINUOUS
 62
     3
100
AcDbLine
 10
145.22136
 20
332.452124
 30
0.0
 11
135.22136
 21
332.452124
 31
0.0
  0
LINE
  5
1A3
100
AcDbEntity
  8
LAY-3
  6
DASHED2
 62
     3
100
AcDbLine
 10
145.22136
 20
337.052124
 30
0.0
 11
145.22136
 21
340.052124
 31
0.0
  0
LINE
  5
1A4
100
AcDbEntity
  8
LAY-3
  6
DASHED2
 62
     3
100
AcDbLine
 10
135.22136
 20
337.052124
 30
0.0
 11
135.22136
 21
340.052124
 31
0.0
  0
LINE
  5
1A5
100
AcDbEntity
  8
LAY-3
  6
DASHED2
 62
     3
100
AcDbLine
 10
143.22136
 20
338.452124
 30
0.0
 11
143.22136
 21
355.852063
 31
0.0
  0
LINE
  5
1A6
100
AcDbEntity
  8
LAY-3
  6
DASHED2
 62
     1
100
AcDbLine
 10
142.87136
 20
355.852063
 30
0.0
 11
142.87136
 21
338.452124
 31
0.0
  0
LINE
  5
1A7
100
AcDbEntity
  8
LAY-3
  6
DASHED2
 62
     3
100
AcDbLine
 10
137.22136
 20
338.452124
 30
0.0
 11
137.22136
 21
355.852063
 31
0.0
  0
LINE
  5
1A8
100
AcDbEntity
  8
LAY-3
  6
DASHED2
 62
     1
100
AcDbLine
 10
137.57136
 20
355.852063
 30
0.0
 11
137.57136
 21
338.452124
 31
0.0
  0
LINE
  5
1A9
100
AcDbEntity
  8
LAY-3
  6
CONTINUOUS
 62
     3
100
AcDbLine
 10
143.22136
 20
358.452124
 30
0.0
 11
137.22136
 21
358.452124
 31
0.0
  0
LINE
  5
1AA
100
AcDbEntity
  8
LAY-3
  6
CONTINUOUS
 62
     1
100
AcDbLine
 10
137.57136
 20
355.852063
 30
0.0
 11
137.57136
 21
358.452124
 31
0.0
  0
LINE
  5
1AB
100
AcDbEntity
  8
LAY-3
  6
CONTINUOUS
 62
     1
100
AcDbLine
 10
142.87136
 20
355.852063
 30
0.0
 11
142.87136
 21
358.452124
 31
0.0
  0
LINE
  5
1AC
100
AcDbEntity
  8
LAY-3
  6
CONTINUOUS
 62
     3
100
AcDbLine
 10
137.22136
 20
355.852063
 30
0.0
 11
137.22136
 21
358.452124
 31
0.0
  0
LINE
  5
1AD
100
AcDbEntity
  8
LAY-3
  6
CONTINUOUS
 62
     3
100
AcDbLine
 10
143.22136
 20
355.852063
 30
0.0
 11
143.22136
 21
358.452124
 31
0.0
  0
LINE
  5
1AE
100
AcDbEntity
  8
LAY-3
  6
CONTINUOUS
 62
     3
100
AcDbLine
 10
145.22136
 20
337.052124
 30
0.0
 11
145.22136
 21
332.452124
 31
0.0
  0
LINE
  5
1AF
100
AcDbEntity
  8
LAY-3
  6
CONTINUOUS
 62
     3
100
AcDbLine
 10
135.22136
 20
337.052124
 30
0.0
 11
135.22136
 21
332.452124
 31
0.0
  0
LINE
  5
1B0
100
AcDbEntity
  8
LAY-3
  6
CONTINUOUS
 62
     3
100
AcDbLine
 10
170.22136
 20
332.452124
 30
0.0
 11
160.22136
 21
332.452124
 31
0.0
  0
LINE
  5
1B1
100
AcDbEntity
  8
LAY-3
  6
CONTINUOUS
 62
     3
100
AcDbLine
 10
168.22136
 20
358.452124
 30
0.0
 11
162.22136
 21
358.452124
 31
0.0
  0
LINE
  5
1B2
100
AcDbEntity
  8
LAY-3
  6
DASHED2
 62
     3
100
AcDbLine
 10
170.22136
 20
340.052124
 30
0.0
 11
160.22136
 21
340.052124
 31
0.0
  0
LINE
  5
1B3
100
AcDbEntity
  8
LAY-3
  6
DASHED2
 62
     3
100
AcDbLine
 10
170.22136
 20
337.052124
 30
0.0
 11
170.22136
 21
340.052124
 31
0.0
  0
LINE
  5
1B4
100
AcDbEntity
  8
LAY-3
  6
DASHED2
 62
     3
100
AcDbLine
 10
160.22136
 20
337.052124
 30
0.0
 11
160.22136
 21
340.052124
 31
0.0
  0
LINE
  5
1B5
100
AcDbEntity
  8
LAY-3
  6
DASHED2
 62
     3
100
AcDbLine
 10
168.22136
 20
338.452124
 30
0.0
 11
168.22136
 21
355.852063
 31
0.0
  0
LINE
  5
1B6
100
AcDbEntity
  8
LAY-3
  6
DASHED2
 62
     1
100
AcDbLine
 10
167.87136
 20
355.852063
 30
0.0
 11
167.87136
 21
338.452124
 31
0.0
  0
LINE
  5
1B7
100
AcDbEntity
  8
LAY-3
  6
DASHED2
 62
     1
100
AcDbLine
 10
162.57136
 20
355.852063
 30
0.0
 11
162.57136
 21
338.452124
 31
0.0
  0
LINE
  5
1B8
100
AcDbEntity
  8
LAY-3
  6
DASHED2
 62
     3
100
AcDbLine
 10
162.22136
 20
338.452124
 30
0.0
 11
162.22136
 21
355.852063
 31
0.0
  0
LINE
  5
1B9
100
AcDbEntity
  8
LAY-3
  6
CONTINUOUS
 62
     1
100
AcDbLine
 10
162.57136
 20
355.852063
 30
0.0
 11
162.57136
 21
358.452124
 31
0.0
  0
LINE
  5
1BA
100
AcDbEntity
  8
LAY-3
  6
CONTINUOUS
 62
     1
100
AcDbLine
 10
167.87136
 20
355.852063
 30
0.0
 11
167.87136
 21
358.452124
 31
0.0
  0
LINE
  5
1BB
100
AcDbEntity
  8
LAY-3
  6
CONTINUOUS
 62
     3
100
AcDbLine
 10
162.22136
 20
355.852063
 30
0.0
 11
162.22136
 21
358.452124
 31
0.0
  0
LINE
  5
1BC
100
AcDbEntity
  8
LAY-3
  6
CONTINUOUS
 62
     3
100
AcDbLine
 10
168.22136
 20
355.852063
 30
0.0
 11
168.22136
 21
358.452124
 31
0.0
  0
LINE
  5
1BD
100
AcDbEntity
  8
LAY-3
  6
CONTINUOUS
 62
     3
100
AcDbLine
 10
170.22136
 20
337.052124
 30
0.0
 11
170.22136
 21
332.452124
 31
0.0
  0
LINE
  5
1BE
100
AcDbEntity
  8
LAY-3
  6
CONTINUOUS
 62
     3
100
AcDbLine
 10
160.22136
 20
337.052124
 30
0.0
 11
160.22136
 21
332.452124
 31
0.0
  0
LINE
  5
1BF
100
AcDbEntity
  8
LAY-3
  6
CONTINUOUS
 62
     3
100
AcDbLine
 10
210.22136
 20
332.452124
 30
0.0
 11
200.22136
 21
332.452124
 31
0.0
  0
LINE
  5
1C0
100
AcDbEntity
  8
LAY-3
  6
CONTINUOUS
 62
     3
100
AcDbLine
 10
208.22136
 20
358.452124
 30
0.0
 11
202.22136
 21
358.452124
 31
0.0
  0
LINE
  5
1C1
100
AcDbEntity
  8
LAY-3
  6
DASHED2
 62
     3
100
AcDbLine
 10
210.22136
 20
340.052124
 30
0.0
 11
200.22136
 21
340.052124
 31
0.0
  0
LINE
  5
1C2
100
AcDbEntity
  8
LAY-3
  6
DASHED2
 62
     3
100
AcDbLine
 10
210.22136
 20
337.052124
 30
0.0
 11
210.22136
 21
340.052124
 31
0.0
  0
LINE
  5
1C3
100
AcDbEntity
  8
LAY-3
  6
DASHED2
 62
     3
100
AcDbLine
 10
200.22136
 20
337.052124
 30
0.0
 11
200.22136
 21
340.052124
 31
0.0
  0
LINE
  5
1C4
100
AcDbEntity
  8
LAY-3
  6
DASHED2
 62
     3
100
AcDbLine
 10
208.22136
 20
338.452124
 30
0.0
 11
208.22136
 21
355.852063
 31
0.0
  0
LINE
  5
1C5
100
AcDbEntity
  8
LAY-3
  6
DASHED2
 62
     1
100
AcDbLine
 10
207.87136
 20
355.852063
 30
0.0
 11
207.87136
 21
338.452124
 31
0.0
  0
LINE
  5
1C6
100
AcDbEntity
  8
LAY-3
  6
DASHED2
 62
     1
100
AcDbLine
 10
202.57136
 20
355.852063
 30
0.0
 11
202.57136
 21
338.452124
 31
0.0
  0
LINE
  5
1C7
100
AcDbEntity
  8
LAY-3
  6
DASHED2
 62
     3
100
AcDbLine
 10
202.22136
 20
338.452124
 30
0.0
 11
202.22136
 21
355.852063
 31
0.0
  0
LINE
  5
1C8
100
AcDbEntity
  8
LAY-3
  6
CONTINUOUS
 62
     1
100
AcDbLine
 10
202.57136
 20
355.852063
 30
0.0
 11
202.57136
 21
358.452124
 31
0.0
  0
LINE
  5
1C9
100
AcDbEntity
  8
LAY-3
  6
CONTINUOUS
 62
     1
100
AcDbLine
 10
207.87136
 20
355.852063
 30
0.0
 11
207.87136
 21
358.452124
 31
0.0
  0
LINE
  5
1CA
100
AcDbEntity
  8
LAY-3
  6
CONTINUOUS
 62
     3
100
AcDbLine
 10
202.22136
 20
355.852063
 30
0.0
 11
202.22136
 21
358.452124
 31
0.0
  0
LINE
  5
1CB
100
AcDbEntity
  8
LAY-3
  6
CONTINUOUS
 62
     3
100
AcDbLine
 10
208.22136
 20
355.852063
 30
0.0
 11
208.22136
 21
358.452124
 31
0.0
  0
LINE
  5
1CC
100
AcDbEntity
  8
LAY-3
  6
CONTINUOUS
 62
     3
100
AcDbLine
 10
210.22136
 20
337.052124
 30
0.0
 11
210.22136
 21
332.452124
 31
0.0
  0
LINE
  5
1CD
100
AcDbEntity
  8
LAY-3
  6
CONTINUOUS
 62
     3
100
AcDbLine
 10
200.22136
 20
337.052124
 30
0.0
 11
200.22136
 21
332.452124
 31
0.0
  0
LINE
  5
1CE
100
AcDbEntity
  8
LAY-3
  6
CONTINUOUS
 62
     3
100
AcDbLine
 10
250.22136
 20
332.452124
 30
0.0
 11
240.22136
 21
332.452124
 31
0.0
  0
LINE
  5
1CF
100
AcDbEntity
  8
LAY-3
  6
CONTINUOUS
 62
     3
100
AcDbLine
 10
248.22136
 20
358.452124
 30
0.0
 11
242.22136
 21
358.452124
 31
0.0
  0
LINE
  5
1D0
100
AcDbEntity
  8
LAY-3
  6
DASHED2
 62
     3
100
AcDbLine
 10
250.22136
 20
340.052124
 30
0.0
 11
240.22136
 21
340.052124
 31
0.0
  0
LINE
  5
1D1
100
AcDbEntity
  8
LAY-3
  6
DASHED2
 62
     3
100
AcDbLine
 10
250.22136
 20
337.052124
 30
0.0
 11
250.22136
 21
340.052124
 31
0.0
  0
LINE
  5
1D2
100
AcDbEntity
  8
LAY-3
  6
DASHED2
 62
     3
100
AcDbLine
 10
240.22136
 20
337.052124
 30
0.0
 11
240.22136
 21
340.052124
 31
0.0
  0
LINE
  5
1D3
100
AcDbEntity
  8
LAY-3
  6
DASHED2
 62
     3
100
AcDbLine
 10
248.22136
 20
338.452124
 30
0.0
 11
248.22136
 21
355.852063
 31
0.0
  0
LINE
  5
1D4
100
AcDbEntity
  8
LAY-3
  6
DASHED2
 62
     1
100
AcDbLine
 10
247.87136
 20
355.852063
 30
0.0
 11
247.87136
 21
338.452124
 31
0.0
  0
LINE
  5
1D5
100
AcDbEntity
  8
LAY-3
  6
DASHED2
 62
     1
100
AcDbLine
 10
242.57136
 20
355.852063
 30
0.0
 11
242.57136
 21
338.452124
 31
0.0
  0
LINE
  5
1D6
100
AcDbEntity
  8
LAY-3
  6
DASHED2
 62
     3
100
AcDbLine
 10
242.22136
 20
338.452124
 30
0.0
 11
242.22136
 21
355.852063
 31
0.0
  0
LINE
  5
1D7
100
AcDbEntity
  8
LAY-3
  6
CONTINUOUS
 62
     1
100
AcDbLine
 10
242.57136
 20
355.852063
 30
0.0
 11
242.57136
 21
358.452124
 31
0.0
  0
LINE
  5
1D8
100
AcDbEntity
  8
LAY-3
  6
CONTINUOUS
 62
     1
100
AcDbLine
 10
247.87136
 20
355.852063
 30
0.0
 11
247.87136
 21
358.452124
 31
0.0
  0
LINE
  5
1D9
100
AcDbEntity
  8
LAY-3
  6
CONTINUOUS
 62
     3
100
AcDbLine
 10
242.22136
 20
355.852063
 30
0.0
 11
242.22136
 21
358.452124
 31
0.0
  0
LINE
  5
1DA
100
AcDbEntity
  8
LAY-3
  6
CONTINUOUS
 62
     3
100
AcDbLine
 10
248.22136
 20
355.852063
 30
0.0
 11
248.22136
 21
358.452124
 31
0.0
  0
LINE
  5
1DB
100
AcDbEntity
  8
LAY-3
  6
CONTINUOUS
 62
     3
100
AcDbLine
 10
250.22136
 20
337.052124
 30
0.0
 11
250.22136
 21
332.452124
 31
0.0
  0
LINE
  5
1DC
100
AcDbEntity
  8
LAY-3
  6
CONTINUOUS
 62
     3
100
AcDbLine
 10
240.22136
 20
337.052124
 30
0.0
 11
240.22136
 21
332.452124
 31
0.0
  0
LINE
  5
1DD
100
AcDbEntity
  8
LAY-3
  6
DASHED2
 62
     3
100
AcDbLine
 10
250.22136
 20
338.452124
 30
0.0
 11
240.22136
 21
338.452124
 31
0.0
  0
LINE
  5
1DE
100
AcDbEntity
  8
LAY-3
  6
DASHED2
 62
     3
100
AcDbLine
 10
210.22136
 20
338.452124
 30
0.0
 11
200.22136
 21
338.452124
 31
0.0
  0
LINE
  5
1DF
100
AcDbEntity
  8
LAY-3
  6
DASHED2
 62
     3
100
AcDbLine
 10
170.22136
 20
338.452124
 30
0.0
 11
160.22136
 21
338.452124
 31
0.0
  0
LINE
  5
1E0
100
AcDbEntity
  8
LAY-3
  6
DASHED2
 62
     3
100
AcDbLine
 10
145.22136
 20
338.452124
 30
0.0
 11
135.22136
 21
338.452124
 31
0.0
  0
LINE
  5
1E1
100
AcDbEntity
  8
LAY-3
  6
CONTINUOUS
 62
     3
100
AcDbLine
 10
89.221344
 20
174.052078
 30
0.0
 11
254.221344
 21
174.052078
 31
0.0
  0
LINE
  5
1E2
100
AcDbEntity
  8
LAY-3
  6
CONTINUOUS
 62
     3
100
AcDbLine
 10
89.221344
 20
150.052078
 30
0.0
 11
254.221344
 21
150.052078
 31
0.0
  0
LINE
  5
1E3
100
AcDbEntity
  8
LAY-3
  6
CONTINUOUS
 62
     3
100
AcDbLine
 10
87.721344
 20
172.552078
 30
0.0
 11
87.721344
 21
151.552078
 31
0.0
  0
LINE
  5
1E4
100
AcDbEntity
  8
LAY-3
  6
CONTINUOUS
 62
     3
100
AcDbLine
 10
255.721344
 20
172.552078
 30
0.0
 11
255.721344
 21
151.552078
 31
0.0
  0
LINE
  5
1E5
100
AcDbEntity
  8
LAY-3
  6
CONTINUOUS
 62
     3
100
AcDbLine
 10
120.221344
 20
166.752075
 30
0.0
 11
95.221344
 21
166.752075
 31
0.0
  0
LINE
  5
1E6
100
AcDbEntity
  8
LAY-3
  6
DASHED2
 62
     3
100
AcDbLine
 10
120.221344
 20
168.302078
 30
0.0
 11
95.221344
 21
168.302078
 31
0.0
  0
LINE
  5
1E7
100
AcDbEntity
  8
LAY-3
  6
DASHED2
 62
     3
100
AcDbLine
 10
120.221344
 20
155.802078
 30
0.0
 11
95.221344
 21
155.802078
 31
0.0
  0
ARC
  5
1E8
100
AcDbEntity
  8
LAY-3
  6
DASHED
 62
     3
100
AcDbCircle
 10
89.221344
 20
172.552078
 30
0.0
 40
1.5
100
AcDbArc
 50
89.999981
 51
180.00002
  0
ARC
  5
1E9
100
AcDbEntity
  8
LAY-3
  6
DASHED
 62
     3
100
AcDbCircle
 10
89.221344
 20
172.552078
 30
0.0
 40
1.5
100
AcDbArc
 50
89.999981
 51
180.00002
  0
ARC
  5
1EA
100
AcDbEntity
  8
LAY-3
  6
DASHED
 62
     3
100
AcDbCircle
 10
89.221344
 20
151.552078
 30
0.0
 40
1.5
100
AcDbArc
 50
180.00002
 51
270.0
  0
CIRCLE
  5
1EB
100
AcDbEntity
  8
LAY-3
  6
DASHED2
 62
     3
100
AcDbCircle
 10
140.221344
 20
157.052078
 30
0.0
 40
6.0
  0
CIRCLE
  5
1EC
100
AcDbEntity
  8
LAY-3
  6
CONTINUOUS
 62
     3
100
AcDbCircle
 10
140.221344
 20
157.052078
 30
0.0
 40
3.35
  0
CIRCLE
  5
1ED
100
AcDbEntity
  8
LAY-3
  6
DASHED2
 62
     3
100
AcDbCircle
 10
165.221344
 20
167.052078
 30
0.0
 40
6.0
  0
CIRCLE
  5
1EE
100
AcDbEntity
  8
LAY-3
  6
CONTINUOUS
 62
     3
100
AcDbCircle
 10
165.221344
 20
167.052078
 30
0.0
 40
3.35
  0
CIRCLE
  5
1EF
100
AcDbEntity
  8
LAY-3
  6
DASHED2
 62
     3
100
AcDbCircle
 10
205.221344
 20
157.052078
 30
0.0
 40
6.0
  0
CIRCLE
  5
1F0
100
AcDbEntity
  8
LAY-3
  6
CONTINUOUS
 62
     3
100
AcDbCircle
 10
205.221344
 20
157.052078
 30
0.0
 40
3.35
  0
CIRCLE
  5
1F1
100
AcDbEntity
  8
LAY-3
  6
DASHED2
 62
     3
100
AcDbCircle
 10
245.221344
 20
167.052078
 30
0.0
 40
6.0
  0
CIRCLE
  5
1F2
100
AcDbEntity
  8
LAY-3
  6
CONTINUOUS
 62
     3
100
AcDbCircle
 10
245.221344
 20
167.052078
 30
0.0
 40
3.35
  0
ARC
  5
1F3
100
AcDbEntity
  8
LAY-3
  6
DASHED
 62
     3
100
AcDbCircle
 10
254.221344
 20
172.552078
 30
0.0
 40
1.5
100
AcDbArc
 50
0.0
 51
89.999981
  0
ARC
  5
1F4
100
AcDbEntity
  8
LAY-3
  6
DASHED
 62
     3
100
AcDbCircle
 10
254.221344
 20
151.552078
 30
0.0
 40
1.5
100
AcDbArc
 50
270.0
 51
359.999982
  0
LINE
  5
1F5
100
AcDbEntity
  8
LAY-3
  6
DASHED2
 62
     3
100
AcDbLine
 10
129.721344
 20
151.552078
 30
0.0
 11
129.721344
 21
172.552078
 31
0.0
  0
ARC
  5
1F6
100
AcDbEntity
  8
LAY-3
  6
DASHED2
 62
     3
100
AcDbCircle
 10
128.221344
 20
172.552078
 30
0.0
 40
1.5
100
AcDbArc
 50
0.000172
 51
89.999981
  0
ARC
  5
1F7
100
AcDbEntity
  8
LAY-3
  6
DASHED2
 62
     3
100
AcDbCircle
 10
128.221344
 20
151.552078
 30
0.0
 40
1.5
100
AcDbArc
 50
270.0
 51
359.999982
  0
LINE
  5
1F8
100
AcDbEntity
  8
LAY-3
  6
CONTINUOUS
 62
     3
100
AcDbLine
 10
95.221344
 20
168.302078
 30
0.0
 11
95.221344
 21
155.802078
 31
0.0
  0
LINE
  5
1F9
100
AcDbEntity
  8
LAY-3
  6
CONTINUOUS
 62
     3
100
AcDbLine
 10
120.221344
 20
168.302078
 30
0.0
 11
120.221344
 21
155.802078
 31
0.0
  0
LINE
  5
1FA
100
AcDbEntity
  8
LAY-3
  6
CONTINUOUS
 62
     3
100
AcDbLine
 10
119.573448
 20
157.352081
 30
0.0
 11
95.221344
 21
157.352081
 31
0.0
  0
LINE
  5
1FB
100
AcDbEntity
  8
LAY-3
  6
CONTINUOUS
 62
     3
100
AcDbLine
 10
670.049836
 20
329.052063
 30
0.0
 11
649.049836
 21
329.052063
 31
0.0
  0
LINE
  5
1FC
100
AcDbEntity
  8
LAY-3
  6
CONTINUOUS
 62
     3
100
AcDbLine
 10
671.549836
 20
347.552063
 30
0.0
 11
671.549836
 21
330.552063
 31
0.0
  0
LINE
  5
1FD
100
AcDbEntity
  8
LAY-3
  6
CONTINUOUS
 62
     3
100
AcDbLine
 10
647.549836
 20
347.552063
 30
0.0
 11
647.549836
 21
330.552063
 31
0.0
  0
ARC
  5
1FE
100
AcDbEntity
  8
LAY-3
  6
CONTINUOUS
 62
     3
100
AcDbCircle
 10
649.049836
 20
347.552063
 30
0.0
 40
1.5
100
AcDbArc
 50
89.999981
 51
180.00002
  0
ARC
  5
1FF
100
AcDbEntity
  8
LAY-3
  6
CONTINUOUS
 62
     3
100
AcDbCircle
 10
670.049836
 20
347.552063
 30
0.0
 40
1.5
100
AcDbArc
 50
0.0
 51
89.999981
  0
ARC
  5
200
100
AcDbEntity
  8
LAY-3
  6
CONTINUOUS
 62
     3
100
AcDbCircle
 10
649.049836
 20
330.552063
 30
0.0
 40
1.5
100
AcDbArc
 50
180.00002
 51
270.0
  0
ARC
  5
201
100
AcDbEntity
  8
LAY-3
  6
CONTINUOUS
 62
     3
100
AcDbCircle
 10
670.049836
 20
330.552063
 30
0.0
 40
1.5
100
AcDbArc
 50
270.0
 51
359.999982
  0
LINE
  5
202
100
AcDbEntity
  8
LAY-3
  6
CONTINUOUS
 62
     3
100
AcDbLine
 10
649.049836
 20
349.052063
 30
0.0
 11
670.049836
 21
349.052063
 31
0.0
  0
LINE
  5
203
100
AcDbEntity
  8
LAY-4
  6
CONTINUOUS
 62
     3
100
AcDbLine
 10
44.721344
 20
72.052094
 30
0.0
 11
399.721344
 21
72.052094
 31
0.0
  0
LINE
  5
204
100
AcDbEntity
  8
LAY-4
  6
CONTINUOUS
 62
     3
100
AcDbLine
 10
399.721344
 20
72.052094
 30
0.0
 11
399.721344
 21
252.052094
 31
0.0
  0
LINE
  5
205
100
AcDbEntity
  8
LAY-4
  6
CONTINUOUS
 62
     3
100
AcDbLine
 10
399.721344
 20
252.052094
 30
0.0
 11
44.721344
 21
252.052094
 31
0.0
  0
LINE
  5
206
100
AcDbEntity
  8
LAY-4
  6
DASHED2
 62
     3
100
AcDbLine
 10
49.421357
 20
236.052094
 30
0.0
 11
49.421357
 21
88.052094
 31
0.0
  0
ARC
  5
207
100
AcDbEntity
  8
LAY-4
  6
DASHED2
 62
     3
100
AcDbCircle
 10
64.421357
 20
236.052094
 30
0.0
 40
15.0
100
AcDbArc
 50
89.999981
 51
180.00002
  0
ARC
  5
208
100
AcDbEntity
  8
LAY-4
  6
DASHED2
 62
     3
100
AcDbCircle
 10
64.421357
 20
88.052094
 30
0.0
 40
15.0
100
AcDbArc
 50
180.00002
 51
270.000001
  0
LINE
  5
209
100
AcDbEntity
  8
LAY-4
  6
DASHED2
 62
     3
100
AcDbLine
 10
389.421357
 20
88.052094
 30
0.0
 11
389.421357
 21
236.052094
 31
0.0
  0
ARC
  5
20A
100
AcDbEntity
  8
LAY-4
  6
DASHED2
 62
     3
100
AcDbCircle
 10
374.421357
 20
236.052094
 30
0.0
 40
15.0
100
AcDbArc
 50
0.0
 51
89.999981
  0
ARC
  5
20B
100
AcDbEntity
  8
LAY-4
  6
DASHED2
 62
     3
100
AcDbCircle
 10
374.421357
 20
88.052094
 30
0.0
 40
15.0
100
AcDbArc
 50
270.000001
 51
359.999982
  0
LINE
  5
20C
100
AcDbEntity
  8
LAY-4
  6
DASHED2
 62
     3
100
AcDbLine
 10
64.421357
 20
73.052094
 30
0.0
 11
374.421357
 21
73.052094
 31
0.0
  0
LINE
  5
20D
100
AcDbEntity
  8
LAY-4
  6
DASHED2
 62
     3
100
AcDbLine
 10
374.421357
 20
251.052094
 30
0.0
 11
64.421357
 21
251.052094
 31
0.0
  0
LINE
  5
20E
100
AcDbEntity
  8
LAY-4
  6
CONTINUOUS
 62
     3
100
AcDbLine
 10
44.721344
 20
319.052063
 30
0.0
 11
44.721344
 21
317.552063
 31
0.0
  0
LINE
  5
20F
100
AcDbEntity
  8
LAY-4
  6
CONTINUOUS
 62
     3
100
AcDbLine
 10
399.721344
 20
319.052063
 30
0.0
 11
399.721344
 21
317.552063
 31
0.0
  0
LINE
  5
210
100
AcDbEntity
  8
LAY-4
  6
CONTINUOUS
 62
     3
100
AcDbLine
 10
44.721344
 20
317.552063
 30
0.0
 11
399.721344
 21
317.552063
 31
0.0
  0
LINE
  5
211
100
AcDbEntity
  8
LAY-4
  6
CONTINUOUS
 62
     3
100
AcDbLine
 10
184.889832
 20
268.952057
 30
0.0
 11
133.152833
 21
268.952057
 31
0.0
  0
LINE
  5
212
100
AcDbEntity
  8
LAY-4
  6
CONTINUOUS
 62
     3
100
AcDbLine
 10
354.258606
 20
268.952087
 30
0.0
 11
364.584137
 21
268.952087
 31
0.0
  0
LINE
  5
213
100
AcDbEntity
  8
LAY-4
  6
CONTINUOUS
 62
     3
100
AcDbLine
 10
133.152833
 20
268.952057
 30
0.0
 11
129.611146
 21
271.952026
 31
0.0
  0
LINE
  5
214
100
AcDbEntity
  8
LAY-4
  6
CONTINUOUS
 62
     3
100
AcDbLine
 10
184.889832
 20
268.952057
 30
0.0
 11
188.43155
 21
271.952026
 31
0.0
  0
LINE
  5
215
100
AcDbEntity
  8
LAY-4
  6
CONTINUOUS
 62
     3
100
AcDbLine
 10
349.6586
 20
271.952057
 30
0.0
 11
354.258606
 21
268.952087
 31
0.0
  0
LINE
  5
216
100
AcDbEntity
  8
LAY-4
  6
CONTINUOUS
 62
     3
100
AcDbLine
 10
369.184113
 20
271.952057
 30
0.0
 11
364.584137
 21
268.952087
 31
0.0
  0
LINE
  5
217
100
AcDbEntity
  8
LAY-4
  6
CONTINUOUS
 62
     3
100
AcDbLine
 10
49.421326
 20
315.952057
 30
0.0
 11
49.421326
 21
317.552063
 31
0.0
  0
LINE
  5
218
100
AcDbEntity
  8
LAY-4
  6
CONTINUOUS
 62
     3
100
AcDbLine
 10
50.221344
 20
315.952087
 30
0.0
 11
50.221344
 21
281.952057
 31
0.0
  0
ARC
  5
219
100
AcDbEntity
  8
LAY-4
  6
CONTINUOUS
 62
     3
100
AcDbCircle
 10
60.221344
 20
281.952057
 30
0.0
 40
10.0
100
AcDbArc
 50
180.00002
 51
270.000001
  0
LINE
  5
21A
100
AcDbEntity
  8
LAY-4
  6
CONTINUOUS
 62
     3
100
AcDbLine
 10
59.421326
 20
315.952057
 30
0.0
 11
59.421326
 21
312.752075
 31
0.0
  0
LINE
  5
21B
100
AcDbEntity
  8
LAY-4
  6
CONTINUOUS
 62
     3
100
AcDbLine
 10
379.021332
 20
312.752075
 30
0.0
 11
379.021332
 21
315.952026
 31
0.0
  0
LINE
  5
21C
100
AcDbEntity
  8
LAY-4
  6
CONTINUOUS
 62
     3
100
AcDbLine
 10
59.421326
 20
312.752075
 30
0.0
 11
379.021332
 21
312.752075
 31
0.0
  0
LINE
  5
21D
100
AcDbEntity
  8
LAY-4
  6
CONTINUOUS
 62
     3
100
AcDbLine
 10
389.421357
 20
315.952057
 30
0.0
 11
389.421357
 21
317.552063
 31
0.0
  0
LINE
  5
21E
100
AcDbEntity
  8
LAY-4
  6
CONTINUOUS
 62
     3
100
AcDbLine
 10
388.621369
 20
315.952087
 30
0.0
 11
388.621369
 21
281.952057
 31
0.0
  0
ARC
  5
21F
100
AcDbEntity
  8
LAY-4
  6
CONTINUOUS
 62
     3
100
AcDbCircle
 10
378.621369
 20
281.952057
 30
0.0
 40
10.0
100
AcDbArc
 50
270.000001
 51
359.999982
  0
LINE
  5
220
100
AcDbEntity
  8
LAY-4
  6
CONTINUOUS
 62
     3
100
AcDbLine
 10
49.421326
 20
317.552063
 30
0.0
 11
389.421357
 21
317.552063
 31
0.0
  0
LINE
  5
221
100
AcDbEntity
  8
LAY-4
  6
CONTINUOUS
 62
     3
100
AcDbLine
 10
378.621369
 20
271.952057
 30
0.0
 11
60.221344
 21
271.952057
 31
0.0
  0
LINE
  5
222
100
AcDbEntity
  8
LAY-4
  6
CONTINUOUS
 62
     3
100
AcDbLine
 10
49.421326
 20
315.952057
 30
0.0
 11
389.421357
 21
315.952057
 31
0.0
  0
LINE
  5
223
100
AcDbEntity
  8
LAY-4
  6
CONTINUOUS
 62
     3
100
AcDbLine
 10
119.573456
 20
166.752075
 30
0.0
 11
95.869233
 21
166.752075
 31
0.0
  0
LINE
  5
224
100
AcDbEntity
  8
LAY-4
  6
CONTINUOUS
 62
     3
100
AcDbLine
 10
119.573456
 20
157.352081
 30
0.0
 11
95.869233
 21
157.352081
 31
0.0
  0
LINE
  5
225
100
AcDbEntity
  8
LAY-4
  6
CONTINUOUS
 62
     3
100
AcDbLine
 10
138.721344
 20
319.052063
 30
0.0
 11
44.721344
 21
319.052063
 31
0.0
  0
LINE
  5
226
100
AcDbEntity
  8
LAY-4
  6
CONTINUOUS
 62
     3
100
AcDbLine
 10
95.221338
 20
329.052124
 30
0.0
 11
95.221338
 21
325.552063
 31
0.0
  0
LINE
  5
227
100
AcDbEntity
  8
LAY-4
  6
CONTINUOUS
 62
     3
100
AcDbLine
 10
97.571344
 20
327.052094
 30
0.0
 11
117.871344
 21
327.052094
 31
0.0
  0
LINE
  5
228
100
AcDbEntity
  8
LAY-4
  6
CONTINUOUS
 62
     3
100
AcDbLine
 10
97.472834
 20
329.052124
 30
0.0
 11
97.571344
 21
327.052094
 31
0.0
  0
LINE
  5
229
100
AcDbEntity
  8
LAY-4
  6
CONTINUOUS
 62
     3
100
AcDbLine
 10
117.969855
 20
329.052124
 30
0.0
 11
117.871344
 21
327.052094
 31
0.0
  0
LINE
  5
22A
100
AcDbEntity
  8
LAY-4
  6
CONTINUOUS
 62
     3
100
AcDbLine
 10
120.221381
 20
329.052124
 30
0.0
 11
120.22136
 21
325.552063
 31
0.0
  0
LINE
  5
22B
100
AcDbEntity
  8
LAY-4
  6
DASHED2
 62
     3
100
AcDbLine
 10
96.221338
 20
347.052063
 30
0.0
 11
119.221351
 21
347.052063
 31
0.0
  0
LINE
  5
22C
100
AcDbEntity
  8
LAY-4
  6
DASHED2
 62
     3
100
AcDbLine
 10
119.221351
 20
347.052063
 30
0.0
 11
120.221351
 21
346.052063
 31
0.0
  0
LINE
  5
22D
100
AcDbEntity
  8
LAY-4
  6
DASHED2
 62
     3
100
AcDbLine
 10
96.221338
 20
347.052063
 30
0.0
 11
95.221338
 21
346.052063
 31
0.0
  0
LINE
  5
22E
100
AcDbEntity
  8
LAY-4
  6
DASHED2
 62
     3
100
AcDbLine
 10
96.635523
 20
346.052124
 30
0.0
 11
97.635553
 21
347.052063
 31
0.0
  0
LINE
  5
22F
100
AcDbEntity
  8
LAY-4
  6
DASHED2
 62
     3
100
AcDbLine
 10
118.807136
 20
346.052124
 30
0.0
 11
117.807136
 21
347.052063
 31
0.0
  0
LINE
  5
230
100
AcDbEntity
  8
LAY-4
  6
DASHED2
 62
     3
100
AcDbLine
 10
120.221351
 20
349.052063
 30
0.0
 11
120.221351
 21
329.052124
 31
0.0
  0
LINE
  5
231
100
AcDbEntity
  8
LAY-4
  6
DASHED2
 62
     3
100
AcDbLine
 10
95.221338
 20
349.052063
 30
0.0
 11
95.221338
 21
329.052124
 31
0.0
  0
LINE
  5
232
100
AcDbEntity
  8
LAY-4
  6
DASHED2
 62
     3
100
AcDbLine
 10
96.635523
 20
346.052124
 30
0.0
 11
95.221338
 21
346.052124
 31
0.0
  0
LINE
  5
233
100
AcDbEntity
  8
LAY-4
  6
DASHED2
 62
     3
100
AcDbLine
 10
118.807136
 20
346.052124
 30
0.0
 11
120.221351
 21
346.052124
 31
0.0
  0
LINE
  5
234
100
AcDbEntity
  8
LAY-4
  6
DASHED2
 62
     3
100
AcDbLine
 10
97.472834
 20
329.052094
 30
0.0
 11
96.635523
 21
346.052124
 31
0.0
  0
LINE
  5
235
100
AcDbEntity
  8
LAY-4
  6
DASHED2
 62
     3
100
AcDbLine
 10
117.969855
 20
329.052094
 30
0.0
 11
118.807136
 21
346.052124
 31
0.0
  0
INSERT
  5
236
100
AcDbEntity
  8
LAY-4
  6
CONTINUOUS
 62
     0
100
AcDbBlockReference
  2
SYM-1
 10
367.721375
 20
247.052078
 30
0.0
  0
INSERT
  5
237
100
AcDbEntity
  8
LAY-4
  6
CONTINUOUS
 62
     0
100
AcDbBlockReference
  2
SYM-1
 10
367.721344
 20
77.052078
 30
0.0
  0
INSERT
  5
238
100
AcDbEntity
  8
LAY-4
  6
CONTINUOUS
 62
     0
100
AcDbBlockReference
  2
SYM-1
 10
165.721375
 20
247.052109
 30
0.0
  0
INSERT
  5
239
100
AcDbEntity
  8
LAY-4
  6
CONTINUOUS
 62
     0
100
AcDbBlockReference
  2
SYM-1
 10
67.721344
 20
247.052109
 30
0.0
  0
INSERT
  5
23A
100
AcDbEntity
  8
LAY-4
  6
CONTINUOUS
 62
     0
100
AcDbBlockReference
  2
SYM-1
 10
67.721344
 20
77.052078
 30
0.0
  0
INSERT
  5
23B
100
AcDbEntity
  8
LAY-4
  6
CONTINUOUS
 62
     0
100
AcDbBlockReference
  2
SYM-1
 10
149.721344
 20
77.052078
 30
0.0
  0
INSERT
  5
23C
100
AcDbEntity
  8
LAY-4
  6
CONTINUOUS
 62
     0
100
AcDbBlockReference
  2
SYM-1
 10
165.721344
 20
77.052078
 30
0.0
  0
LINE
  5
23D
100
AcDbEntity
  8
LAY-4
  6
CONTINUOUS
 62
     3
100
AcDbLine
 10
399.7
 20
319.052063
 30
0.0
 11
138.721344
 21
319.052063
 31
0.0
  0
LINE
  5
23E
100
AcDbEntity
  8
LAY-4
  6
CONTINUOUS
 62
     3
100
AcDbLine
 10
157.721344
 20
319.052063
 30
0.0
 11
157.721344
 21
317.552063
 31
0.0
  0
LINE
  5
23F
100
AcDbEntity
  8
LAY-4
  6
CONTINUOUS
 62
     3
100
AcDbLine
 10
44.721344
 20
98.6
 30
0.0
 11
44.721344
 21
72.052094
 31
0.0
  0
LINE
  5
240
100
AcDbEntity
  8
LAY-4
  6
CONTINUOUS
 62
     3
100
AcDbLine
 10
44.721344
 20
252.052094
 30
0.0
 11
44.721344
 21
98.6
 31
0.0
  0
LINE
  5
241
100
AcDbEntity
  8
LAY-4
  6
CONTINUOUS
 62
     3
100
AcDbLine
 10
157.721344
 20
252.052094
 30
0.0
 11
157.721344
 21
247.98
 31
0.0
  0
INSERT
  5
242
100
AcDbEntity
  8
LAY-4
  6
CONTINUOUS
 62
     0
100
AcDbBlockReference
  2
SYM-1
 10
149.721375
 20
247.052109
 30
0.0
  0
LINE
  5
243
100
AcDbEntity
  8
LAY-4
  6
CONTINUOUS
 62
     3
100
AcDbLine
 10
75.221344
 20
325.552063
 30
0.0
 11
140.221344
 21
325.552063
 31
0.0
  0
LINE
  5
244
100
AcDbEntity
  8
LAY-4
  6
CONTINUOUS
 62
     3
100
AcDbLine
 10
142.221344
 20
319.052063
 30
0.0
 11
142.221344
 21
323.552063
 31
0.0
  0
LINE
  5
245
100
AcDbEntity
  8
LAY-4
  6
CONTINUOUS
 62
     3
100
AcDbLine
 10
73.221344
 20
319.052063
 30
0.0
 11
73.221344
 21
323.552063
 31
0.0
  0
ARC
  5
246
100
AcDbEntity
  8
LAY-4
  6
CONTINUOUS
 62
     3
100
AcDbCircle
 10
75.221344
 20
323.552063
 30
0.0
 40
2.0
100
AcDbArc
 50
90.0
 51
180.0
  0
ARC
  5
247
100
AcDbEntity
  8
LAY-4
  6
CONTINUOUS
 62
     3
100
AcDbCircle
 10
140.221344
 20
323.552063
 30
0.0
 40
2.0
100
AcDbArc
 50
0.0
 51
90.0
  0
LINE
  5
248
100
AcDbEntity
  8
LAY-4
  6
CONTINUOUS
 62
     3
100
AcDbLine
 10
112.721344
 20
191.552078
 30
0.0
 11
44.721344
 21
191.552078
 31
0.0
  0
LINE
  5
249
100
AcDbEntity
  8
LAY-4
  6
CONTINUOUS
 62
     3
100
AcDbLine
 10
112.721344
 20
132.552078
 30
0.0
 11
44.721344
 21
132.552078
 31
0.0
  0
LINE
  5
24A
100
AcDbEntity
  8
LAY-4
  6
CONTINUOUS
 62
     3
100
AcDbLine
 10
112.721344
 20
175.552078
 30
0.0
 11
102.721344
 21
175.552078
 31
0.0
  0
LINE
  5
24B
100
AcDbEntity
  8
LAY-4
  6
CONTINUOUS
 62
     3
100
AcDbLine
 10
112.721344
 20
148.552078
 30
0.0
 11
102.721344
 21
148.552078
 31
0.0
  0
LINE
  5
24C
100
AcDbEntity
  8
LAY-4
  6
CONTINUOUS
 62
     3
100
AcDbLine
 10
112.721344
 20
192.552078
 30
0.0
 11
44.721344
 21
192.552078
 31
0.0
  0
LINE
  5
24D
100
AcDbEntity
  8
LAY-4
  6
CONTINUOUS
 62
     3
100
AcDbLine
 10
112.721344
 20
131.552078
 30
0.0
 11
44.721344
 21
131.552078
 31
0.0
  0
ARC
  5
24E
100
AcDbEntity
  8
LAY-4
  6
CONTINUOUS
 62
     3
100
AcDbCircle
 10
112.721344
 20
162.052078
 30
0.0
 40
13.5
100
AcDbArc
 50
62.733956
 51
90.0
  0
ARC
  5
24F
100
AcDbEntity
  8
LAY-4
  6
CONTINUOUS
 62
     3
100
AcDbCircle
 10
112.721344
 20
162.052078
 30
0.0
 40
13.5
100
AcDbArc
 50
270.0
 51
297.266044
  0
ARC
  5
250
100
AcDbEntity
  8
LAY-4
  6
DASHED2
 62
     3
100
AcDbCircle
 10
112.721344
 20
162.052078
 30
0.0
 40
13.5
100
AcDbArc
 50
297.266044
 51
62.733956
  0
ARC
  5
251
100
AcDbEntity
  8
LAY-4
  6
CONTINUOUS
 62
     3
100
AcDbCircle
 10
102.721344
 20
162.052078
 30
0.0
 40
13.5
100
AcDbArc
 50
90.0
 51
117.266044
  0
ARC
  5
252
100
AcDbEntity
  8
LAY-4
  6
CONTINUOUS
 62
     3
100
AcDbCircle
 10
102.721344
 20
162.052078
 30
0.0
 40
13.5
100
AcDbArc
 50
242.733956
 51
270.0
  0
ARC
  5
253
100
AcDbEntity
  8
LAY-4
  6
DASHED2
 62
     3
100
AcDbCircle
 10
102.721344
 20
162.052078
 30
0.0
 40
13.5
100
AcDbArc
 50
117.266044
 51
242.733956
  0
ARC
  5
254
100
AcDbEntity
  8
LAY-4
  6
CONTINUOUS
 62
     3
100
AcDbCircle
 10
107.721344
 20
162.052094
 30
0.0
 40
12.75
100
AcDbArc
 50
250.25029
 51
289.74971
  0
ARC
  5
255
100
AcDbEntity
  8
LAY-4
  6
CONTINUOUS
 62
     3
100
AcDbCircle
 10
107.721344
 20
162.052094
 30
0.0
 40
12.75
100
AcDbArc
 50
70.249864
 51
109.750136
  0
ARC
  5
256
100
AcDbEntity
  8
LAY-4
  6
DASHED2
 62
     3
100
AcDbCircle
 10
107.721344
 20
162.052094
 30
0.0
 40
12.75
100
AcDbArc
 50
289.74971
 51
330.646447
  0
LINE
  5
257
100
AcDbEntity
  8
LAY-4
  6
DASHED2
 62
     3
100
AcDbLine
 10
118.454255
 20
168.302078
 30
0.0
 11
96.608277
 21
168.302078
 31
0.0
  0
ARC
  5
258
100
AcDbEntity
  8
LAY-4
  6
DASHED2
 62
     3
100
AcDbCircle
 10
107.721344
 20
162.052094
 30
0.0
 40
12.75
100
AcDbArc
 50
348.635123
 51
11.364877
  0
ARC
  5
259
100
AcDbEntity
  8
LAY-4
  6
DASHED2
 62
     3
100
AcDbCircle
 10
107.721344
 20
162.052094
 30
0.0
 40
12.75
100
AcDbArc
 50
29.353388
 51
70.249864
  0
ARC
  5
25A
100
AcDbEntity
  8
LAY-4
  6
DASHED2
 62
     3
100
AcDbCircle
 10
107.721344
 20
162.052094
 30
0.0
 40
12.75
100
AcDbArc
 50
109.750136
 51
150.646612
  0
ARC
  5
25B
100
AcDbEntity
  8
LAY-4
  6
DASHED2
 62
     3
100
AcDbCircle
 10
107.721344
 20
162.052094
 30
0.0
 40
12.75
100
AcDbArc
 50
168.635123
 51
250.25029
  0
ARC
  5
25C
100
AcDbEntity
  8
LAY-4
  6
DASHED2
 62
     3
100
AcDbCircle
 10
107.721344
 20
162.052094
 30
0.0
 40
12.75
100
AcDbArc
 50
150.646612
 51
168.635123
  0
ARC
  5
25D
100
AcDbEntity
  8
LAY-4
  6
DASHED2
 62
     3
100
AcDbCircle
 10
107.721344
 20
162.052094
 30
0.0
 40
12.75
100
AcDbArc
 50
11.364877
 51
29.353388
  0
ARC
  5
25E
100
AcDbEntity
  8
LAY-4
  6
DASHED2
 62
     3
100
AcDbCircle
 10
107.721344
 20
162.052094
 30
0.0
 40
12.75
100
AcDbArc
 50
330.646447
 51
348.635123
  0
ARC
  5
25F
100
AcDbEntity
  8
LAY-4
  6
CONTINUOUS
 62
     3
100
AcDbCircle
 10
112.721344
 20
162.052078
 30
0.0
 40
29.5
100
AcDbArc
 50
270.0
 51
317.315089
  0
ARC
  5
260
100
AcDbEntity
  8
LAY-4
  6
CONTINUOUS
 62
     3
100
AcDbCircle
 10
112.721344
 20
162.052078
 30
0.0
 40
30.5
100
AcDbArc
 50
270.0
 51
319.02439
  0
ARC
  5
261
100
AcDbEntity
  8
LAY-4
  6
CONTINUOUS
 62
     3
100
AcDbCircle
 10
112.721344
 20
162.052078
 30
0.0
 40
29.5
100
AcDbArc
 50
42.684911
 51
90.0
  0
ARC
  5
262
100
AcDbEntity
  8
LAY-4
  6
CONTINUOUS
 62
     3
100
AcDbCircle
 10
112.721344
 20
162.052078
 30
0.0
 40
30.5
100
AcDbArc
 50
40.97561
 51
90.0
  0
ARC
  5
263
100
AcDbEntity
  8
LAY-4
  6
DASHED2
 62
     3
100
AcDbCircle
 10
112.721344
 20
162.052078
 30
0.0
 40
29.5
100
AcDbArc
 50
317.315089
 51
42.684911
  0
ARC
  5
264
100
AcDbEntity
  8
LAY-4
  6
DASHED2
 62
     3
100
AcDbCircle
 10
112.721344
 20
162.052078
 30
0.0
 40
30.5
100
AcDbArc
 50
319.02439
 51
40.97561
  0
ARC
  5
265
100
AcDbEntity
  8
LAY-4
  6
CONTINUOUS
 62
     3
100
AcDbCircle
 10
102.721344
 20
162.052078
 30
0.0
 40
29.5
100
AcDbArc
 50
222.684911
 51
270.0
  0
ARC
  5
266
100
AcDbEntity
  8
LAY-4
  6
CONTINUOUS
 62
     3
100
AcDbCircle
 10
102.721344
 20
162.052078
 30
0.0
 40
29.5
100
AcDbArc
 50
90.0
 51
137.315089
  0
ARC
  5
267
100
AcDbEntity
  8
LAY-4
  6
DASHED2
 62
     3
100
AcDbCircle
 10
102.721344
 20
162.052078
 30
0.0
 40
29.5
100
AcDbArc
 50
137.315089
 51
222.684911
  0
LINE
  5
268
100
AcDbEntity
  8
LAY-4
  6
CONTINUOUS
 62
     3
100
AcDbLine
 10
157.721344
 20
142.052078
 30
0.0
 11
157.721344
 21
72.052094
 31
0.0
  0
LINE
  5
269
100
AcDbEntity
  8
LAY-4
  6
CONTINUOUS
 62
     3
100
AcDbLine
 10
157.721344
 20
248.51
 30
0.0
 11
157.721344
 21
182.052078
 31
0.0
  0
LINE
  5
26A
100
AcDbEntity
  8
LAY-4
  6
DASHED2
 62
     3
100
AcDbLine
 10
157.721344
 20
182.052078
 30
0.0
 11
157.721344
 21
142.052078
 31
0.0
  0
LINE
  5
26B
100
AcDbEntity
  8
LAY-4
  6
CONTINUOUS
 62
     3
100
AcDbLine
 10
570.549836
 20
317.552063
 30
0.0
 11
748.549836
 21
317.552063
 31
0.0
  0
LINE
  5
26C
100
AcDbEntity
  8
LAY-4
  6
CONTINUOUS
 62
     3
100
AcDbLine
 10
729.549811
 20
271.952087
 30
0.0
 11
589.54986
 21
271.952087
 31
0.0
  0
LINE
  5
26D
100
AcDbEntity
  8
LAY-4
  6
CONTINUOUS
 62
     3
100
AcDbLine
 10
579.54986
 20
281.952087
 30
0.0
 11
579.54986
 21
313.952087
 31
0.0
  0
LINE
  5
26E
100
AcDbEntity
  8
LAY-4
  6
CONTINUOUS
 62
     3
100
AcDbLine
 10
741.549811
 20
315.952087
 30
0.0
 11
570.549836
 21
315.952087
 31
0.0
  0
LINE
  5
26F
100
AcDbEntity
  8
LAY-4
  6
CONTINUOUS
 62
     3
100
AcDbLine
 10
570.549836
 20
317.552063
 30
0.0
 11
570.549836
 21
312.752075
 31
0.0
  0
LINE
  5
270
100
AcDbEntity
  8
LAY-4
  6
CONTINUOUS
 62
     3
100
AcDbLine
 10
570.549836
 20
312.752075
 30
0.0
 11
578.149836
 21
312.752075
 31
0.0
  0
LINE
  5
271
100
AcDbEntity
  8
LAY-4
  6
CONTINUOUS
 62
     3
100
AcDbLine
 10
578.149836
 20
312.752075
 30
0.0
 11
578.149836
 21
315.952087
 31
0.0
  0
ARC
  5
272
100
AcDbEntity
  8
LAY-4
  6
CONTINUOUS
 62
     3
100
AcDbCircle
 10
577.54986
 20
313.952087
 30
0.0
 40
2.0
100
AcDbArc
 50
0.0
 51
89.999981
  0
LINE
  5
273
100
AcDbEntity
  8
LAY-4
  6
CONTINUOUS
 62
     3
100
AcDbLine
 10
739.549811
 20
281.952087
 30
0.0
 11
739.549811
 21
313.952087
 31
0.0
  0
LINE
  5
274
100
AcDbEntity
  8
LAY-4
  6
CONTINUOUS
 62
     3
100
AcDbLine
 10
748.549836
 20
315.952087
 30
0.0
 11
741.549811
 21
315.952087
 31
0.0
  0
LINE
  5
275
100
AcDbEntity
  8
LAY-4
  6
CONTINUOUS
 62
     3
100
AcDbLine
 10
748.549836
 20
317.552063
 30
0.0
 11
748.549836
 21
312.752075
 31
0.0
  0
LINE
  5
276
100
AcDbEntity
  8
LAY-4
  6
CONTINUOUS
 62
     3
100
AcDbLine
 10
748.549836
 20
312.752075
 30
0.0
 11
740.949836
 21
312.752075
 31
0.0
  0
LINE
  5
277
100
AcDbEntity
  8
LAY-4
  6
CONTINUOUS
 62
     3
100
AcDbLine
 10
740.949836
 20
312.752075
 30
0.0
 11
740.949836
 21
315.952087
 31
0.0
  0
ARC
  5
278
100
AcDbEntity
  8
LAY-4
  6
CONTINUOUS
 62
     3
100
AcDbCircle
 10
741.549811
 20
313.952087
 30
0.0
 40
2.0
100
AcDbArc
 50
89.999981
 51
180.00002
  0
LINE
  5
279
100
AcDbEntity
  8
LAY-4
  6
CONTINUOUS
 62
     3
100
AcDbLine
 10
677.799225
 20
271.952148
 30
0.0
 11
675.299225
 21
268.952087
 31
0.0
  0
LINE
  5
27A
100
AcDbEntity
  8
LAY-4
  6
CONTINUOUS
 62
     3
100
AcDbLine
 10
675.299225
 20
268.952087
 30
0.0
 11
643.800446
 21
268.952087
 31
0.0
  0
LINE
  5
27B
100
AcDbEntity
  8
LAY-4
  6
CONTINUOUS
 62
     3
100
AcDbLine
 10
641.300324
 20
271.952148
 30
0.0
 11
643.800446
 21
268.952087
 31
0.0
  0
ARC
  5
27C
100
AcDbEntity
  8
LAY-4
  6
CONTINUOUS
 62
     3
100
AcDbCircle
 10
729.549811
 20
281.952087
 30
0.0
 40
10.0
100
AcDbArc
 50
270.000001
 51
359.999982
  0
ARC
  5
27D
100
AcDbEntity
  8
LAY-4
  6
CONTINUOUS
 62
     3
100
AcDbCircle
 10
589.54986
 20
281.952087
 30
0.0
 40
10.0
100
AcDbArc
 50
180.00002
 51
270.000001
  0
LINE
  5
27E
100
AcDbEntity
  8
LAY-4
  6
CONTINUOUS
 62
     3
100
AcDbLine
 10
604.386994
 20
268.952087
 30
0.0
 11
614.712555
 21
268.952087
 31
0.0
  0
LINE
  5
27F
100
AcDbEntity
  8
LAY-4
  6
CONTINUOUS
 62
     3
100
AcDbLine
 10
599.787018
 20
271.952087
 30
0.0
 11
604.386994
 21
268.952087
 31
0.0
  0
LINE
  5
280
100
AcDbEntity
  8
LAY-4
  6
CONTINUOUS
 62
     3
100
AcDbLine
 10
619.312531
 20
271.952087
 30
0.0
 11
614.712555
 21
268.952087
 31
0.0
  0
LINE
  5
281
100
AcDbEntity
  8
LAY-4
  6
CONTINUOUS
 62
     3
100
AcDbLine
 10
714.712555
 20
268.952087
 30
0.0
 11
704.387116
 21
268.952087
 31
0.0
  0
LINE
  5
282
100
AcDbEntity
  8
LAY-4
  6
CONTINUOUS
 62
     3
100
AcDbLine
 10
719.312653
 20
271.952087
 30
0.0
 11
714.712555
 21
268.952087
 31
0.0
  0
LINE
  5
283
100
AcDbEntity
  8
LAY-4
  6
CONTINUOUS
 62
     3
100
AcDbLine
 10
699.78714
 20
271.952087
 30
0.0
 11
704.387116
 21
268.952087
 31
0.0
  0
LINE
  5
284
100
AcDbEntity
  8
LAY-4
  6
CONTINUOUS
 62
     3
100
AcDbLine
 10
569.549836
 20
319.052063
 30
0.0
 11
569.549836
 21
317.552063
 31
0.0
  0
LINE
  5
285
100
AcDbEntity
  8
LAY-4
  6
CONTINUOUS
 62
     3
100
AcDbLine
 10
749.549836
 20
319.052063
 30
0.0
 11
749.549836
 21
317.552063
 31
0.0
  0
LINE
  5
286
100
AcDbEntity
  8
LAY-4
  6
CONTINUOUS
 62
     3
100
AcDbLine
 10
569.549836
 20
319.052063
 30
0.0
 11
749.549836
 21
319.052063
 31
0.0
  0
LINE
  5
287
100
AcDbEntity
  8
LAY-4
  6
CONTINUOUS
 62
     3
100
AcDbLine
 10
749.549836
 20
317.552063
 30
0.0
 11
569.549836
 21
317.552063
 31
0.0
  0
LINE
  5
288
100
AcDbEntity
  8
LAY-4
  6
CONTINUOUS
 62
     3
100
AcDbLine
 10
690.549714
 20
319.052063
 30
0.0
 11
628.549714
 21
319.052063
 31
0.0
  0
LINE
  5
289
100
AcDbEntity
  8
LAY-4
  6
CONTINUOUS
 62
     3
100
AcDbLine
 10
671.899811
 20
325.552063
 30
0.0
 11
671.899811
 21
327.052063
 31
0.0
  0
LINE
  5
28A
100
AcDbEntity
  8
LAY-4
  6
CONTINUOUS
 62
     3
100
AcDbLine
 10
647.199738
 20
325.552063
 30
0.0
 11
647.199738
 21
327.052063
 31
0.0
  0
LINE
  5
28B
100
AcDbEntity
  8
LAY-4
  6
CONTINUOUS
 62
     3
100
AcDbLine
 10
653.474762
 20
329.052063
 30
0.0
 11
653.299714
 21
327.052063
 31
0.0
  0
LINE
  5
28C
100
AcDbEntity
  8
LAY-4
  6
CONTINUOUS
 62
     3
100
AcDbLine
 10
665.624787
 20
329.052063
 30
0.0
 11
665.799836
 21
327.052063
 31
0.0
  0
LINE
  5
28D
100
AcDbEntity
  8
LAY-4
  6
DASHED2
 62
     3
100
AcDbLine
 10
665.624787
 20
329.052063
 30
0.0
 11
663.875107
 21
349.052063
 31
0.0
  0
LINE
  5
28E
100
AcDbEntity
  8
LAY-4
  6
DASHED2
 62
     3
100
AcDbLine
 10
653.474762
 20
329.052063
 30
0.0
 11
655.224442
 21
349.052063
 31
0.0
  0
LINE
  5
28F
100
AcDbEntity
  8
LAY-4
  6
DASHED2
 62
     3
100
AcDbLine
 10
655.049469
 20
347.052002
 30
0.0
 11
664.05008
 21
347.052002
 31
0.0
  0
LINE
  5
290
100
AcDbEntity
  8
LAY-4
  6
DASHED2
 62
     3
100
AcDbLine
 10
664.05008
 20
346.052002
 30
0.0
 11
655.049469
 21
346.052002
 31
0.0
  0
LINE
  5
291
100
AcDbEntity
  8
LAY-4
  6
CONTINUOUS
 62
     3
100
AcDbLine
 10
647.199738
 20
327.052063
 30
0.0
 11
653.299714
 21
327.052063
 31
0.0
  0
LINE
  5
292
100
AcDbEntity
  8
LAY-4
  6
CONTINUOUS
 62
     3
100
AcDbLine
 10
665.799836
 20
327.052063
 30
0.0
 11
671.899811
 21
327.052063
 31
0.0
  0
LINE
  5
293
100
AcDbEntity
  8
LAY-4
  6
CONTINUOUS
 62
     3
100
AcDbLine
 10
632.049836
 20
325.552063
 30
0.0
 11
687.049836
 21
325.552063
 31
0.0
  0
LINE
  5
294
100
AcDbEntity
  8
LAY-4
  6
CONTINUOUS
 62
     3
100
AcDbLine
 10
630.049836
 20
319.052063
 30
0.0
 11
630.049836
 21
323.552063
 31
0.0
  0
LINE
  5
295
100
AcDbEntity
  8
LAY-4
  6
CONTINUOUS
 62
     3
100
AcDbLine
 10
689.049836
 20
319.052063
 30
0.0
 11
689.049836
 21
323.552063
 31
0.0
  0
ARC
  5
296
100
AcDbEntity
  8
LAY-4
  6
CONTINUOUS
 62
     3
100
AcDbCircle
 10
632.049836
 20
323.552063
 30
0.0
 40
2.0
100
AcDbArc
 50
90.0
 51
180.0
  0
ARC
  5
297
100
AcDbEntity
  8
LAY-4
  6
CONTINUOUS
 62
     3
100
AcDbCircle
 10
687.049836
 20
323.552063
 30
0.0
 40
2.0
100
AcDbArc
 50
0.0
 51
90.0
  0
LINE
  5
298
100
AcDbEntity
  8
LAY-5
  6
DASHDOT
 62
     1
100
AcDbLine
 10
107.721344
 20
254.305954
 30
0.0
 11
107.721344
 21
56.42363
 31
0.0
  0
LINE
  5
299
100
AcDbEntity
  8
LAY-5
  6
DASHDOT
 62
     1
100
AcDbLine
 10
196.351532
 20
516.870972
 30
0.0
 11
178.743897
 21
516.870972
 31
0.0
  0
LINE
  5
29A
100
AcDbEntity
  8
LAY-5
  6
DASHDOT
 62
     1
100
AcDbLine
 10
200.453309
 20
520.870972
 30
0.0
 11
217.560761
 21
520.870972
 31
0.0
  0
LINE
  5
29B
100
AcDbEntity
  8
LAY-5
  6
DASHDOT
 62
     1
100
AcDbLine
 10
187.721314
 20
526.2
 30
0.0
 11
187.721314
 21
503.104492
 31
0.0
  0
LINE
  5
29C
100
AcDbEntity
  8
LAY-5
  6
DASHDOT
 62
     1
100
AcDbLine
 10
208.721314
 20
503.104492
 30
0.0
 11
208.721314
 21
529.317139
 31
0.0
  0
LINE
  5
29D
100
AcDbEntity
  8
LAY-5
  6
DASHDOT
 62
     1
100
AcDbLine
 10
107.721344
 20
540.92218
 30
0.0
 11
107.721344
 21
474.304492
 31
0.0
  0
LINE
  5
29E
100
AcDbEntity
  8
LAY-5
  6
DASHDOT
 62
     1
100
AcDbLine
 10
370.013474
 20
430.370972
 30
0.0
 11
388.2
 21
430.370972
 31
0.0
  0
LINE
  5
29F
100
AcDbEntity
  8
LAY-5
  6
DASHDOT
 62
     1
100
AcDbLine
 10
416.3
 20
414.370972
 30
0.0
 11
433.913849
 21
414.370972
 31
0.0
  0
LINE
  5
2A0
100
AcDbEntity
  8
LAY-5
  6
DASHDOT
 62
     1
100
AcDbLine
 10
461.622895
 20
430.370972
 30
0.0
 11
479.944764
 21
430.370972
 31
0.0
  0
LINE
  5
2A1
100
AcDbEntity
  8
LAY-5
  6
DASHDOT
 62
     1
100
AcDbLine
 10
378.721329
 20
438.370972
 30
0.0
 11
378.721329
 21
423.2
 31
0.0
  0
LINE
  5
2A2
100
AcDbEntity
  8
LAY-5
  6
DASHDOT
 62
     1
100
AcDbLine
 10
424.721344
 20
422.370972
 30
0.0
 11
424.721344
 21
403.6
 31
0.0
  0
LINE
  5
2A3
100
AcDbEntity
  8
LAY-5
  6
DASHDOT
 62
     1
100
AcDbLine
 10
470.721344
 20
438.370972
 30
0.0
 11
470.721344
 21
423.2
 31
0.0
  0
LINE
  5
2A4
100
AcDbEntity
  8
LAY-5
  6
DASHDOT
 62
     1
100
AcDbLine
 10
470.721344
 20
528.440979
 30
0.0
 11
470.721344
 21
512.856812
 31
0.0
  0
LINE
  5
2A5
100
AcDbEntity
  8
LAY-5
  6
DASHDOT
 62
     1
100
AcDbLine
 10
470.721344
 20
496.44104
 30
0.0
 11
470.721344
 21
511.273438
 31
0.0
  0
LINE
  5
2A6
100
AcDbEntity
  8
LAY-5
  6
DASHDOT
 62
     1
100
AcDbLine
 10
461.622895
 20
521.440918
 30
0.0
 11
480.2
 21
521.440918
 31
0.0
  0
LINE
  5
2A7
100
AcDbEntity
  8
LAY-5
  6
DASHDOT
 62
     1
100
AcDbLine
 10
461.622895
 20
503.440918
 30
0.0
 11
480.2
 21
503.440918
 31
0.0
  0
LINE
  5
2A8
100
AcDbEntity
  8
LAY-5
  6
DASHDOT
 62
     1
100
AcDbLine
 10
323.721344
 20
528.440979
 30
0.0
 11
323.721344
 21
513.196106
 31
0.0
  0
LINE
  5
2A9
100
AcDbEntity
  8
LAY-5
  6
DASHDOT
 62
     1
100
AcDbLine
 10
323.721344
 20
496.44104
 30
0.0
 11
323.721344
 21
511.160339
 31
0.0
  0
LINE
  5
2AA
100
AcDbEntity
  8
LAY-5
  6
DASHDOT
 62
     1
100
AcDbLine
 10
315.500214
 20
521.440918
 30
0.0
 11
332.691132
 21
521.440918
 31
0.0
  0
LINE
  5
2AB
100
AcDbEntity
  8
LAY-5
  6
DASHDOT
 62
     1
100
AcDbLine
 10
332.691132
 20
503.440918
 30
0.0
 11
315.500214
 21
503.440918
 31
0.0
  0
LINE
  5
2AC
100
AcDbEntity
  8
LAY-5
  6
DASHDOT
 62
     1
100
AcDbLine
 10
348.721344
 20
489.1
 30
0.0
 11
348.721344
 21
534.2
 31
0.0
  0
LINE
  5
2AD
100
AcDbEntity
  8
LAY-5
  6
DASHDOT
 62
     1
100
AcDbLine
 10
107.721344
 20
269.508209
 30
0.0
 11
107.721344
 21
353.3
 31
0.0
  0
LINE
  5
2AE
100
AcDbEntity
  8
LAY-5
  6
DASHDOT
 62
     1
100
AcDbLine
 10
408.721344
 20
506.0
 30
0.0
 11
408.721344
 21
518.6
 31
0.0
  0
LINE
  5
2AF
100
AcDbEntity
  8
LAY-5
  6
DASHDOT
 62
     1
100
AcDbLine
 10
428.721344
 20
505.5
 30
0.0
 11
428.721344
 21
519.8
 31
0.0
  0
LINE
  5
2B0
100
AcDbEntity
  8
LAY-5
  6
DASHDOT
 62
     1
100
AcDbLine
 10
449.721344
 20
505.2
 30
0.0
 11
449.721344
 21
520.1
 31
0.0
  0
LINE
  5
2B1
100
AcDbEntity
  8
LAY-5
  6
DASHDOT
 62
     1
100
AcDbLine
 10
329.7
 20
422.370972
 30
0.0
 11
489.053345
 21
422.370972
 31
0.0
  0
LINE
  5
2B2
100
AcDbEntity
  8
LAY-5
  6
DASHDOT
 62
     1
100
AcDbLine
 10
348.721344
 20
442.1
 30
0.0
 11
348.721344
 21
402.8
 31
0.0
  0
LINE
  5
2B3
100
AcDbEntity
  8
LAY-5
  6
DASHDOT
 62
     1
100
AcDbLine
 10
305.5
 20
512.440918
 30
0.0
 11
491.6
 21
512.440918
 31
0.0
  0
LINE
  5
2B4
100
AcDbEntity
  8
LAY-5
  6
DASHDOT
 62
     1
100
AcDbLine
 10
40.5
 20
162.052078
 30
0.0
 11
404.9
 21
162.052078
 31
0.0
  0
LINE
  5
2B5
100
AcDbEntity
  8
LAY-5
  6
DASHDOT
 62
     1
100
AcDbLine
 10
367.721344
 20
81.91
 30
0.0
 11
367.721344
 21
72.052078
 31
0.0
  0
LINE
  5
2B6
100
AcDbEntity
  8
LAY-5
  6
DASHDOT
 62
     1
100
AcDbLine
 10
372.79
 20
77.052078
 30
0.0
 11
362.56
 21
77.052078
 31
0.0
  0
LINE
  5
2B7
100
AcDbEntity
  8
LAY-5
  6
DASHDOT
 62
     1
100
AcDbLine
 10
367.721375
 20
241.8
 30
0.0
 11
367.721375
 21
252.052094
 31
0.0
  0
LINE
  5
2B8
100
AcDbEntity
  8
LAY-5
  6
DASHDOT
 62
     1
100
AcDbLine
 10
373.2
 20
247.052078
 30
0.0
 11
362.5
 21
247.052078
 31
0.0
  0
LINE
  5
2B9
100
AcDbEntity
  8
LAY-5
  6
DASHDOT
 62
     1
100
AcDbLine
 10
67.721344
 20
241.8
 30
0.0
 11
67.721344
 21
252.052094
 31
0.0
  0
LINE
  5
2BA
100
AcDbEntity
  8
LAY-5
  6
DASHDOT
 62
     1
100
AcDbLine
 10
62.0
 20
247.052109
 30
0.0
 11
73.1
 21
247.052109
 31
0.0
  0
LINE
  5
2BB
100
AcDbEntity
  8
LAY-5
  6
DASHDOT
 62
     1
100
AcDbLine
 10
67.721344
 20
82.3
 30
0.0
 11
67.721344
 21
72.052078
 31
0.0
  0
LINE
  5
2BC
100
AcDbEntity
  8
LAY-5
  6
DASHDOT
 62
     1
100
AcDbLine
 10
62.82
 20
77.052078
 30
0.0
 11
72.85
 21
77.052078
 31
0.0
  0
LINE
  5
2BD
100
AcDbEntity
  8
LAY-5
  6
DASHDOT
 62
     1
100
AcDbLine
 10
149.721344
 20
82.5
 30
0.0
 11
149.721344
 21
72.052078
 31
0.0
  0
LINE
  5
2BE
100
AcDbEntity
  8
LAY-5
  6
DASHDOT
 62
     1
100
AcDbLine
 10
165.721344
 20
82.34
 30
0.0
 11
165.721344
 21
72.052078
 31
0.0
  0
LINE
  5
2BF
100
AcDbEntity
  8
LAY-5
  6
DASHDOT
 62
     1
100
AcDbLine
 10
160.5
 20
77.052078
 30
0.0
 11
171.19
 21
77.052078
 31
0.0
  0
LINE
  5
2C0
100
AcDbEntity
  8
LAY-5
  6
DASHDOT
 62
     1
100
AcDbLine
 10
144.2
 20
77.052078
 30
0.0
 11
155.08
 21
77.052078
 31
0.0
  0
LINE
  5
2C1
100
AcDbEntity
  8
LAY-5
  6
DASHDOT
 62
     1
100
AcDbLine
 10
149.721375
 20
242.03
 30
0.0
 11
149.721375
 21
252.052094
 31
0.0
  0
LINE
  5
2C2
100
AcDbEntity
  8
LAY-5
  6
DASHDOT
 62
     1
100
AcDbLine
 10
165.721375
 20
241.89
 30
0.0
 11
165.721375
 21
252.052094
 31
0.0
  0
LINE
  5
2C3
100
AcDbEntity
  8
LAY-5
  6
DASHDOT
 62
     1
100
AcDbLine
 10
160.91
 20
247.052109
 30
0.0
 11
171.08
 21
247.052109
 31
0.0
  0
LINE
  5
2C4
100
AcDbEntity
  8
LAY-5
  6
DASHDOT
 62
     1
100
AcDbLine
 10
144.52
 20
247.052109
 30
0.0
 11
154.44
 21
247.052109
 31
0.0
  0
LINE
  5
2C5
100
AcDbEntity
  8
LAY-5
  6
DASHDOT
 62
     1
100
AcDbLine
 10
140.22136
 20
330.5
 30
0.0
 11
140.22136
 21
366.7
 31
0.0
  0
LINE
  5
2C6
100
AcDbEntity
  8
LAY-5
  6
DASHDOT
 62
     1
100
AcDbLine
 10
165.22136
 20
330.5
 30
0.0
 11
165.22136
 21
366.7
 31
0.0
  0
LINE
  5
2C7
100
AcDbEntity
  8
LAY-5
  6
DASHDOT
 62
     1
100
AcDbLine
 10
205.22136
 20
330.5
 30
0.0
 11
205.22136
 21
366.7
 31
0.0
  0
LINE
  5
2C8
100
AcDbEntity
  8
LAY-5
  6
DASHDOT
 62
     1
100
AcDbLine
 10
245.22136
 20
330.5
 30
0.0
 11
245.22136
 21
366.7
 31
0.0
  0
LINE
  5
2C9
100
AcDbEntity
  8
LAY-5
  6
DASHDOT
 62
     1
100
AcDbLine
 10
229.721344
 20
497.0
 30
0.0
 11
229.721344
 21
479.34
 31
0.0
  0
LINE
  5
2CA
100
AcDbEntity
  8
LAY-5
  6
DASHDOT
 62
     1
100
AcDbLine
 10
183.721344
 20
497.2
 30
0.0
 11
183.721344
 21
479.28
 31
0.0
  0
LINE
  5
2CB
100
AcDbEntity
  8
LAY-5
  6
DASHDOT
 62
     1
100
AcDbLine
 10
137.721329
 20
497.1
 30
0.0
 11
137.721329
 21
479.21
 31
0.0
  0
LINE
  5
2CC
100
AcDbEntity
  8
LAY-5
  6
DASHDOT
 62
     1
100
AcDbLine
 10
229.721314
 20
497.9
 30
0.0
 11
229.721314
 21
516.5
 31
0.0
  0
LINE
  5
2CD
100
AcDbEntity
  8
LAY-5
  6
DASHDOT
 62
     1
100
AcDbLine
 10
82.721344
 20
497.9
 30
0.0
 11
82.721344
 21
516.8
 31
0.0
  0
LINE
  5
2CE
100
AcDbEntity
  8
LAY-5
  6
DASHDOT
 62
     1
100
AcDbLine
 10
107.721344
 20
145.9
 30
0.0
 11
107.721344
 21
177.1
 31
0.0
  0
LINE
  5
2CF
100
AcDbEntity
  8
LAY-5
  6
DASHDOT
 62
     1
100
AcDbLine
 10
140.221344
 20
150.052078
 30
0.0
 11
140.221344
 21
165.0
 31
0.0
  0
LINE
  5
2D0
100
AcDbEntity
  8
LAY-5
  6
DASHDOT
 62
     1
100
AcDbLine
 10
165.221344
 20
158.107132
 30
0.0
 11
165.221344
 21
177.1
 31
0.0
  0
LINE
  5
2D1
100
AcDbEntity
  8
LAY-5
  6
DASHDOT
 62
     1
100
AcDbLine
 10
205.221344
 20
150.052078
 30
0.0
 11
205.221344
 21
165.0
 31
0.0
  0
LINE
  5
2D2
100
AcDbEntity
  8
LAY-5
  6
DASHDOT
 62
     1
100
AcDbLine
 10
245.221344
 20
157.807007
 30
0.0
 11
245.221344
 21
177.1
 31
0.0
  0
LINE
  5
2D3
100
AcDbEntity
  8
LAY-5
  6
DASHDOT
 62
     1
100
AcDbLine
 10
130.913239
 20
157.052078
 30
0.0
 11
150.721832
 21
157.052078
 31
0.0
  0
LINE
  5
2D4
100
AcDbEntity
  8
LAY-5
  6
DASHDOT
 62
     1
100
AcDbLine
 10
172.960229
 20
166.826202
 30
0.0
 11
155.317047
 21
166.826202
 31
0.0
  0
LINE
  5
2D5
100
AcDbEntity
  8
LAY-5
  6
DASHDOT
 62
     1
100
AcDbLine
 10
197.460229
 20
156.826218
 30
0.0
 11
215.125519
 21
156.826218
 31
0.0
  0
LINE
  5
2D6
100
AcDbEntity
  8
LAY-5
  6
DASHDOT
 62
     1
100
AcDbLine
 10
235.316925
 20
166.826202
 30
0.0
 11
255.125519
 21
166.826202
 31
0.0
  0
LINE
  5
2D7
100
AcDbEntity
  8
LAY-5
  6
DASHDOT
 62
     1
100
AcDbLine
 10
85.160229
 20
162.052078
 30
0.0
 11
260.160229
 21
162.052078
 31
0.0
  0
LINE
  5
2D8
100
AcDbEntity
  8
LAY-5
  6
DASHDOT
 62
     1
100
AcDbLine
 10
659.549836
 20
266.0
 30
0.0
 11
659.549836
 21
542.3
 31
0.0
  0
TEXT
  5
2D9
100
AcDbEntity
  8
LAY-6
  6
CONTINUOUS
 62
     2
100
AcDbText
 10
419.5
 20
161.052094
 30
0.0
 40
5.0
  1
１８０
 50
90.0
 41
0.672
  7
EXCADSTD
 72
     5
 11
419.5
 21
173.052094
 31
0.0
100
AcDbText
  0
LINE
  5
2DA
100
AcDbEntity
  8
LAY-6
  6
CONTINUOUS
 62
     1
100
AcDbLine
 10
399.721344
 20
252.052094
 30
0.0
 11
421.5
 21
252.052094
 31
0.0
  0
LINE
  5
2DB
100
AcDbEntity
  8
LAY-6
  6
CONTINUOUS
 62
     1
100
AcDbLine
 10
399.721344
 20
72.052094
 30
0.0
 11
421.5
 21
72.052094
 31
0.0
  0
LINE
  5
2DC
100
AcDbEntity
  8
LAY-6
  6
CONTINUOUS
 62
     1
100
AcDbLine
 10
420.0
 20
252.052094
 30
0.0
 11
420.0
 21
72.052094
 31
0.0
  0
LINE
  5
2DD
100
AcDbEntity
  8
LAY-6
  6
CONTINUOUS
 62
     1
100
AcDbLine
 10
420.5
 20
249.052094
 30
0.0
 11
420.0
 21
252.052094
 31
0.0
  0
LINE
  5
2DE
100
AcDbEntity
  8
LAY-6
  6
CONTINUOUS
 62
     1
100
AcDbLine
 10
420.0
 20
252.052094
 30
0.0
 11
419.5
 21
249.052094
 31
0.0
  0
LINE
  5
2DF
100
AcDbEntity
  8
LAY-6
  6
CONTINUOUS
 62
     1
100
AcDbLine
 10
419.5
 20
75.052094
 30
0.0
 11
420.0
 21
72.052094
 31
0.0
  0
LINE
  5
2E0
100
AcDbEntity
  8
LAY-6
  6
CONTINUOUS
 62
     1
100
AcDbLine
 10
420.0
 20
72.052094
 30
0.0
 11
420.5
 21
75.052094
 31
0.0
  0
TEXT
  5
2E1
100
AcDbEntity
  8
LAY-6
  6
CONTINUOUS
 62
     2
100
AcDbText
 10
74.621344
 20
60.8
 30
0.0
 40
5.0
  1
６３
 41
0.672
  7
EXCADSTD
 72
     5
 11
81.954144
 21
60.8
 31
0.0
100
AcDbText
  0
LINE
  5
2E2
100
AcDbEntity
  8
LAY-6
  6
CONTINUOUS
 62
     1
100
AcDbLine
 10
44.721344
 20
72.052094
 30
0.0
 11
44.721344
 21
58.8
 31
0.0
  0
LINE
  5
2E3
100
AcDbEntity
  8
LAY-6
  6
CONTINUOUS
 62
     1
100
AcDbLine
 10
107.721344
 20
56.42363
 30
0.0
 11
107.721344
 21
61.8
 31
0.0
  0
LINE
  5
2E4
100
AcDbEntity
  8
LAY-6
  6
CONTINUOUS
 62
     1
100
AcDbLine
 10
44.721344
 20
60.3
 30
0.0
 11
107.721344
 21
60.3
 31
0.0
  0
LINE
  5
2E5
100
AcDbEntity
  8
LAY-6
  6
CONTINUOUS
 62
     1
100
AcDbLine
 10
47.721344
 20
60.8
 30
0.0
 11
44.721344
 21
60.3
 31
0.0
  0
LINE
  5
2E6
100
AcDbEntity
  8
LAY-6
  6
CONTINUOUS
 62
     1
100
AcDbLine
 10
44.721344
 20
60.3
 30
0.0
 11
47.721344
 21
59.8
 31
0.0
  0
LINE
  5
2E7
100
AcDbEntity
  8
LAY-6
  6
CONTINUOUS
 62
     1
100
AcDbLine
 10
104.721344
 20
59.8
 30
0.0
 11
107.721344
 21
60.3
 31
0.0
  0
LINE
  5
2E8
100
AcDbEntity
  8
LAY-6
  6
CONTINUOUS
 62
     1
100
AcDbLine
 10
107.721344
 20
60.3
 30
0.0
 11
104.721344
 21
60.8
 31
0.0
  0
TEXT
  5
2E9
100
AcDbEntity
  8
LAY-6
  6
CONTINUOUS
 62
     2
100
AcDbText
 10
130.421344
 20
60.8
 30
0.0
 40
5.0
  1
５０
 41
0.672
  7
EXCADSTD
 72
     5
 11
137.754144
 21
60.8
 31
0.0
100
AcDbText
  0
LINE
  5
2EA
100
AcDbEntity
  8
LAY-6
  6
CONTINUOUS
 62
     1
100
AcDbLine
 10
157.721344
 20
72.052094
 30
0.0
 11
157.721344
 21
58.8
 31
0.0
  0
LINE
  5
2EB
100
AcDbEntity
  8
LAY-6
  6
CONTINUOUS
 62
     1
100
AcDbLine
 10
107.721344
 20
60.3
 30
0.0
 11
157.721344
 21
60.3
 31
0.0
  0
LINE
  5
2EC
100
AcDbEntity
  8
LAY-6
  6
CONTINUOUS
 62
     1
100
AcDbLine
 10
110.721344
 20
60.8
 30
0.0
 11
107.721344
 21
60.3
 31
0.0
  0
LINE
  5
2ED
100
AcDbEntity
  8
LAY-6
  6
CONTINUOUS
 62
     1
100
AcDbLine
 10
107.721344
 20
60.3
 30
0.0
 11
110.721344
 21
59.8
 31
0.0
  0
LINE
  5
2EE
100
AcDbEntity
  8
LAY-6
  6
CONTINUOUS
 62
     1
100
AcDbLine
 10
154.721344
 20
59.8
 30
0.0
 11
157.721344
 21
60.3
 31
0.0
  0
LINE
  5
2EF
100
AcDbEntity
  8
LAY-6
  6
CONTINUOUS
 62
     1
100
AcDbLine
 10
157.721344
 20
60.3
 30
0.0
 11
154.721344
 21
60.8
 31
0.0
  0
TEXT
  5
2F0
100
AcDbEntity
  8
LAY-6
  6
CONTINUOUS
 62
     2
100
AcDbText
 10
276.421344
 20
60.8
 30
0.0
 40
5.0
  1
２４２
 41
0.672
  7
EXCADSTD
 72
     5
 11
288.421344
 21
60.8
 31
0.0
100
AcDbText
  0
LINE
  5
2F1
100
AcDbEntity
  8
LAY-6
  6
CONTINUOUS
 62
     1
100
AcDbLine
 10
399.721344
 20
72.052094
 30
0.0
 11
399.721344
 21
58.8
 31
0.0
  0
LINE
  5
2F2
100
AcDbEntity
  8
LAY-6
  6
CONTINUOUS
 62
     1
100
AcDbLine
 10
157.721344
 20
60.3
 30
0.0
 11
399.721344
 21
60.3
 31
0.0
  0
LINE
  5
2F3
100
AcDbEntity
  8
LAY-6
  6
CONTINUOUS
 62
     1
100
AcDbLine
 10
160.721344
 20
60.8
 30
0.0
 11
157.721344
 21
60.3
 31
0.0
  0
LINE
  5
2F4
100
AcDbEntity
  8
LAY-6
  6
CONTINUOUS
 62
     1
100
AcDbLine
 10
157.721344
 20
60.3
 30
0.0
 11
160.721344
 21
59.8
 31
0.0
  0
LINE
  5
2F5
100
AcDbEntity
  8
LAY-6
  6
CONTINUOUS
 62
     1
100
AcDbLine
 10
396.721344
 20
59.8
 30
0.0
 11
399.721344
 21
60.3
 31
0.0
  0
LINE
  5
2F6
100
AcDbEntity
  8
LAY-6
  6
CONTINUOUS
 62
     1
100
AcDbLine
 10
399.721344
 20
60.3
 30
0.0
 11
396.721344
 21
60.8
 31
0.0
  0
TEXT
  5
2F7
100
AcDbEntity
  8
LAY-6
  6
CONTINUOUS
 62
     2
100
AcDbText
 10
218.421344
 20
50.0
 30
0.0
 40
5.0
  1
３５５
 41
0.672
  7
EXCADSTD
 72
     5
 11
230.421344
 21
50.0
 31
0.0
100
AcDbText
  0
LINE
  5
2F8
100
AcDbEntity
  8
LAY-6
  6
CONTINUOUS
 62
     1
100
AcDbLine
 10
44.721344
 20
58.8
 30
0.0
 11
44.721344
 21
48.0
 31
0.0
  0
LINE
  5
2F9
100
AcDbEntity
  8
LAY-6
  6
CONTINUOUS
 62
     1
100
AcDbLine
 10
399.721344
 20
58.8
 30
0.0
 11
399.721344
 21
48.0
 31
0.0
  0
LINE
  5
2FA
100
AcDbEntity
  8
LAY-6
  6
CONTINUOUS
 62
     1
100
AcDbLine
 10
44.721344
 20
49.5
 30
0.0
 11
399.721344
 21
49.5
 31
0.0
  0
LINE
  5
2FB
100
AcDbEntity
  8
LAY-6
  6
CONTINUOUS
 62
     1
100
AcDbLine
 10
47.721344
 20
50.0
 30
0.0
 11
44.721344
 21
49.5
 31
0.0
  0
LINE
  5
2FC
100
AcDbEntity
  8
LAY-6
  6
CONTINUOUS
 62
     1
100
AcDbLine
 10
44.721344
 20
49.5
 30
0.0
 11
47.721344
 21
49.0
 31
0.0
  0
LINE
  5
2FD
100
AcDbEntity
  8
LAY-6
  6
CONTINUOUS
 62
     1
100
AcDbLine
 10
396.721344
 20
49.0
 30
0.0
 11
399.721344
 21
49.5
 31
0.0
  0
LINE
  5
2FE
100
AcDbEntity
  8
LAY-6
  6
CONTINUOUS
 62
     1
100
AcDbLine
 10
399.721344
 20
49.5
 30
0.0
 11
396.721344
 21
50.0
 31
0.0
  0
LINE
  5
2FF
100
AcDbEntity
  8
LAY-6
  6
CONTINUOUS
 62
     1
100
AcDbLine
 10
73.721313
 20
509.870972
 30
0.0
 11
73.721313
 21
545.8
 31
0.0
  0
TEXT
  5
300
100
AcDbEntity
  8
LAY-6
  6
CONTINUOUS
 62
     2
100
AcDbText
 10
79.721313
 20
544.8
 30
0.0
 40
5.0
  1
２０
 41
0.672
  7
EXCADSTD
 72
     5
 11
87.054113
 21
544.8
 31
0.0
100
AcDbText
  0
LINE
  5
301
100
AcDbEntity
  8
LAY-6
  6
CONTINUOUS
 62
     1
100
AcDbLine
 10
93.721313
 20
509.870972
 30
0.0
 11
93.721313
 21
545.8
 31
0.0
  0
LINE
  5
302
100
AcDbEntity
  8
LAY-6
  6
CONTINUOUS
 62
     1
100
AcDbLine
 10
73.721313
 20
544.3
 30
0.0
 11
93.721313
 21
544.3
 31
0.0
  0
LINE
  5
303
100
AcDbEntity
  8
LAY-6
  6
CONTINUOUS
 62
     1
100
AcDbLine
 10
76.721313
 20
544.8
 30
0.0
 11
73.721313
 21
544.3
 31
0.0
  0
LINE
  5
304
100
AcDbEntity
  8
LAY-6
  6
CONTINUOUS
 62
     1
100
AcDbLine
 10
73.721313
 20
544.3
 30
0.0
 11
76.721313
 21
543.8
 31
0.0
  0
LINE
  5
305
100
AcDbEntity
  8
LAY-6
  6
CONTINUOUS
 62
     1
100
AcDbLine
 10
90.721313
 20
543.8
 30
0.0
 11
93.721313
 21
544.3
 31
0.0
  0
LINE
  5
306
100
AcDbEntity
  8
LAY-6
  6
CONTINUOUS
 62
     1
100
AcDbLine
 10
93.721313
 20
544.3
 30
0.0
 11
90.721313
 21
544.8
 31
0.0
  0
TEXT
  5
307
100
AcDbEntity
  8
LAY-6
  6
CONTINUOUS
 62
     2
100
AcDbText
 10
98.121328
 20
544.8
 30
0.0
 40
5.0
  1
１４
 41
0.672
  7
EXCADSTD
 72
     5
 11
105.454128
 21
544.8
 31
0.0
100
AcDbText
  0
LINE
  5
308
100
AcDbEntity
  8
LAY-6
  6
CONTINUOUS
 62
     1
100
AcDbLine
 10
107.721344
 20
540.92218
 30
0.0
 11
107.721344
 21
545.8
 31
0.0
  0
LINE
  5
309
100
AcDbEntity
  8
LAY-6
  6
CONTINUOUS
 62
     1
100
AcDbLine
 10
93.721313
 20
544.3
 30
0.0
 11
107.721344
 21
544.3
 31
0.0
  0
LINE
  5
30A
100
AcDbEntity
  8
LAY-6
  6
CONTINUOUS
 62
     1
100
AcDbLine
 10
96.721313
 20
544.8
 30
0.0
 11
93.721313
 21
544.3
 31
0.0
  0
LINE
  5
30B
100
AcDbEntity
  8
LAY-6
  6
CONTINUOUS
 62
     1
100
AcDbLine
 10
93.721313
 20
544.3
 30
0.0
 11
96.721313
 21
543.8
 31
0.0
  0
LINE
  5
30C
100
AcDbEntity
  8
LAY-6
  6
CONTINUOUS
 62
     1
100
AcDbLine
 10
104.721344
 20
543.8
 30
0.0
 11
107.721344
 21
544.3
 31
0.0
  0
LINE
  5
30D
100
AcDbEntity
  8
LAY-6
  6
CONTINUOUS
 62
     1
100
AcDbLine
 10
107.721344
 20
544.3
 30
0.0
 11
104.721344
 21
544.8
 31
0.0
  0
TEXT
  5
30E
100
AcDbEntity
  8
LAY-6
  6
CONTINUOUS
 62
     2
100
AcDbText
 10
159.721344
 20
544.8
 30
0.0
 40
5.0
  1
１１６
 41
0.672
  7
EXCADSTD
 72
     5
 11
171.721344
 21
544.8
 31
0.0
100
AcDbText
  0
LINE
  5
30F
100
AcDbEntity
  8
LAY-6
  6
CONTINUOUS
 62
     1
100
AcDbLine
 10
223.721344
 20
509.870972
 30
0.0
 11
223.721344
 21
545.8
 31
0.0
  0
LINE
  5
310
100
AcDbEntity
  8
LAY-6
  6
CONTINUOUS
 62
     1
100
AcDbLine
 10
107.721344
 20
544.3
 30
0.0
 11
223.721344
 21
544.3
 31
0.0
  0
LINE
  5
311
100
AcDbEntity
  8
LAY-6
  6
CONTINUOUS
 62
     1
100
AcDbLine
 10
110.721344
 20
544.8
 30
0.0
 11
107.721344
 21
544.3
 31
0.0
  0
LINE
  5
312
100
AcDbEntity
  8
LAY-6
  6
CONTINUOUS
 62
     1
100
AcDbLine
 10
107.721344
 20
544.3
 30
0.0
 11
110.721344
 21
543.8
 31
0.0
  0
LINE
  5
313
100
AcDbEntity
  8
LAY-6
  6
CONTINUOUS
 62
     1
100
AcDbLine
 10
220.721344
 20
543.8
 30
0.0
 11
223.721344
 21
544.3
 31
0.0
  0
LINE
  5
314
100
AcDbEntity
  8
LAY-6
  6
CONTINUOUS
 62
     1
100
AcDbLine
 10
223.721344
 20
544.3
 30
0.0
 11
220.721344
 21
544.8
 31
0.0
  0
TEXT
  5
315
100
AcDbEntity
  8
LAY-6
  6
CONTINUOUS
 62
     2
100
AcDbText
 10
229.221344
 20
544.8
 30
0.0
 40
5.0
  1
１９
 41
0.672
  7
EXCADSTD
 72
     5
 11
236.554144
 21
544.8
 31
0.0
100
AcDbText
  0
LINE
  5
316
100
AcDbEntity
  8
LAY-6
  6
CONTINUOUS
 62
     1
100
AcDbLine
 10
242.721344
 20
509.870972
 30
0.0
 11
242.721344
 21
545.8
 31
0.0
  0
LINE
  5
317
100
AcDbEntity
  8
LAY-6
  6
CONTINUOUS
 62
     1
100
AcDbLine
 10
223.721344
 20
544.3
 30
0.0
 11
242.721344
 21
544.3
 31
0.0
  0
LINE
  5
318
100
AcDbEntity
  8
LAY-6
  6
CONTINUOUS
 62
     1
100
AcDbLine
 10
226.721344
 20
544.8
 30
0.0
 11
223.721344
 21
544.3
 31
0.0
  0
LINE
  5
319
100
AcDbEntity
  8
LAY-6
  6
CONTINUOUS
 62
     1
100
AcDbLine
 10
223.721344
 20
544.3
 30
0.0
 11
226.721344
 21
543.8
 31
0.0
  0
LINE
  5
31A
100
AcDbEntity
  8
LAY-6
  6
CONTINUOUS
 62
     1
100
AcDbLine
 10
239.721344
 20
543.8
 30
0.0
 11
242.721344
 21
544.3
 31
0.0
  0
LINE
  5
31B
100
AcDbEntity
  8
LAY-6
  6
CONTINUOUS
 62
     1
100
AcDbLine
 10
242.721344
 20
544.3
 30
0.0
 11
239.721344
 21
544.8
 31
0.0
  0
TEXT
  5
31C
100
AcDbEntity
  8
LAY-6
  6
CONTINUOUS
 62
     2
100
AcDbText
 10
95.721337
 20
465.7
 30
0.0
 40
5.0
  1
１６
 41
0.672
  7
EXCADSTD
 72
     5
 11
103.054137
 21
465.7
 31
0.0
100
AcDbText
  0
LINE
  5
31D
100
AcDbEntity
  8
LAY-6
  6
CONTINUOUS
 62
     1
100
AcDbLine
 10
91.721329
 20
490.370972
 30
0.0
 11
91.721329
 21
463.7
 31
0.0
  0
LINE
  5
31E
100
AcDbEntity
  8
LAY-6
  6
CONTINUOUS
 62
     1
100
AcDbLine
 10
107.721344
 20
474.304492
 30
0.0
 11
107.721344
 21
463.7
 31
0.0
  0
LINE
  5
31F
100
AcDbEntity
  8
LAY-6
  6
CONTINUOUS
 62
     1
100
AcDbLine
 10
91.721329
 20
465.2
 30
0.0
 11
107.721344
 21
465.2
 31
0.0
  0
LINE
  5
320
100
AcDbEntity
  8
LAY-6
  6
CONTINUOUS
 62
     1
100
AcDbLine
 10
94.721329
 20
465.7
 30
0.0
 11
91.721329
 21
465.2
 31
0.0
  0
LINE
  5
321
100
AcDbEntity
  8
LAY-6
  6
CONTINUOUS
 62
     1
100
AcDbLine
 10
91.721329
 20
465.2
 30
0.0
 11
94.721329
 21
464.7
 31
0.0
  0
LINE
  5
322
100
AcDbEntity
  8
LAY-6
  6
CONTINUOUS
 62
     1
100
AcDbLine
 10
104.721344
 20
464.7
 30
0.0
 11
107.721344
 21
465.2
 31
0.0
  0
LINE
  5
323
100
AcDbEntity
  8
LAY-6
  6
CONTINUOUS
 62
     1
100
AcDbLine
 10
107.721344
 20
465.2
 30
0.0
 11
104.721344
 21
465.7
 31
0.0
  0
TEXT
  5
324
100
AcDbEntity
  8
LAY-6
  6
CONTINUOUS
 62
     2
100
AcDbText
 10
116.621344
 20
465.7
 30
0.0
 40
5.0
  1
２０
 41
0.672
  7
EXCADSTD
 72
     5
 11
123.954144
 21
465.7
 31
0.0
100
AcDbText
  0
LINE
  5
325
100
AcDbEntity
  8
LAY-6
  6
CONTINUOUS
 62
     1
100
AcDbLine
 10
127.721344
 20
485.870972
 30
0.0
 11
127.721344
 21
463.7
 31
0.0
  0
LINE
  5
326
100
AcDbEntity
  8
LAY-6
  6
CONTINUOUS
 62
     1
100
AcDbLine
 10
107.721344
 20
465.2
 30
0.0
 11
127.721344
 21
465.2
 31
0.0
  0
LINE
  5
327
100
AcDbEntity
  8
LAY-6
  6
CONTINUOUS
 62
     1
100
AcDbLine
 10
110.721344
 20
465.7
 30
0.0
 11
107.721344
 21
465.2
 31
0.0
  0
LINE
  5
328
100
AcDbEntity
  8
LAY-6
  6
CONTINUOUS
 62
     1
100
AcDbLine
 10
107.721344
 20
465.2
 30
0.0
 11
110.721344
 21
464.7
 31
0.0
  0
LINE
  5
329
100
AcDbEntity
  8
LAY-6
  6
CONTINUOUS
 62
     1
100
AcDbLine
 10
124.721344
 20
464.7
 30
0.0
 11
127.721344
 21
465.2
 31
0.0
  0
LINE
  5
32A
100
AcDbEntity
  8
LAY-6
  6
CONTINUOUS
 62
     1
100
AcDbLine
 10
127.721344
 20
465.2
 30
0.0
 11
124.721344
 21
465.7
 31
0.0
  0
TEXT
  5
32B
100
AcDbEntity
  8
LAY-6
  6
CONTINUOUS
 62
     2
100
AcDbText
 10
179.221344
 20
465.7
 30
0.0
 40
5.0
  1
１１５
 41
0.672
  7
EXCADSTD
 72
     5
 11
191.221344
 21
465.7
 31
0.0
100
AcDbText
  0
LINE
  5
32C
100
AcDbEntity
  8
LAY-6
  6
CONTINUOUS
 62
     1
100
AcDbLine
 10
242.721344
 20
485.870972
 30
0.0
 11
242.721344
 21
463.7
 31
0.0
  0
LINE
  5
32D
100
AcDbEntity
  8
LAY-6
  6
CONTINUOUS
 62
     1
100
AcDbLine
 10
127.721344
 20
465.2
 30
0.0
 11
242.721344
 21
465.2
 31
0.0
  0
LINE
  5
32E
100
AcDbEntity
  8
LAY-6
  6
CONTINUOUS
 62
     1
100
AcDbLine
 10
130.721344
 20
465.7
 30
0.0
 11
127.721344
 21
465.2
 31
0.0
  0
LINE
  5
32F
100
AcDbEntity
  8
LAY-6
  6
CONTINUOUS
 62
     1
100
AcDbLine
 10
127.721344
 20
465.2
 30
0.0
 11
130.721344
 21
464.7
 31
0.0
  0
LINE
  5
330
100
AcDbEntity
  8
LAY-6
  6
CONTINUOUS
 62
     1
100
AcDbLine
 10
239.721344
 20
464.7
 30
0.0
 11
242.721344
 21
465.2
 31
0.0
  0
LINE
  5
331
100
AcDbEntity
  8
LAY-6
  6
CONTINUOUS
 62
     1
100
AcDbLine
 10
242.721344
 20
465.2
 30
0.0
 11
239.721344
 21
465.7
 31
0.0
  0
TEXT
  5
332
100
AcDbEntity
  8
LAY-6
  6
CONTINUOUS
 62
     2
100
AcDbText
 10
255.6
 20
491.370972
 30
0.0
 40
5.0
  1
６
 50
90.0
 41
0.672
  7
EXCADSTD
 72
     5
 11
255.6
 21
494.570972
 31
0.0
100
AcDbText
  0
LINE
  5
333
100
AcDbEntity
  8
LAY-6
  6
CONTINUOUS
 62
     1
100
AcDbLine
 10
242.721344
 20
490.370972
 30
0.0
 11
257.6
 21
490.370972
 31
0.0
  0
LINE
  5
334
100
AcDbEntity
  8
LAY-6
  6
CONTINUOUS
 62
     1
100
AcDbLine
 10
256.1
 20
490.370972
 30
0.0
 11
256.1
 21
496.370972
 31
0.0
  0
LINE
  5
335
100
AcDbEntity
  8
LAY-6
  6
CONTINUOUS
 62
     1
100
AcDbLine
 10
255.6
 20
493.370972
 30
0.0
 11
256.1
 21
490.370972
 31
0.0
  0
LINE
  5
336
100
AcDbEntity
  8
LAY-6
  6
CONTINUOUS
 62
     1
100
AcDbLine
 10
256.1
 20
490.370972
 30
0.0
 11
256.6
 21
493.370972
 31
0.0
  0
LINE
  5
337
100
AcDbEntity
  8
LAY-6
  6
CONTINUOUS
 62
     1
100
AcDbLine
 10
256.6
 20
493.370972
 30
0.0
 11
256.1
 21
496.370972
 31
0.0
  0
LINE
  5
338
100
AcDbEntity
  8
LAY-6
  6
CONTINUOUS
 62
     1
100
AcDbLine
 10
256.1
 20
496.370972
 30
0.0
 11
255.6
 21
493.370972
 31
0.0
  0
TEXT
  5
339
100
AcDbEntity
  8
LAY-6
  6
CONTINUOUS
 62
     2
100
AcDbText
 10
255.6
 20
500.370972
 30
0.0
 40
5.0
  1
６
 50
90.0
 41
0.672
  7
EXCADSTD
 72
     5
 11
255.6
 21
503.570972
 31
0.0
100
AcDbText
  0
LINE
  5
33A
100
AcDbEntity
  8
LAY-6
  6
CONTINUOUS
 62
     1
100
AcDbLine
 10
242.721344
 20
505.370972
 30
0.0
 11
257.6
 21
505.370972
 31
0.0
  0
LINE
  5
33B
100
AcDbEntity
  8
LAY-6
  6
CONTINUOUS
 62
     1
100
AcDbLine
 10
256.1
 20
499.370972
 30
0.0
 11
256.1
 21
505.370972
 31
0.0
  0
LINE
  5
33C
100
AcDbEntity
  8
LAY-6
  6
CONTINUOUS
 62
     1
100
AcDbLine
 10
255.6
 20
502.370972
 30
0.0
 11
256.1
 21
499.370972
 31
0.0
  0
LINE
  5
33D
100
AcDbEntity
  8
LAY-6
  6
CONTINUOUS
 62
     1
100
AcDbLine
 10
256.1
 20
499.370972
 30
0.0
 11
256.6
 21
502.370972
 31
0.0
  0
LINE
  5
33E
100
AcDbEntity
  8
LAY-6
  6
CONTINUOUS
 62
     1
100
AcDbLine
 10
256.6
 20
502.370972
 30
0.0
 11
256.1
 21
505.370972
 31
0.0
  0
LINE
  5
33F
100
AcDbEntity
  8
LAY-6
  6
CONTINUOUS
 62
     1
100
AcDbLine
 10
256.1
 20
505.370972
 30
0.0
 11
255.6
 21
502.370972
 31
0.0
  0
TEXT
  5
340
100
AcDbEntity
  8
LAY-6
  6
CONTINUOUS
 62
     2
100
AcDbText
 10
500.7
 20
508.440918
 30
0.0
 40
5.0
  1
１８
 50
90.0
 41
0.672
  7
EXCADSTD
 72
     5
 11
500.7
 21
515.773718
 31
0.0
100
AcDbText
  0
LINE
  5
341
100
AcDbEntity
  8
LAY-6
  6
CONTINUOUS
 62
     1
100
AcDbLine
 10
480.2
 20
521.440918
 30
0.0
 11
502.7
 21
521.440918
 31
0.0
  0
LINE
  5
342
100
AcDbEntity
  8
LAY-6
  6
CONTINUOUS
 62
     1
100
AcDbLine
 10
480.2
 20
503.440918
 30
0.0
 11
502.7
 21
503.440918
 31
0.0
  0
LINE
  5
343
100
AcDbEntity
  8
LAY-6
  6
CONTINUOUS
 62
     1
100
AcDbLine
 10
501.2
 20
521.440918
 30
0.0
 11
501.2
 21
503.440918
 31
0.0
  0
LINE
  5
344
100
AcDbEntity
  8
LAY-6
  6
CONTINUOUS
 62
     1
100
AcDbLine
 10
501.7
 20
518.440918
 30
0.0
 11
501.2
 21
521.440918
 31
0.0
  0
LINE
  5
345
100
AcDbEntity
  8
LAY-6
  6
CONTINUOUS
 62
     1
100
AcDbLine
 10
501.2
 20
521.440918
 30
0.0
 11
500.7
 21
518.440918
 31
0.0
  0
LINE
  5
346
100
AcDbEntity
  8
LAY-6
  6
CONTINUOUS
 62
     1
100
AcDbLine
 10
500.7
 20
506.440918
 30
0.0
 11
501.2
 21
503.440918
 31
0.0
  0
LINE
  5
347
100
AcDbEntity
  8
LAY-6
  6
CONTINUOUS
 62
     1
100
AcDbLine
 10
501.2
 20
503.440918
 30
0.0
 11
501.7
 21
506.440918
 31
0.0
  0
TEXT
  5
348
100
AcDbEntity
  8
LAY-6
  6
CONTINUOUS
 62
     2
100
AcDbText
 10
511.2
 20
508.440948
 30
0.0
 40
5.0
  1
３２
 50
90.0
 41
0.672
  7
EXCADSTD
 72
     5
 11
511.2
 21
515.773749
 31
0.0
100
AcDbText
  0
LINE
  5
349
100
AcDbEntity
  8
LAY-6
  6
CONTINUOUS
 62
     1
100
AcDbLine
 10
483.721344
 20
528.440918
 30
0.0
 11
513.2
 21
528.440918
 31
0.0
  0
LINE
  5
34A
100
AcDbEntity
  8
LAY-6
  6
CONTINUOUS
 62
     1
100
AcDbLine
 10
483.721344
 20
496.440979
 30
0.0
 11
513.2
 21
496.440979
 31
0.0
  0
LINE
  5
34B
100
AcDbEntity
  8
LAY-6
  6
CONTINUOUS
 62
     1
100
AcDbLine
 10
511.7
 20
528.440918
 30
0.0
 11
511.7
 21
496.440979
 31
0.0
  0
LINE
  5
34C
100
AcDbEntity
  8
LAY-6
  6
CONTINUOUS
 62
     1
100
AcDbLine
 10
512.2
 20
525.440918
 30
0.0
 11
511.7
 21
528.440918
 31
0.0
  0
LINE
  5
34D
100
AcDbEntity
  8
LAY-6
  6
CONTINUOUS
 62
     1
100
AcDbLine
 10
511.7
 20
528.440918
 30
0.0
 11
511.2
 21
525.440918
 31
0.0
  0
LINE
  5
34E
100
AcDbEntity
  8
LAY-6
  6
CONTINUOUS
 62
     1
100
AcDbLine
 10
511.2
 20
499.440979
 30
0.0
 11
511.7
 21
496.440979
 31
0.0
  0
LINE
  5
34F
100
AcDbEntity
  8
LAY-6
  6
CONTINUOUS
 62
     1
100
AcDbLine
 10
511.7
 20
496.440979
 30
0.0
 11
512.2
 21
499.440979
 31
0.0
  0
TEXT
  5
350
100
AcDbEntity
  8
LAY-6
  6
CONTINUOUS
 62
     2
100
AcDbText
 10
496.8
 20
418.370972
 30
0.0
 40
5.0
  1
３２
 50
90.0
 41
0.672
  7
EXCADSTD
 72
     5
 11
496.8
 21
425.703772
 31
0.0
100
AcDbText
  0
LINE
  5
351
100
AcDbEntity
  8
LAY-6
  6
CONTINUOUS
 62
     1
100
AcDbLine
 10
483.721344
 20
438.370972
 30
0.0
 11
498.8
 21
438.370972
 31
0.0
  0
LINE
  5
352
100
AcDbEntity
  8
LAY-6
  6
CONTINUOUS
 62
     1
100
AcDbLine
 10
483.721344
 20
406.370972
 30
0.0
 11
498.8
 21
406.370972
 31
0.0
  0
LINE
  5
353
100
AcDbEntity
  8
LAY-6
  6
CONTINUOUS
 62
     1
100
AcDbLine
 10
497.3
 20
438.370972
 30
0.0
 11
497.3
 21
406.370972
 31
0.0
  0
LINE
  5
354
100
AcDbEntity
  8
LAY-6
  6
CONTINUOUS
 62
     1
100
AcDbLine
 10
497.8
 20
435.370972
 30
0.0
 11
497.3
 21
438.370972
 31
0.0
  0
LINE
  5
355
100
AcDbEntity
  8
LAY-6
  6
CONTINUOUS
 62
     1
100
AcDbLine
 10
497.3
 20
438.370972
 30
0.0
 11
496.8
 21
435.370972
 31
0.0
  0
LINE
  5
356
100
AcDbEntity
  8
LAY-6
  6
CONTINUOUS
 62
     1
100
AcDbLine
 10
496.8
 20
409.370972
 30
0.0
 11
497.3
 21
406.370972
 31
0.0
  0
LINE
  5
357
100
AcDbEntity
  8
LAY-6
  6
CONTINUOUS
 62
     1
100
AcDbLine
 10
497.3
 20
406.370972
 30
0.0
 11
497.8
 21
409.370972
 31
0.0
  0
TEXT
  5
358
100
AcDbEntity
  8
LAY-6
  6
CONTINUOUS
 62
     2
100
AcDbText
 10
297.1
 20
510.340918
 30
0.0
 40
5.0
  1
３７
 50
90.0
 41
0.672
  7
EXCADSTD
 72
     5
 11
297.1
 21
517.673718
 31
0.0
100
AcDbText
  0
LINE
  5
359
100
AcDbEntity
  8
LAY-6
  6
CONTINUOUS
 62
     1
100
AcDbLine
 10
307.721344
 20
530.940918
 30
0.0
 11
296.1
 21
530.940918
 31
0.0
  0
LINE
  5
35A
100
AcDbEntity
  8
LAY-6
  6
CONTINUOUS
 62
     1
100
AcDbLine
 10
307.721344
 20
493.940918
 30
0.0
 11
296.1
 21
493.940918
 31
0.0
  0
LINE
  5
35B
100
AcDbEntity
  8
LAY-6
  6
CONTINUOUS
 62
     1
100
AcDbLine
 10
297.6
 20
530.940918
 30
0.0
 11
297.6
 21
493.940918
 31
0.0
  0
LINE
  5
35C
100
AcDbEntity
  8
LAY-6
  6
CONTINUOUS
 62
     1
100
AcDbLine
 10
298.1
 20
527.940918
 30
0.0
 11
297.6
 21
530.940918
 31
0.0
  0
LINE
  5
35D
100
AcDbEntity
  8
LAY-6
  6
CONTINUOUS
 62
     1
100
AcDbLine
 10
297.6
 20
530.940918
 30
0.0
 11
297.1
 21
527.940918
 31
0.0
  0
LINE
  5
35E
100
AcDbEntity
  8
LAY-6
  6
CONTINUOUS
 62
     1
100
AcDbLine
 10
297.1
 20
496.940918
 30
0.0
 11
297.6
 21
493.940918
 31
0.0
  0
LINE
  5
35F
100
AcDbEntity
  8
LAY-6
  6
CONTINUOUS
 62
     1
100
AcDbLine
 10
297.6
 20
493.940918
 30
0.0
 11
298.1
 21
496.940918
 31
0.0
  0
TEXT
  5
360
100
AcDbEntity
  8
LAY-6
  6
CONTINUOUS
 62
     2
100
AcDbText
 10
328.021344
 20
541.0
 30
0.0
 40
5.0
  1
４１
 41
0.672
  7
EXCADSTD
 72
     5
 11
335.354144
 21
541.0
 31
0.0
100
AcDbText
  0
LINE
  5
361
100
AcDbEntity
  8
LAY-6
  6
CONTINUOUS
 62
     1
100
AcDbLine
 10
307.721344
 20
530.940918
 30
0.0
 11
307.721344
 21
542.0
 31
0.0
  0
LINE
  5
362
100
AcDbEntity
  8
LAY-6
  6
CONTINUOUS
 62
     1
100
AcDbLine
 10
348.721344
 20
534.2
 30
0.0
 11
348.721344
 21
542.0
 31
0.0
  0
LINE
  5
363
100
AcDbEntity
  8
LAY-6
  6
CONTINUOUS
 62
     1
100
AcDbLine
 10
307.721344
 20
540.5
 30
0.0
 11
348.721344
 21
540.5
 31
0.0
  0
LINE
  5
364
100
AcDbEntity
  8
LAY-6
  6
CONTINUOUS
 62
     1
100
AcDbLine
 10
310.721344
 20
541.0
 30
0.0
 11
307.721344
 21
540.5
 31
0.0
  0
LINE
  5
365
100
AcDbEntity
  8
LAY-6
  6
CONTINUOUS
 62
     1
100
AcDbLine
 10
307.721344
 20
540.5
 30
0.0
 11
310.721344
 21
540.0
 31
0.0
  0
LINE
  5
366
100
AcDbEntity
  8
LAY-6
  6
CONTINUOUS
 62
     1
100
AcDbLine
 10
345.721344
 20
540.0
 30
0.0
 11
348.721344
 21
540.5
 31
0.0
  0
LINE
  5
367
100
AcDbEntity
  8
LAY-6
  6
CONTINUOUS
 62
     1
100
AcDbLine
 10
348.721344
 20
540.5
 30
0.0
 11
345.721344
 21
541.0
 31
0.0
  0
TEXT
  5
368
100
AcDbEntity
  8
LAY-6
  6
CONTINUOUS
 62
     2
100
AcDbText
 10
418.621344
 20
541.0
 30
0.0
 40
5.0
  1
１４１
 41
0.672
  7
EXCADSTD
 72
     5
 11
430.621344
 21
541.0
 31
0.0
100
AcDbText
  0
LINE
  5
369
100
AcDbEntity
  8
LAY-6
  6
CONTINUOUS
 62
     1
100
AcDbLine
 10
489.721344
 20
530.940918
 30
0.0
 11
489.721344
 21
542.0
 31
0.0
  0
LINE
  5
36A
100
AcDbEntity
  8
LAY-6
  6
CONTINUOUS
 62
     1
100
AcDbLine
 10
348.721344
 20
540.5
 30
0.0
 11
489.721344
 21
540.5
 31
0.0
  0
LINE
  5
36B
100
AcDbEntity
  8
LAY-6
  6
CONTINUOUS
 62
     1
100
AcDbLine
 10
351.721344
 20
541.0
 30
0.0
 11
348.721344
 21
540.5
 31
0.0
  0
LINE
  5
36C
100
AcDbEntity
  8
LAY-6
  6
CONTINUOUS
 62
     1
100
AcDbLine
 10
348.721344
 20
540.5
 30
0.0
 11
351.721344
 21
540.0
 31
0.0
  0
LINE
  5
36D
100
AcDbEntity
  8
LAY-6
  6
CONTINUOUS
 62
     1
100
AcDbLine
 10
486.721344
 20
540.0
 30
0.0
 11
489.721344
 21
540.5
 31
0.0
  0
LINE
  5
36E
100
AcDbEntity
  8
LAY-6
  6
CONTINUOUS
 62
     1
100
AcDbLine
 10
489.721344
 20
540.5
 30
0.0
 11
486.721344
 21
541.0
 31
0.0
  0
TEXT
  5
36F
100
AcDbEntity
  8
LAY-6
  6
CONTINUOUS
 62
     2
100
AcDbText
 10
403.721344
 20
484.3
 30
0.0
 40
5.0
  1
１２２
 41
0.672
  7
EXCADSTD
 72
     5
 11
415.721344
 21
484.3
 31
0.0
100
AcDbText
  0
LINE
  5
370
100
AcDbEntity
  8
LAY-6
  6
CONTINUOUS
 62
     1
100
AcDbLine
 10
470.721344
 20
496.44104
 30
0.0
 11
470.721344
 21
482.3
 31
0.0
  0
LINE
  5
371
100
AcDbEntity
  8
LAY-6
  6
CONTINUOUS
 62
     1
100
AcDbLine
 10
348.721344
 20
483.8
 30
0.0
 11
470.721344
 21
483.8
 31
0.0
  0
LINE
  5
372
100
AcDbEntity
  8
LAY-6
  6
CONTINUOUS
 62
     1
100
AcDbLine
 10
351.721344
 20
484.3
 30
0.0
 11
348.721344
 21
483.8
 31
0.0
  0
LINE
  5
373
100
AcDbEntity
  8
LAY-6
  6
CONTINUOUS
 62
     1
100
AcDbLine
 10
348.721344
 20
483.8
 30
0.0
 11
351.721344
 21
483.3
 31
0.0
  0
LINE
  5
374
100
AcDbEntity
  8
LAY-6
  6
CONTINUOUS
 62
     1
100
AcDbLine
 10
467.721344
 20
483.3
 30
0.0
 11
470.721344
 21
483.8
 31
0.0
  0
LINE
  5
375
100
AcDbEntity
  8
LAY-6
  6
CONTINUOUS
 62
     1
100
AcDbLine
 10
470.721344
 20
483.8
 30
0.0
 11
467.721344
 21
484.3
 31
0.0
  0
TEXT
  5
376
100
AcDbEntity
  8
LAY-6
  6
CONTINUOUS
 62
     2
100
AcDbText
 10
327.721344
 20
474.2
 30
0.0
 40
5.0
  1
３４
 41
0.672
  7
EXCADSTD
 72
     5
 11
335.054144
 21
474.2
 31
0.0
100
AcDbText
  0
LINE
  5
377
100
AcDbEntity
  8
LAY-6
  6
CONTINUOUS
 62
     1
100
AcDbLine
 10
314.721344
 20
496.440978
 30
0.0
 11
314.721344
 21
472.2
 31
0.0
  0
LINE
  5
378
100
AcDbEntity
  8
LAY-6
  6
CONTINUOUS
 62
     1
100
AcDbLine
 10
348.721344
 20
489.1
 30
0.0
 11
348.721344
 21
472.2
 31
0.0
  0
LINE
  5
379
100
AcDbEntity
  8
LAY-6
  6
CONTINUOUS
 62
     1
100
AcDbLine
 10
314.721344
 20
473.7
 30
0.0
 11
348.721344
 21
473.7
 31
0.0
  0
LINE
  5
37A
100
AcDbEntity
  8
LAY-6
  6
CONTINUOUS
 62
     1
100
AcDbLine
 10
317.721344
 20
474.2
 30
0.0
 11
314.721344
 21
473.7
 31
0.0
  0
LINE
  5
37B
100
AcDbEntity
  8
LAY-6
  6
CONTINUOUS
 62
     1
100
AcDbLine
 10
314.721344
 20
473.7
 30
0.0
 11
317.721344
 21
473.2
 31
0.0
  0
LINE
  5
37C
100
AcDbEntity
  8
LAY-6
  6
CONTINUOUS
 62
     1
100
AcDbLine
 10
345.721344
 20
473.2
 30
0.0
 11
348.721344
 21
473.7
 31
0.0
  0
LINE
  5
37D
100
AcDbEntity
  8
LAY-6
  6
CONTINUOUS
 62
     1
100
AcDbLine
 10
348.721344
 20
473.7
 30
0.0
 11
345.721344
 21
474.2
 31
0.0
  0
TEXT
  5
37E
100
AcDbEntity
  8
LAY-6
  6
CONTINUOUS
 62
     2
100
AcDbText
 10
410.221344
 20
474.2
 30
0.0
 40
5.0
  1
１３５
 41
0.672
  7
EXCADSTD
 72
     5
 11
422.221344
 21
474.2
 31
0.0
100
AcDbText
  0
LINE
  5
37F
100
AcDbEntity
  8
LAY-6
  6
CONTINUOUS
 62
     1
100
AcDbLine
 10
483.721344
 20
496.440978
 30
0.0
 11
483.721344
 21
472.2
 31
0.0
  0
LINE
  5
380
100
AcDbEntity
  8
LAY-6
  6
CONTINUOUS
 62
     1
100
AcDbLine
 10
348.721344
 20
473.7
 30
0.0
 11
483.721344
 21
473.7
 31
0.0
  0
LINE
  5
381
100
AcDbEntity
  8
LAY-6
  6
CONTINUOUS
 62
     1
100
AcDbLine
 10
351.721344
 20
474.2
 30
0.0
 11
348.721344
 21
473.7
 31
0.0
  0
LINE
  5
382
100
AcDbEntity
  8
LAY-6
  6
CONTINUOUS
 62
     1
100
AcDbLine
 10
348.721344
 20
473.7
 30
0.0
 11
351.721344
 21
473.2
 31
0.0
  0
LINE
  5
383
100
AcDbEntity
  8
LAY-6
  6
CONTINUOUS
 62
     1
100
AcDbLine
 10
480.721344
 20
473.2
 30
0.0
 11
483.721344
 21
473.7
 31
0.0
  0
LINE
  5
384
100
AcDbEntity
  8
LAY-6
  6
CONTINUOUS
 62
     1
100
AcDbLine
 10
483.721344
 20
473.7
 30
0.0
 11
480.721344
 21
474.2
 31
0.0
  0
TEXT
  5
385
100
AcDbEntity
  8
LAY-6
  6
CONTINUOUS
 62
     2
100
AcDbText
 10
359.721337
 20
394.2
 30
0.0
 40
5.0
  1
３０
 41
0.672
  7
EXCADSTD
 72
     5
 11
367.054137
 21
394.2
 31
0.0
100
AcDbText
  0
LINE
  5
386
100
AcDbEntity
  8
LAY-6
  6
CONTINUOUS
 62
     1
100
AcDbLine
 10
348.721344
 20
402.8
 30
0.0
 11
348.721344
 21
392.2
 31
0.0
  0
LINE
  5
387
100
AcDbEntity
  8
LAY-6
  6
CONTINUOUS
 62
     1
100
AcDbLine
 10
378.721329
 20
423.2
 30
0.0
 11
378.721329
 21
392.2
 31
0.0
  0
LINE
  5
388
100
AcDbEntity
  8
LAY-6
  6
CONTINUOUS
 62
     1
100
AcDbLine
 10
348.721344
 20
393.7
 30
0.0
 11
378.721329
 21
393.7
 31
0.0
  0
LINE
  5
389
100
AcDbEntity
  8
LAY-6
  6
CONTINUOUS
 62
     1
100
AcDbLine
 10
351.721344
 20
394.2
 30
0.0
 11
348.721344
 21
393.7
 31
0.0
  0
LINE
  5
38A
100
AcDbEntity
  8
LAY-6
  6
CONTINUOUS
 62
     1
100
AcDbLine
 10
348.721344
 20
393.7
 30
0.0
 11
351.721344
 21
393.2
 31
0.0
  0
LINE
  5
38B
100
AcDbEntity
  8
LAY-6
  6
CONTINUOUS
 62
     1
100
AcDbLine
 10
375.721329
 20
393.2
 30
0.0
 11
378.721329
 21
393.7
 31
0.0
  0
LINE
  5
38C
100
AcDbEntity
  8
LAY-6
  6
CONTINUOUS
 62
     1
100
AcDbLine
 10
378.721329
 20
393.7
 30
0.0
 11
375.721329
 21
394.2
 31
0.0
  0
TEXT
  5
38D
100
AcDbEntity
  8
LAY-6
  6
CONTINUOUS
 62
     2
100
AcDbText
 10
397.721337
 20
394.2
 30
0.0
 40
5.0
  1
４６
 41
0.672
  7
EXCADSTD
 72
     5
 11
405.054137
 21
394.2
 31
0.0
100
AcDbText
  0
LINE
  5
38E
100
AcDbEntity
  8
LAY-6
  6
CONTINUOUS
 62
     1
100
AcDbLine
 10
424.721344
 20
403.6
 30
0.0
 11
424.721344
 21
392.2
 31
0.0
  0
LINE
  5
38F
100
AcDbEntity
  8
LAY-6
  6
CONTINUOUS
 62
     1
100
AcDbLine
 10
378.721329
 20
393.7
 30
0.0
 11
424.721344
 21
393.7
 31
0.0
  0
LINE
  5
390
100
AcDbEntity
  8
LAY-6
  6
CONTINUOUS
 62
     1
100
AcDbLine
 10
381.721329
 20
394.2
 30
0.0
 11
378.721329
 21
393.7
 31
0.0
  0
LINE
  5
391
100
AcDbEntity
  8
LAY-6
  6
CONTINUOUS
 62
     1
100
AcDbLine
 10
378.721329
 20
393.7
 30
0.0
 11
381.721329
 21
393.2
 31
0.0
  0
LINE
  5
392
100
AcDbEntity
  8
LAY-6
  6
CONTINUOUS
 62
     1
100
AcDbLine
 10
421.721344
 20
393.2
 30
0.0
 11
424.721344
 21
393.7
 31
0.0
  0
LINE
  5
393
100
AcDbEntity
  8
LAY-6
  6
CONTINUOUS
 62
     1
100
AcDbLine
 10
424.721344
 20
393.7
 30
0.0
 11
421.721344
 21
394.2
 31
0.0
  0
TEXT
  5
394
100
AcDbEntity
  8
LAY-6
  6
CONTINUOUS
 62
     2
100
AcDbText
 10
443.721344
 20
394.2
 30
0.0
 40
5.0
  1
４６
 41
0.672
  7
EXCADSTD
 72
     5
 11
451.054144
 21
394.2
 31
0.0
100
AcDbText
  0
LINE
  5
395
100
AcDbEntity
  8
LAY-6
  6
CONTINUOUS
 62
     1
100
AcDbLine
 10
470.721344
 20
423.2
 30
0.0
 11
470.721344
 21
392.2
 31
0.0
  0
LINE
  5
396
100
AcDbEntity
  8
LAY-6
  6
CONTINUOUS
 62
     1
100
AcDbLine
 10
424.721344
 20
393.7
 30
0.0
 11
470.721344
 21
393.7
 31
0.0
  0
LINE
  5
397
100
AcDbEntity
  8
LAY-6
  6
CONTINUOUS
 62
     1
100
AcDbLine
 10
427.721344
 20
394.2
 30
0.0
 11
424.721344
 21
393.7
 31
0.0
  0
LINE
  5
398
100
AcDbEntity
  8
LAY-6
  6
CONTINUOUS
 62
     1
100
AcDbLine
 10
424.721344
 20
393.7
 30
0.0
 11
427.721344
 21
393.2
 31
0.0
  0
LINE
  5
399
100
AcDbEntity
  8
LAY-6
  6
CONTINUOUS
 62
     1
100
AcDbLine
 10
467.721344
 20
393.2
 30
0.0
 11
470.721344
 21
393.7
 31
0.0
  0
LINE
  5
39A
100
AcDbEntity
  8
LAY-6
  6
CONTINUOUS
 62
     1
100
AcDbLine
 10
470.721344
 20
393.7
 30
0.0
 11
467.721344
 21
394.2
 31
0.0
  0
TEXT
  5
39B
100
AcDbEntity
  8
LAY-6
  6
CONTINUOUS
 62
     2
100
AcDbText
 10
336.721337
 20
384.0
 30
0.0
 40
5.0
  1
１６
 41
0.672
  7
EXCADSTD
 72
     5
 11
344.054137
 21
384.0
 31
0.0
100
AcDbText
  0
LINE
  5
39C
100
AcDbEntity
  8
LAY-6
  6
CONTINUOUS
 62
     1
100
AcDbLine
 10
332.721329
 20
406.370972
 30
0.0
 11
332.721329
 21
382.0
 31
0.0
  0
LINE
  5
39D
100
AcDbEntity
  8
LAY-6
  6
CONTINUOUS
 62
     1
100
AcDbLine
 10
348.721344
 20
392.2
 30
0.0
 11
348.721344
 21
382.0
 31
0.0
  0
LINE
  5
39E
100
AcDbEntity
  8
LAY-6
  6
CONTINUOUS
 62
     1
100
AcDbLine
 10
332.721329
 20
383.5
 30
0.0
 11
348.721344
 21
383.5
 31
0.0
  0
LINE
  5
39F
100
AcDbEntity
  8
LAY-6
  6
CONTINUOUS
 62
     1
100
AcDbLine
 10
335.721329
 20
384.0
 30
0.0
 11
332.721329
 21
383.5
 31
0.0
  0
LINE
  5
3A0
100
AcDbEntity
  8
LAY-6
  6
CONTINUOUS
 62
     1
100
AcDbLine
 10
332.721329
 20
383.5
 30
0.0
 11
335.721329
 21
383.0
 31
0.0
  0
LINE
  5
3A1
100
AcDbEntity
  8
LAY-6
  6
CONTINUOUS
 62
     1
100
AcDbLine
 10
345.721344
 20
383.0
 30
0.0
 11
348.721344
 21
383.5
 31
0.0
  0
LINE
  5
3A2
100
AcDbEntity
  8
LAY-6
  6
CONTINUOUS
 62
     1
100
AcDbLine
 10
348.721344
 20
383.5
 30
0.0
 11
345.721344
 21
384.0
 31
0.0
  0
TEXT
  5
3A3
100
AcDbEntity
  8
LAY-6
  6
CONTINUOUS
 62
     2
100
AcDbText
 10
410.221344
 20
384.0
 30
0.0
 40
5.0
  1
１３５
 41
0.672
  7
EXCADSTD
 72
     5
 11
422.221344
 21
384.0
 31
0.0
100
AcDbText
  0
LINE
  5
3A4
100
AcDbEntity
  8
LAY-6
  6
CONTINUOUS
 62
     1
100
AcDbLine
 10
483.721344
 20
406.370972
 30
0.0
 11
483.721344
 21
382.0
 31
0.0
  0
LINE
  5
3A5
100
AcDbEntity
  8
LAY-6
  6
CONTINUOUS
 62
     1
100
AcDbLine
 10
348.721344
 20
383.5
 30
0.0
 11
483.721344
 21
383.5
 31
0.0
  0
LINE
  5
3A6
100
AcDbEntity
  8
LAY-6
  6
CONTINUOUS
 62
     1
100
AcDbLine
 10
351.721344
 20
384.0
 30
0.0
 11
348.721344
 21
383.5
 31
0.0
  0
LINE
  5
3A7
100
AcDbEntity
  8
LAY-6
  6
CONTINUOUS
 62
     1
100
AcDbLine
 10
348.721344
 20
383.5
 30
0.0
 11
351.721344
 21
383.0
 31
0.0
  0
LINE
  5
3A8
100
AcDbEntity
  8
LAY-6
  6
CONTINUOUS
 62
     1
100
AcDbLine
 10
480.721344
 20
383.0
 30
0.0
 11
483.721344
 21
383.5
 31
0.0
  0
LINE
  5
3A9
100
AcDbEntity
  8
LAY-6
  6
CONTINUOUS
 62
     1
100
AcDbLine
 10
483.721344
 20
383.5
 30
0.0
 11
480.721344
 21
384.0
 31
0.0
  0
TEXT
  5
3AA
100
AcDbEntity
  8
LAY-6
  6
CONTINUOUS
 62
     2
100
AcDbText
 10
403.5
 20
416.370972
 30
0.0
 40
5.0
  1
８
 50
90.0
 41
0.672
  7
EXCADSTD
 72
     5
 11
403.5
 21
419.570972
 31
0.0
100
AcDbText
  0
LINE
  5
3AB
100
AcDbEntity
  8
LAY-6
  6
CONTINUOUS
 62
     1
100
AcDbLine
 10
416.3
 20
414.370972
 30
0.0
 11
402.5
 21
414.370972
 31
0.0
  0
LINE
  5
3AC
100
AcDbEntity
  8
LAY-6
  6
CONTINUOUS
 62
     1
100
AcDbLine
 10
405.0
 20
422.370972
 30
0.0
 11
402.5
 21
422.370972
 31
0.0
  0
LINE
  5
3AD
100
AcDbEntity
  8
LAY-6
  6
CONTINUOUS
 62
     1
100
AcDbLine
 10
404.0
 20
414.370972
 30
0.0
 11
404.0
 21
422.370972
 31
0.0
  0
LINE
  5
3AE
100
AcDbEntity
  8
LAY-6
  6
CONTINUOUS
 62
     1
100
AcDbLine
 10
403.5
 20
417.370972
 30
0.0
 11
404.0
 21
414.370972
 31
0.0
  0
LINE
  5
3AF
100
AcDbEntity
  8
LAY-6
  6
CONTINUOUS
 62
     1
100
AcDbLine
 10
404.0
 20
414.370972
 30
0.0
 11
404.5
 21
417.370972
 31
0.0
  0
LINE
  5
3B0
100
AcDbEntity
  8
LAY-6
  6
CONTINUOUS
 62
     1
100
AcDbLine
 10
404.5
 20
419.370972
 30
0.0
 11
404.0
 21
422.370972
 31
0.0
  0
LINE
  5
3B1
100
AcDbEntity
  8
LAY-6
  6
CONTINUOUS
 62
     1
100
AcDbLine
 10
404.0
 20
422.370972
 30
0.0
 11
403.5
 21
419.370972
 31
0.0
  0
TEXT
  5
3B2
100
AcDbEntity
  8
LAY-6
  6
CONTINUOUS
 62
     2
100
AcDbText
 10
403.5
 20
424.370972
 30
0.0
 40
5.0
  1
８
 50
90.0
 41
0.672
  7
EXCADSTD
 72
     5
 11
403.5
 21
427.570972
 31
0.0
100
AcDbText
  0
LINE
  5
3B3
100
AcDbEntity
  8
LAY-6
  6
CONTINUOUS
 62
     1
100
AcDbLine
 10
388.2
 20
430.370972
 30
0.0
 11
405.5
 21
430.370972
 31
0.0
  0
LINE
  5
3B4
100
AcDbEntity
  8
LAY-6
  6
CONTINUOUS
 62
     1
100
AcDbLine
 10
404.0
 20
422.370972
 30
0.0
 11
404.0
 21
430.370972
 31
0.0
  0
LINE
  5
3B5
100
AcDbEntity
  8
LAY-6
  6
CONTINUOUS
 62
     1
100
AcDbLine
 10
403.5
 20
425.370972
 30
0.0
 11
404.0
 21
422.370972
 31
0.0
  0
LINE
  5
3B6
100
AcDbEntity
  8
LAY-6
  6
CONTINUOUS
 62
     1
100
AcDbLine
 10
404.0
 20
422.370972
 30
0.0
 11
404.5
 21
425.370972
 31
0.0
  0
LINE
  5
3B7
100
AcDbEntity
  8
LAY-6
  6
CONTINUOUS
 62
     1
100
AcDbLine
 10
404.5
 20
427.370972
 30
0.0
 11
404.0
 21
430.370972
 31
0.0
  0
LINE
  5
3B8
100
AcDbEntity
  8
LAY-6
  6
CONTINUOUS
 62
     1
100
AcDbLine
 10
404.0
 20
430.370972
 30
0.0
 11
403.5
 21
427.370972
 31
0.0
  0
TEXT
  5
3B9
100
AcDbEntity
  8
LAY-6
  6
CONTINUOUS
 62
     2
100
AcDbText
 10
220.2
 20
558.5
 30
0.0
 40
5.0
  1
４－Ｍ６×１６皿小ネジ
 41
0.672
  7
EXCADSTD
 72
     5
 11
264.2
 21
558.5
 31
0.0
100
AcDbText
  0
TEXT
  5
3BA
100
AcDbEntity
  8
LAY-6
  6
CONTINUOUS
 62
     2
100
AcDbText
 10
195.30095
 20
451.099049
 30
0.0
 40
5.0
  1
３－Ｍ６×１６皿小ネジ
 50
359.891073
 41
0.672
  7
EXCADSTD
 72
     5
 11
239.30087
 21
451.015398
 31
0.0
100
AcDbText
  0
TEXT
  5
3BB
100
AcDbEntity
  8
LAY-6
  6
CONTINUOUS
 62
     2
100
AcDbText
 10
93.721344
 20
372.3
 30
0.0
 40
5.0
  1
２０
 41
0.672
  7
EXCADSTD
 72
     5
 11
101.054144
 21
372.3
 31
0.0
100
AcDbText
  0
LINE
  5
3BC
100
AcDbEntity
  8
LAY-6
  6
CONTINUOUS
 62
     1
100
AcDbLine
 10
87.721344
 20
347.552124
 30
0.0
 11
87.721344
 21
373.3
 31
0.0
  0
LINE
  5
3BD
100
AcDbEntity
  8
LAY-6
  6
CONTINUOUS
 62
     1
100
AcDbLine
 10
107.721344
 20
353.3
 30
0.0
 11
107.721344
 21
373.3
 31
0.0
  0
LINE
  5
3BE
100
AcDbEntity
  8
LAY-6
  6
CONTINUOUS
 62
     1
100
AcDbLine
 10
87.721344
 20
371.8
 30
0.0
 11
107.721344
 21
371.8
 31
0.0
  0
LINE
  5
3BF
100
AcDbEntity
  8
LAY-6
  6
CONTINUOUS
 62
     1
100
AcDbLine
 10
90.721344
 20
372.3
 30
0.0
 11
87.721344
 21
371.8
 31
0.0
  0
LINE
  5
3C0
100
AcDbEntity
  8
LAY-6
  6
CONTINUOUS
 62
     1
100
AcDbLine
 10
87.721344
 20
371.8
 30
0.0
 11
90.721344
 21
371.3
 31
0.0
  0
LINE
  5
3C1
100
AcDbEntity
  8
LAY-6
  6
CONTINUOUS
 62
     1
100
AcDbLine
 10
104.721344
 20
371.3
 30
0.0
 11
107.721344
 21
371.8
 31
0.0
  0
LINE
  5
3C2
100
AcDbEntity
  8
LAY-6
  6
CONTINUOUS
 62
     1
100
AcDbLine
 10
107.721344
 20
371.8
 30
0.0
 11
104.721344
 21
372.3
 31
0.0
  0
TEXT
  5
3C3
100
AcDbEntity
  8
LAY-6
  6
CONTINUOUS
 62
     2
100
AcDbText
 10
175.721344
 20
372.3
 30
0.0
 40
5.0
  1
１４８
 41
0.672
  7
EXCADSTD
 72
     5
 11
187.721344
 21
372.3
 31
0.0
100
AcDbText
  0
LINE
  5
3C4
100
AcDbEntity
  8
LAY-6
  6
CONTINUOUS
 62
     1
100
AcDbLine
 10
255.721344
 20
347.552124
 30
0.0
 11
255.721344
 21
373.3
 31
0.0
  0
LINE
  5
3C5
100
AcDbEntity
  8
LAY-6
  6
CONTINUOUS
 62
     1
100
AcDbLine
 10
107.721344
 20
371.8
 30
0.0
 11
255.721344
 21
371.8
 31
0.0
  0
LINE
  5
3C6
100
AcDbEntity
  8
LAY-6
  6
CONTINUOUS
 62
     1
100
AcDbLine
 10
110.721344
 20
372.3
 30
0.0
 11
107.721344
 21
371.8
 31
0.0
  0
LINE
  5
3C7
100
AcDbEntity
  8
LAY-6
  6
CONTINUOUS
 62
     1
100
AcDbLine
 10
107.721344
 20
371.8
 30
0.0
 11
110.721344
 21
371.3
 31
0.0
  0
LINE
  5
3C8
100
AcDbEntity
  8
LAY-6
  6
CONTINUOUS
 62
     1
100
AcDbLine
 10
252.721344
 20
371.3
 30
0.0
 11
255.721344
 21
371.8
 31
0.0
  0
LINE
  5
3C9
100
AcDbEntity
  8
LAY-6
  6
CONTINUOUS
 62
     1
100
AcDbLine
 10
255.721344
 20
371.8
 30
0.0
 11
252.721344
 21
372.3
 31
0.0
  0
TEXT
  5
3CA
100
AcDbEntity
  8
LAY-6
  6
CONTINUOUS
 62
     2
100
AcDbText
 10
165.721344
 20
383.0
 30
0.0
 40
5.0
  1
１６８
 41
0.672
  7
EXCADSTD
 72
     5
 11
177.721344
 21
383.0
 31
0.0
100
AcDbText
  0
LINE
  5
3CB
100
AcDbEntity
  8
LAY-6
  6
CONTINUOUS
 62
     1
100
AcDbLine
 10
87.721344
 20
373.3
 30
0.0
 11
87.721344
 21
384.0
 31
0.0
  0
LINE
  5
3CC
100
AcDbEntity
  8
LAY-6
  6
CONTINUOUS
 62
     1
100
AcDbLine
 10
255.721344
 20
373.3
 30
0.0
 11
255.721344
 21
384.0
 31
0.0
  0
LINE
  5
3CD
100
AcDbEntity
  8
LAY-6
  6
CONTINUOUS
 62
     1
100
AcDbLine
 10
87.721344
 20
382.5
 30
0.0
 11
255.721344
 21
382.5
 31
0.0
  0
LINE
  5
3CE
100
AcDbEntity
  8
LAY-6
  6
CONTINUOUS
 62
     1
100
AcDbLine
 10
90.721344
 20
383.0
 30
0.0
 11
87.721344
 21
382.5
 31
0.0
  0
LINE
  5
3CF
100
AcDbEntity
  8
LAY-6
  6
CONTINUOUS
 62
     1
100
AcDbLine
 10
87.721344
 20
382.5
 30
0.0
 11
90.721344
 21
382.0
 31
0.0
  0
LINE
  5
3D0
100
AcDbEntity
  8
LAY-6
  6
CONTINUOUS
 62
     1
100
AcDbLine
 10
252.721344
 20
382.0
 30
0.0
 11
255.721344
 21
382.5
 31
0.0
  0
LINE
  5
3D1
100
AcDbEntity
  8
LAY-6
  6
CONTINUOUS
 62
     1
100
AcDbLine
 10
255.721344
 20
382.5
 30
0.0
 11
252.721344
 21
383.0
 31
0.0
  0
TEXT
  5
3D2
100
AcDbEntity
  8
LAY-6
  6
CONTINUOUS
 62
     2
100
AcDbText
 10
103.721345
 20
335.3
 30
0.0
 40
5.0
  1
２５
 41
0.672
  7
EXCADSTD
 72
     5
 11
111.054145
 21
335.3
 31
0.0
100
AcDbText
  0
LINE
  5
3D3
100
AcDbEntity
  8
LAY-6
  6
CONTINUOUS
 62
     1
100
AcDbLine
 10
95.221338
 20
334.8
 30
0.0
 11
120.221351
 21
334.8
 31
0.0
  0
LINE
  5
3D4
100
AcDbEntity
  8
LAY-6
  6
CONTINUOUS
 62
     1
100
AcDbLine
 10
98.221338
 20
335.3
 30
0.0
 11
95.221338
 21
334.8
 31
0.0
  0
LINE
  5
3D5
100
AcDbEntity
  8
LAY-6
  6
CONTINUOUS
 62
     1
100
AcDbLine
 10
95.221338
 20
334.8
 30
0.0
 11
98.221338
 21
334.3
 31
0.0
  0
LINE
  5
3D6
100
AcDbEntity
  8
LAY-6
  6
CONTINUOUS
 62
     1
100
AcDbLine
 10
117.221351
 20
334.3
 30
0.0
 11
120.221351
 21
334.8
 31
0.0
  0
LINE
  5
3D7
100
AcDbEntity
  8
LAY-6
  6
CONTINUOUS
 62
     1
100
AcDbLine
 10
120.221351
 20
334.8
 30
0.0
 11
117.221351
 21
335.3
 31
0.0
  0
TEXT
  5
3D8
100
AcDbEntity
  8
LAY-6
  6
CONTINUOUS
 62
     2
100
AcDbText
 10
279.3
 20
320.052063
 30
0.0
 40
5.0
  1
１０
 50
90.0
 41
0.672
  7
EXCADSTD
 72
     5
 11
279.3
 21
327.384863
 31
0.0
100
AcDbText
  0
LINE
  5
3D9
100
AcDbEntity
  8
LAY-6
  6
CONTINUOUS
 62
     1
100
AcDbLine
 10
438.7
 20
329.052063
 30
0.0
 11
278.3
 21
329.052063
 31
0.0
  0
LINE
  5
3DA
100
AcDbEntity
  8
LAY-6
  6
CONTINUOUS
 62
     1
100
AcDbLine
 10
279.8
 20
319.052063
 30
0.0
 11
279.8
 21
329.052063
 31
0.0
  0
LINE
  5
3DB
100
AcDbEntity
  8
LAY-6
  6
CONTINUOUS
 62
     1
100
AcDbLine
 10
279.3
 20
322.052063
 30
0.0
 11
279.8
 21
319.052063
 31
0.0
  0
LINE
  5
3DC
100
AcDbEntity
  8
LAY-6
  6
CONTINUOUS
 62
     1
100
AcDbLine
 10
279.8
 20
319.052063
 30
0.0
 11
280.3
 21
322.052063
 31
0.0
  0
LINE
  5
3DD
100
AcDbEntity
  8
LAY-6
  6
CONTINUOUS
 62
     1
100
AcDbLine
 10
280.3
 20
326.052063
 30
0.0
 11
279.8
 21
329.052063
 31
0.0
  0
LINE
  5
3DE
100
AcDbEntity
  8
LAY-6
  6
CONTINUOUS
 62
     1
100
AcDbLine
 10
279.8
 20
329.052063
 30
0.0
 11
279.3
 21
326.052063
 31
0.0
  0
TEXT
  5
3DF
100
AcDbEntity
  8
LAY-6
  6
CONTINUOUS
 62
     2
100
AcDbText
 10
279.3
 20
335.052063
 30
0.0
 40
5.0
  1
２０
 50
90.0
 41
0.672
  7
EXCADSTD
 72
     5
 11
279.3
 21
342.384863
 31
0.0
100
AcDbText
  0
LINE
  5
3E0
100
AcDbEntity
  8
LAY-6
  6
CONTINUOUS
 62
     1
100
AcDbLine
 10
438.540584
 20
349.052063
 30
0.0
 11
278.3
 21
349.052063
 31
0.0
  0
LINE
  5
3E1
100
AcDbEntity
  8
LAY-6
  6
CONTINUOUS
 62
     1
100
AcDbLine
 10
279.8
 20
329.052063
 30
0.0
 11
279.8
 21
349.052063
 31
0.0
  0
LINE
  5
3E2
100
AcDbEntity
  8
LAY-6
  6
CONTINUOUS
 62
     1
100
AcDbLine
 10
279.3
 20
332.052063
 30
0.0
 11
279.8
 21
329.052063
 31
0.0
  0
LINE
  5
3E3
100
AcDbEntity
  8
LAY-6
  6
CONTINUOUS
 62
     1
100
AcDbLine
 10
279.8
 20
329.052063
 30
0.0
 11
280.3
 21
332.052063
 31
0.0
  0
LINE
  5
3E4
100
AcDbEntity
  8
LAY-6
  6
CONTINUOUS
 62
     1
100
AcDbLine
 10
280.3
 20
346.052063
 30
0.0
 11
279.8
 21
349.052063
 31
0.0
  0
LINE
  5
3E5
100
AcDbEntity
  8
LAY-6
  6
CONTINUOUS
 62
     1
100
AcDbLine
 10
279.8
 20
349.052063
 30
0.0
 11
279.3
 21
346.052063
 31
0.0
  0
TEXT
  5
3E6
100
AcDbEntity
  8
LAY-6
  6
CONTINUOUS
 62
     2
100
AcDbText
 10
71.571335
 20
298.1
 30
0.0
 40
5.0
  1
５８.３
 41
0.616
  7
EXCADSTD
 72
     5
 11
85.571335
 21
298.1
 31
0.0
100
AcDbText
  0
LINE
  5
3E7
100
AcDbEntity
  8
LAY-6
  6
CONTINUOUS
 62
     1
100
AcDbLine
 10
49.421326
 20
315.952057
 30
0.0
 11
49.421326
 21
296.1
 31
0.0
  0
LINE
  5
3E8
100
AcDbEntity
  8
LAY-6
  6
CONTINUOUS
 62
     1
100
AcDbLine
 10
107.721344
 20
296.4
 30
0.0
 11
107.721344
 21
299.1
 31
0.0
  0
LINE
  5
3E9
100
AcDbEntity
  8
LAY-6
  6
CONTINUOUS
 62
     1
100
AcDbLine
 10
49.421326
 20
297.6
 30
0.0
 11
107.721344
 21
297.6
 31
0.0
  0
LINE
  5
3EA
100
AcDbEntity
  8
LAY-6
  6
CONTINUOUS
 62
     1
100
AcDbLine
 10
52.421326
 20
298.1
 30
0.0
 11
49.421326
 21
297.6
 31
0.0
  0
LINE
  5
3EB
100
AcDbEntity
  8
LAY-6
  6
CONTINUOUS
 62
     1
100
AcDbLine
 10
49.421326
 20
297.6
 30
0.0
 11
52.421326
 21
297.1
 31
0.0
  0
LINE
  5
3EC
100
AcDbEntity
  8
LAY-6
  6
CONTINUOUS
 62
     1
100
AcDbLine
 10
104.721344
 20
297.1
 30
0.0
 11
107.721344
 21
297.6
 31
0.0
  0
LINE
  5
3ED
100
AcDbEntity
  8
LAY-6
  6
CONTINUOUS
 62
     1
100
AcDbLine
 10
107.721344
 20
297.6
 30
0.0
 11
104.721344
 21
298.1
 31
0.0
  0
TEXT
  5
3EE
100
AcDbEntity
  8
LAY-6
  6
CONTINUOUS
 62
     2
100
AcDbText
 10
239.571351
 20
298.1
 30
0.0
 40
5.0
  1
２８１.７
 41
0.62784
  7
EXCADSTD
 72
     5
 11
257.57135
 21
298.1
 31
0.0
100
AcDbText
  0
LINE
  5
3EF
100
AcDbEntity
  8
LAY-6
  6
CONTINUOUS
 62
     1
100
AcDbLine
 10
389.421357
 20
315.952057
 30
0.0
 11
389.421357
 21
296.1
 31
0.0
  0
LINE
  5
3F0
100
AcDbEntity
  8
LAY-6
  6
CONTINUOUS
 62
     1
100
AcDbLine
 10
107.721344
 20
297.6
 30
0.0
 11
389.421357
 21
297.6
 31
0.0
  0
LINE
  5
3F1
100
AcDbEntity
  8
LAY-6
  6
CONTINUOUS
 62
     1
100
AcDbLine
 10
110.721344
 20
298.1
 30
0.0
 11
107.721344
 21
297.6
 31
0.0
  0
LINE
  5
3F2
100
AcDbEntity
  8
LAY-6
  6
CONTINUOUS
 62
     1
100
AcDbLine
 10
107.721344
 20
297.6
 30
0.0
 11
110.721344
 21
297.1
 31
0.0
  0
LINE
  5
3F3
100
AcDbEntity
  8
LAY-6
  6
CONTINUOUS
 62
     1
100
AcDbLine
 10
386.421357
 20
297.1
 30
0.0
 11
389.421357
 21
297.6
 31
0.0
  0
LINE
  5
3F4
100
AcDbEntity
  8
LAY-6
  6
CONTINUOUS
 62
     1
100
AcDbLine
 10
389.421357
 20
297.6
 30
0.0
 11
386.421357
 21
298.1
 31
0.0
  0
TEXT
  5
3F5
100
AcDbEntity
  8
LAY-6
  6
CONTINUOUS
 62
     2
100
AcDbText
 10
213.421342
 20
287.8
 30
0.0
 40
5.0
  1
３４０
 41
0.672
  7
EXCADSTD
 72
     5
 11
225.421342
 21
287.8
 31
0.0
100
AcDbText
  0
LINE
  5
3F6
100
AcDbEntity
  8
LAY-6
  6
CONTINUOUS
 62
     1
100
AcDbLine
 10
49.421326
 20
296.1
 30
0.0
 11
49.421326
 21
285.8
 31
0.0
  0
LINE
  5
3F7
100
AcDbEntity
  8
LAY-6
  6
CONTINUOUS
 62
     1
100
AcDbLine
 10
389.421357
 20
296.1
 30
0.0
 11
389.421357
 21
285.8
 31
0.0
  0
LINE
  5
3F8
100
AcDbEntity
  8
LAY-6
  6
CONTINUOUS
 62
     1
100
AcDbLine
 10
49.421326
 20
287.3
 30
0.0
 11
389.421357
 21
287.3
 31
0.0
  0
LINE
  5
3F9
100
AcDbEntity
  8
LAY-6
  6
CONTINUOUS
 62
     1
100
AcDbLine
 10
52.421326
 20
287.8
 30
0.0
 11
49.421326
 21
287.3
 31
0.0
  0
LINE
  5
3FA
100
AcDbEntity
  8
LAY-6
  6
CONTINUOUS
 62
     1
100
AcDbLine
 10
49.421326
 20
287.3
 30
0.0
 11
52.421326
 21
286.8
 31
0.0
  0
LINE
  5
3FB
100
AcDbEntity
  8
LAY-6
  6
CONTINUOUS
 62
     1
100
AcDbLine
 10
386.421357
 20
286.8
 30
0.0
 11
389.421357
 21
287.3
 31
0.0
  0
LINE
  5
3FC
100
AcDbEntity
  8
LAY-6
  6
CONTINUOUS
 62
     1
100
AcDbLine
 10
389.421357
 20
287.3
 30
0.0
 11
386.421357
 21
287.8
 31
0.0
  0
POLYLINE
  5
3FD
100
AcDbEntity
  8
LAY-6
  6
CONTINUOUS
 62
     1
100
AcDb2dPolyline
 66
     1
 10
0.0
 20
0.0
 30
0.0
 70
   128
  0
VERTEX
  5
3FE
100
AcDbEntity
  8
LAY-6
  6
CONTINUOUS
 62
     1
100
AcDbVertex
100
AcDb2dVertex
 10
205.521344
 20
358.952124
 30
0.0
  0
VERTEX
  5
3FF
100
AcDbEntity
  8
LAY-6
  6
CONTINUOUS
 62
     1
100
AcDbVertex
100
AcDb2dVertex
 10
212.0
 20
389.2
 30
0.0
  0
VERTEX
  5
400
100
AcDbEntity
  8
LAY-6
  6
CONTINUOUS
 62
     1
100
AcDbVertex
100
AcDb2dVertex
 10
297.7
 20
389.2
 30
0.0
  0
SEQEND
  5
401
100
AcDbEntity
  8
LAY-6
  6
CONTINUOUS
 62
     1
  0
LINE
  5
402
100
AcDbEntity
  8
LAY-6
  6
CONTINUOUS
 62
     1
100
AcDbLine
 10
205.660739
 20
361.990309
 30
0.0
 11
205.521344
 21
358.952124
 31
0.0
  0
LINE
  5
403
100
AcDbEntity
  8
LAY-6
  6
CONTINUOUS
 62
     1
100
AcDbLine
 10
205.521344
 20
358.952124
 30
0.0
 11
206.638561
 21
361.780874
 31
0.0
  0
TEXT
  5
404
100
AcDbEntity
  8
LAY-6
  6
CONTINUOUS
 62
     2
100
AcDbText
 10
213.3
 20
389.7
 30
0.0
 40
5.0
  1
４－Ｍ６×２０バネ座金組込六角穴付きボルト
 41
0.672
  7
EXCADSTD
 72
     5
 11
297.3
 21
389.7
 31
0.0
100
AcDbText
  0
TEXT
  5
405
100
AcDbEntity
  8
LAY-6
  6
CONTINUOUS
 62
     2
100
AcDbText
 10
655.549836
 20
336.7
 30
0.0
 40
5.0
  1
２４
 41
0.672
  7
EXCADSTD
 72
     5
 11
662.882636
 21
336.7
 31
0.0
100
AcDbText
  0
LINE
  5
406
100
AcDbEntity
  8
LAY-6
  6
CONTINUOUS
 62
     1
100
AcDbLine
 10
647.549836
 20
330.552063
 30
0.0
 11
647.549836
 21
337.7
 31
0.0
  0
LINE
  5
407
100
AcDbEntity
  8
LAY-6
  6
CONTINUOUS
 62
     1
100
AcDbLine
 10
671.549836
 20
330.552063
 30
0.0
 11
671.549836
 21
337.7
 31
0.0
  0
LINE
  5
408
100
AcDbEntity
  8
LAY-6
  6
CONTINUOUS
 62
     1
100
AcDbLine
 10
647.549836
 20
336.2
 30
0.0
 11
671.549836
 21
336.2
 31
0.0
  0
LINE
  5
409
100
AcDbEntity
  8
LAY-6
  6
CONTINUOUS
 62
     1
100
AcDbLine
 10
650.549836
 20
336.7
 30
0.0
 11
647.549836
 21
336.2
 31
0.0
  0
LINE
  5
40A
100
AcDbEntity
  8
LAY-6
  6
CONTINUOUS
 62
     1
100
AcDbLine
 10
647.549836
 20
336.2
 30
0.0
 11
650.549836
 21
335.7
 31
0.0
  0
LINE
  5
40B
100
AcDbEntity
  8
LAY-6
  6
CONTINUOUS
 62
     1
100
AcDbLine
 10
668.549836
 20
335.7
 30
0.0
 11
671.549836
 21
336.2
 31
0.0
  0
LINE
  5
40C
100
AcDbEntity
  8
LAY-6
  6
CONTINUOUS
 62
     1
100
AcDbLine
 10
671.549836
 20
336.2
 30
0.0
 11
668.549836
 21
336.7
 31
0.0
  0
TEXT
  5
40D
100
AcDbEntity
  8
LAY-6
  6
CONTINUOUS
 62
     2
100
AcDbText
 10
656.149835
 20
295.8
 30
0.0
 40
5.0
  1
１６０
 41
0.672
  7
EXCADSTD
 72
     5
 11
668.149835
 21
295.8
 31
0.0
100
AcDbText
  0
LINE
  5
40E
100
AcDbEntity
  8
LAY-6
  6
CONTINUOUS
 62
     1
100
AcDbLine
 10
579.54986
 20
313.952087
 30
0.0
 11
579.54986
 21
293.8
 31
0.0
  0
LINE
  5
40F
100
AcDbEntity
  8
LAY-6
  6
CONTINUOUS
 62
     1
100
AcDbLine
 10
739.549811
 20
313.952087
 30
0.0
 11
739.549811
 21
293.8
 31
0.0
  0
LINE
  5
410
100
AcDbEntity
  8
LAY-6
  6
CONTINUOUS
 62
     1
100
AcDbLine
 10
579.54986
 20
295.3
 30
0.0
 11
739.549811
 21
295.3
 31
0.0
  0
LINE
  5
411
100
AcDbEntity
  8
LAY-6
  6
CONTINUOUS
 62
     1
100
AcDbLine
 10
582.54986
 20
295.8
 30
0.0
 11
579.54986
 21
295.3
 31
0.0
  0
LINE
  5
412
100
AcDbEntity
  8
LAY-6
  6
CONTINUOUS
 62
     1
100
AcDbLine
 10
579.54986
 20
295.3
 30
0.0
 11
582.54986
 21
294.8
 31
0.0
  0
LINE
  5
413
100
AcDbEntity
  8
LAY-6
  6
CONTINUOUS
 62
     1
100
AcDbLine
 10
736.549811
 20
294.8
 30
0.0
 11
739.549811
 21
295.3
 31
0.0
  0
LINE
  5
414
100
AcDbEntity
  8
LAY-6
  6
CONTINUOUS
 62
     1
100
AcDbLine
 10
739.549811
 20
295.3
 30
0.0
 11
736.549811
 21
295.8
 31
0.0
  0
TEXT
  5
415
100
AcDbEntity
  8
LAY-6
  6
CONTINUOUS
 62
     2
100
AcDbText
 10
656.149836
 20
284.8
 30
0.0
 40
5.0
  1
１７８
 41
0.672
  7
EXCADSTD
 72
     5
 11
668.149836
 21
284.8
 31
0.0
100
AcDbText
  0
LINE
  5
416
100
AcDbEntity
  8
LAY-6
  6
CONTINUOUS
 62
     1
100
AcDbLine
 10
570.549836
 20
312.752075
 30
0.0
 11
570.549836
 21
282.8
 31
0.0
  0
LINE
  5
417
100
AcDbEntity
  8
LAY-6
  6
CONTINUOUS
 62
     1
100
AcDbLine
 10
748.549836
 20
312.752075
 30
0.0
 11
748.549836
 21
282.8
 31
0.0
  0
LINE
  5
418
100
AcDbEntity
  8
LAY-6
  6
CONTINUOUS
 62
     1
100
AcDbLine
 10
570.549836
 20
284.3
 30
0.0
 11
748.549836
 21
284.3
 31
0.0
  0
LINE
  5
419
100
AcDbEntity
  8
LAY-6
  6
CONTINUOUS
 62
     1
100
AcDbLine
 10
573.549836
 20
284.8
 30
0.0
 11
570.549836
 21
284.3
 31
0.0
  0
LINE
  5
41A
100
AcDbEntity
  8
LAY-6
  6
CONTINUOUS
 62
     1
100
AcDbLine
 10
570.549836
 20
284.3
 30
0.0
 11
573.549836
 21
283.8
 31
0.0
  0
LINE
  5
41B
100
AcDbEntity
  8
LAY-6
  6
CONTINUOUS
 62
     1
100
AcDbLine
 10
745.549836
 20
283.8
 30
0.0
 11
748.549836
 21
284.3
 31
0.0
  0
LINE
  5
41C
100
AcDbEntity
  8
LAY-6
  6
CONTINUOUS
 62
     1
100
AcDbLine
 10
748.549836
 20
284.3
 30
0.0
 11
745.549836
 21
284.8
 31
0.0
  0
TEXT
  5
41D
100
AcDbEntity
  8
LAY-6
  6
CONTINUOUS
 62
     2
100
AcDbText
 10
705.4
 20
320.052063
 30
0.0
 40
5.0
  1
１０
 50
90.0
 41
0.672
  7
EXCADSTD
 72
     5
 11
705.4
 21
327.384863
 31
0.0
100
AcDbText
  0
LINE
  5
41E
100
AcDbEntity
  8
LAY-6
  6
CONTINUOUS
 62
     1
100
AcDbLine
 10
670.049836
 20
329.052063
 30
0.0
 11
707.4
 21
329.052063
 31
0.0
  0
LINE
  5
41F
100
AcDbEntity
  8
LAY-6
  6
CONTINUOUS
 62
     1
100
AcDbLine
 10
705.9
 20
319.052063
 30
0.0
 11
705.9
 21
329.052063
 31
0.0
  0
LINE
  5
420
100
AcDbEntity
  8
LAY-6
  6
CONTINUOUS
 62
     1
100
AcDbLine
 10
705.4
 20
322.052063
 30
0.0
 11
705.9
 21
319.052063
 31
0.0
  0
LINE
  5
421
100
AcDbEntity
  8
LAY-6
  6
CONTINUOUS
 62
     1
100
AcDbLine
 10
705.9
 20
319.052063
 30
0.0
 11
706.4
 21
322.052063
 31
0.0
  0
LINE
  5
422
100
AcDbEntity
  8
LAY-6
  6
CONTINUOUS
 62
     1
100
AcDbLine
 10
706.4
 20
326.052063
 30
0.0
 11
705.9
 21
329.052063
 31
0.0
  0
LINE
  5
423
100
AcDbEntity
  8
LAY-6
  6
CONTINUOUS
 62
     1
100
AcDbLine
 10
705.9
 20
329.052063
 30
0.0
 11
705.4
 21
326.052063
 31
0.0
  0
TEXT
  5
424
100
AcDbEntity
  8
LAY-6
  6
CONTINUOUS
 62
     2
100
AcDbText
 10
705.4
 20
335.052063
 30
0.0
 40
5.0
  1
２０
 50
90.0
 41
0.672
  7
EXCADSTD
 72
     5
 11
705.4
 21
342.384863
 31
0.0
100
AcDbText
  0
LINE
  5
425
100
AcDbEntity
  8
LAY-6
  6
CONTINUOUS
 62
     1
100
AcDbLine
 10
705.9
 20
329.052063
 30
0.0
 11
705.9
 21
349.052063
 31
0.0
  0
LINE
  5
426
100
AcDbEntity
  8
LAY-6
  6
CONTINUOUS
 62
     1
100
AcDbLine
 10
705.4
 20
332.052063
 30
0.0
 11
705.9
 21
329.052063
 31
0.0
  0
LINE
  5
427
100
AcDbEntity
  8
LAY-6
  6
CONTINUOUS
 62
     1
100
AcDbLine
 10
705.9
 20
329.052063
 30
0.0
 11
706.4
 21
332.052063
 31
0.0
  0
LINE
  5
428
100
AcDbEntity
  8
LAY-6
  6
CONTINUOUS
 62
     1
100
AcDbLine
 10
706.4
 20
346.052063
 30
0.0
 11
705.9
 21
349.052063
 31
0.0
  0
LINE
  5
429
100
AcDbEntity
  8
LAY-6
  6
CONTINUOUS
 62
     1
100
AcDbLine
 10
705.9
 20
349.052063
 30
0.0
 11
705.4
 21
346.052063
 31
0.0
  0
TEXT
  5
42A
100
AcDbEntity
  8
LAY-6
  6
CONTINUOUS
 62
     2
100
AcDbText
 10
762.4
 20
268.452087
 30
0.0
 40
5.0
  1
３
 50
90.0
 41
0.672
  7
EXCADSTD
 72
     5
 11
762.4
 21
271.652087
 31
0.0
100
AcDbText
  0
LINE
  5
42B
100
AcDbEntity
  8
LAY-6
  6
CONTINUOUS
 62
     1
100
AcDbLine
 10
729.549811
 20
271.952087
 30
0.0
 11
764.4
 21
271.952087
 31
0.0
  0
LINE
  5
42C
100
AcDbEntity
  8
LAY-6
  6
CONTINUOUS
 62
     1
100
AcDbLine
 10
762.9
 20
263.952087
 30
0.0
 11
762.9
 21
276.952087
 31
0.0
  0
LINE
  5
42D
100
AcDbEntity
  8
LAY-6
  6
CONTINUOUS
 62
     1
100
AcDbLine
 10
763.4
 20
265.952087
 30
0.0
 11
762.9
 21
268.952087
 31
0.0
  0
LINE
  5
42E
100
AcDbEntity
  8
LAY-6
  6
CONTINUOUS
 62
     1
100
AcDbLine
 10
762.9
 20
268.952087
 30
0.0
 11
762.4
 21
265.952087
 31
0.0
  0
LINE
  5
42F
100
AcDbEntity
  8
LAY-6
  6
CONTINUOUS
 62
     1
100
AcDbLine
 10
762.4
 20
274.952087
 30
0.0
 11
762.9
 21
271.952087
 31
0.0
  0
LINE
  5
430
100
AcDbEntity
  8
LAY-6
  6
CONTINUOUS
 62
     1
100
AcDbLine
 10
762.9
 20
271.952087
 30
0.0
 11
763.4
 21
274.952087
 31
0.0
  0
TEXT
  5
431
100
AcDbEntity
  8
LAY-6
  6
CONTINUOUS
 62
     2
100
AcDbText
 10
762.4
 20
287.752075
 30
0.0
 40
5.0
  1
４５.６
 50
90.0
 41
0.616
  7
EXCADSTD
 72
     5
 11
762.4
 21
301.752075
 31
0.0
100
AcDbText
  0
LINE
  5
432
100
AcDbEntity
  8
LAY-6
  6
CONTINUOUS
 62
     1
100
AcDbLine
 10
762.9
 20
271.952087
 30
0.0
 11
762.9
 21
317.552063
 31
0.0
  0
LINE
  5
433
100
AcDbEntity
  8
LAY-6
  6
CONTINUOUS
 62
     1
100
AcDbLine
 10
762.4
 20
274.952087
 30
0.0
 11
762.9
 21
271.952087
 31
0.0
  0
LINE
  5
434
100
AcDbEntity
  8
LAY-6
  6
CONTINUOUS
 62
     1
100
AcDbLine
 10
762.9
 20
271.952087
 30
0.0
 11
763.4
 21
274.952087
 31
0.0
  0
LINE
  5
435
100
AcDbEntity
  8
LAY-6
  6
CONTINUOUS
 62
     1
100
AcDbLine
 10
763.4
 20
314.552063
 30
0.0
 11
762.9
 21
317.552063
 31
0.0
  0
LINE
  5
436
100
AcDbEntity
  8
LAY-6
  6
CONTINUOUS
 62
     1
100
AcDbLine
 10
762.9
 20
317.552063
 30
0.0
 11
762.4
 21
314.552063
 31
0.0
  0
TEXT
  5
437
100
AcDbEntity
  8
LAY-6
  6
CONTINUOUS
 62
     2
100
AcDbText
 10
761.9
 20
325.702063
 30
0.0
 40
5.0
  1
１.５
 50
90.0
 41
0.595556
  7
EXCADSTD
 72
     5
 11
761.9
 21
335.702063
 31
0.0
100
AcDbText
  0
TEXT
  5
438
100
AcDbEntity
  8
LAY-6
  6
CONTINUOUS
 62
     2
100
AcDbText
 10
761.9
 20
335.702063
 30
0.0
 40
5.0
  1
ｔ
 50
90.0
 41
0.672
  7
EXCADSTD
 72
     5
 11
761.9
 21
338.902063
 31
0.0
100
AcDbText
  0
LINE
  5
439
100
AcDbEntity
  8
LAY-6
  6
CONTINUOUS
 62
     1
100
AcDbLine
 10
762.9
 20
312.552063
 30
0.0
 11
762.9
 21
324.052063
 31
0.0
  0
LINE
  5
43A
100
AcDbEntity
  8
LAY-6
  6
CONTINUOUS
 62
     1
100
AcDbLine
 10
763.4
 20
314.552063
 30
0.0
 11
762.9
 21
317.552063
 31
0.0
  0
LINE
  5
43B
100
AcDbEntity
  8
LAY-6
  6
CONTINUOUS
 62
     1
100
AcDbLine
 10
762.9
 20
317.552063
 30
0.0
 11
762.4
 21
314.552063
 31
0.0
  0
LINE
  5
43C
100
AcDbEntity
  8
LAY-6
  6
CONTINUOUS
 62
     1
100
AcDbLine
 10
762.4
 20
322.052063
 30
0.0
 11
762.9
 21
319.052063
 31
0.0
  0
LINE
  5
43D
100
AcDbEntity
  8
LAY-6
  6
CONTINUOUS
 62
     1
100
AcDbLine
 10
762.9
 20
319.052063
 30
0.0
 11
763.4
 21
322.052063
 31
0.0
  0
TEXT
  5
43E
100
AcDbEntity
  8
LAY-6
  6
CONTINUOUS
 62
     2
100
AcDbText
 10
93.721344
 20
199.5
 30
0.0
 40
5.0
  1
２０
 41
0.672
  7
EXCADSTD
 72
     5
 11
101.054144
 21
199.5
 31
0.0
100
AcDbText
  0
LINE
  5
43F
100
AcDbEntity
  8
LAY-6
  6
CONTINUOUS
 62
     1
100
AcDbLine
 10
87.721344
 20
172.552078
 30
0.0
 11
87.721344
 21
200.5
 31
0.0
  0
LINE
  5
440
100
AcDbEntity
  8
LAY-6
  6
CONTINUOUS
 62
     1
100
AcDbLine
 10
107.721344
 20
177.1
 30
0.0
 11
107.721344
 21
200.5
 31
0.0
  0
LINE
  5
441
100
AcDbEntity
  8
LAY-6
  6
CONTINUOUS
 62
     1
100
AcDbLine
 10
87.721344
 20
199.0
 30
0.0
 11
107.721344
 21
199.0
 31
0.0
  0
LINE
  5
442
100
AcDbEntity
  8
LAY-6
  6
CONTINUOUS
 62
     1
100
AcDbLine
 10
90.721344
 20
199.5
 30
0.0
 11
87.721344
 21
199.0
 31
0.0
  0
LINE
  5
443
100
AcDbEntity
  8
LAY-6
  6
CONTINUOUS
 62
     1
100
AcDbLine
 10
87.721344
 20
199.0
 30
0.0
 11
90.721344
 21
198.5
 31
0.0
  0
LINE
  5
444
100
AcDbEntity
  8
LAY-6
  6
CONTINUOUS
 62
     1
100
AcDbLine
 10
104.721344
 20
198.5
 30
0.0
 11
107.721344
 21
199.0
 31
0.0
  0
LINE
  5
445
100
AcDbEntity
  8
LAY-6
  6
CONTINUOUS
 62
     1
100
AcDbLine
 10
107.721344
 20
199.0
 30
0.0
 11
104.721344
 21
199.5
 31
0.0
  0
TEXT
  5
446
100
AcDbEntity
  8
LAY-6
  6
CONTINUOUS
 62
     2
100
AcDbText
 10
116.971344
 20
199.5
 30
0.0
 40
5.0
  1
３２.５
 41
0.616
  7
EXCADSTD
 72
     5
 11
130.971344
 21
199.5
 31
0.0
100
AcDbText
  0
LINE
  5
447
100
AcDbEntity
  8
LAY-6
  6
CONTINUOUS
 62
     1
100
AcDbLine
 10
140.221344
 20
165.0
 30
0.0
 11
140.221344
 21
200.5
 31
0.0
  0
LINE
  5
448
100
AcDbEntity
  8
LAY-6
  6
CONTINUOUS
 62
     1
100
AcDbLine
 10
107.721344
 20
199.0
 30
0.0
 11
140.221344
 21
199.0
 31
0.0
  0
LINE
  5
449
100
AcDbEntity
  8
LAY-6
  6
CONTINUOUS
 62
     1
100
AcDbLine
 10
110.721344
 20
199.5
 30
0.0
 11
107.721344
 21
199.0
 31
0.0
  0
LINE
  5
44A
100
AcDbEntity
  8
LAY-6
  6
CONTINUOUS
 62
     1
100
AcDbLine
 10
107.721344
 20
199.0
 30
0.0
 11
110.721344
 21
198.5
 31
0.0
  0
LINE
  5
44B
100
AcDbEntity
  8
LAY-6
  6
CONTINUOUS
 62
     1
100
AcDbLine
 10
137.221344
 20
198.5
 30
0.0
 11
140.221344
 21
199.0
 31
0.0
  0
LINE
  5
44C
100
AcDbEntity
  8
LAY-6
  6
CONTINUOUS
 62
     1
100
AcDbLine
 10
140.221344
 20
199.0
 30
0.0
 11
137.221344
 21
199.5
 31
0.0
  0
TEXT
  5
44D
100
AcDbEntity
  8
LAY-6
  6
CONTINUOUS
 62
     2
100
AcDbText
 10
148.721344
 20
199.5
 30
0.0
 40
5.0
  1
２５
 41
0.672
  7
EXCADSTD
 72
     5
 11
156.054144
 21
199.5
 31
0.0
100
AcDbText
  0
LINE
  5
44E
100
AcDbEntity
  8
LAY-6
  6
CONTINUOUS
 62
     1
100
AcDbLine
 10
165.221344
 20
177.1
 30
0.0
 11
165.221344
 21
200.5
 31
0.0
  0
LINE
  5
44F
100
AcDbEntity
  8
LAY-6
  6
CONTINUOUS
 62
     1
100
AcDbLine
 10
140.221344
 20
199.0
 30
0.0
 11
165.221344
 21
199.0
 31
0.0
  0
LINE
  5
450
100
AcDbEntity
  8
LAY-6
  6
CONTINUOUS
 62
     1
100
AcDbLine
 10
143.221344
 20
199.5
 30
0.0
 11
140.221344
 21
199.0
 31
0.0
  0
LINE
  5
451
100
AcDbEntity
  8
LAY-6
  6
CONTINUOUS
 62
     1
100
AcDbLine
 10
140.221344
 20
199.0
 30
0.0
 11
143.221344
 21
198.5
 31
0.0
  0
LINE
  5
452
100
AcDbEntity
  8
LAY-6
  6
CONTINUOUS
 62
     1
100
AcDbLine
 10
162.221344
 20
198.5
 30
0.0
 11
165.221344
 21
199.0
 31
0.0
  0
LINE
  5
453
100
AcDbEntity
  8
LAY-6
  6
CONTINUOUS
 62
     1
100
AcDbLine
 10
165.221344
 20
199.0
 30
0.0
 11
162.221344
 21
199.5
 31
0.0
  0
TEXT
  5
454
100
AcDbEntity
  8
LAY-6
  6
CONTINUOUS
 62
     2
100
AcDbText
 10
181.221344
 20
199.5
 30
0.0
 40
5.0
  1
４０
 41
0.672
  7
EXCADSTD
 72
     5
 11
188.554144
 21
199.5
 31
0.0
100
AcDbText
  0
LINE
  5
455
100
AcDbEntity
  8
LAY-6
  6
CONTINUOUS
 62
     1
100
AcDbLine
 10
205.221344
 20
165.0
 30
0.0
 11
205.221344
 21
200.5
 31
0.0
  0
LINE
  5
456
100
AcDbEntity
  8
LAY-6
  6
CONTINUOUS
 62
     1
100
AcDbLine
 10
165.221344
 20
199.0
 30
0.0
 11
205.221344
 21
199.0
 31
0.0
  0
LINE
  5
457
100
AcDbEntity
  8
LAY-6
  6
CONTINUOUS
 62
     1
100
AcDbLine
 10
168.221344
 20
199.5
 30
0.0
 11
165.221344
 21
199.0
 31
0.0
  0
LINE
  5
458
100
AcDbEntity
  8
LAY-6
  6
CONTINUOUS
 62
     1
100
AcDbLine
 10
165.221344
 20
199.0
 30
0.0
 11
168.221344
 21
198.5
 31
0.0
  0
LINE
  5
459
100
AcDbEntity
  8
LAY-6
  6
CONTINUOUS
 62
     1
100
AcDbLine
 10
202.221344
 20
198.5
 30
0.0
 11
205.221344
 21
199.0
 31
0.0
  0
LINE
  5
45A
100
AcDbEntity
  8
LAY-6
  6
CONTINUOUS
 62
     1
100
AcDbLine
 10
205.221344
 20
199.0
 30
0.0
 11
202.221344
 21
199.5
 31
0.0
  0
TEXT
  5
45B
100
AcDbEntity
  8
LAY-6
  6
CONTINUOUS
 62
     2
100
AcDbText
 10
221.221344
 20
199.5
 30
0.0
 40
5.0
  1
４０
 41
0.672
  7
EXCADSTD
 72
     5
 11
228.554144
 21
199.5
 31
0.0
100
AcDbText
  0
LINE
  5
45C
100
AcDbEntity
  8
LAY-6
  6
CONTINUOUS
 62
     1
100
AcDbLine
 10
245.221344
 20
177.1
 30
0.0
 11
245.221344
 21
200.5
 31
0.0
  0
LINE
  5
45D
100
AcDbEntity
  8
LAY-6
  6
CONTINUOUS
 62
     1
100
AcDbLine
 10
205.221344
 20
199.0
 30
0.0
 11
245.221344
 21
199.0
 31
0.0
  0
LINE
  5
45E
100
AcDbEntity
  8
LAY-6
  6
CONTINUOUS
 62
     1
100
AcDbLine
 10
208.221344
 20
199.5
 30
0.0
 11
205.221344
 21
199.0
 31
0.0
  0
LINE
  5
45F
100
AcDbEntity
  8
LAY-6
  6
CONTINUOUS
 62
     1
100
AcDbLine
 10
205.221344
 20
199.0
 30
0.0
 11
208.221344
 21
198.5
 31
0.0
  0
LINE
  5
460
100
AcDbEntity
  8
LAY-6
  6
CONTINUOUS
 62
     1
100
AcDbLine
 10
242.221344
 20
198.5
 30
0.0
 11
245.221344
 21
199.0
 31
0.0
  0
LINE
  5
461
100
AcDbEntity
  8
LAY-6
  6
CONTINUOUS
 62
     1
100
AcDbLine
 10
245.221344
 20
199.0
 30
0.0
 11
242.221344
 21
199.5
 31
0.0
  0
LINE
  5
462
100
AcDbEntity
  8
LAY-6
  6
CONTINUOUS
 62
     1
100
AcDbLine
 10
255.721344
 20
172.552078
 30
0.0
 11
255.721344
 21
191.0
 31
0.0
  0
TEXT
  5
463
100
AcDbEntity
  8
LAY-6
  6
CONTINUOUS
 62
     2
100
AcDbText
 10
165.721344
 20
206.5
 30
0.0
 40
5.0
  1
１６８
 41
0.672
  7
EXCADSTD
 72
     5
 11
177.721344
 21
206.5
 31
0.0
100
AcDbText
  0
LINE
  5
464
100
AcDbEntity
  8
LAY-6
  6
CONTINUOUS
 62
     1
100
AcDbLine
 10
87.721344
 20
191.0
 30
0.0
 11
87.721344
 21
207.5
 31
0.0
  0
LINE
  5
465
100
AcDbEntity
  8
LAY-6
  6
CONTINUOUS
 62
     1
100
AcDbLine
 10
255.721344
 20
191.0
 30
0.0
 11
255.721344
 21
207.5
 31
0.0
  0
LINE
  5
466
100
AcDbEntity
  8
LAY-6
  6
CONTINUOUS
 62
     1
100
AcDbLine
 10
87.721344
 20
206.0
 30
0.0
 11
255.721344
 21
206.0
 31
0.0
  0
LINE
  5
467
100
AcDbEntity
  8
LAY-6
  6
CONTINUOUS
 62
     1
100
AcDbLine
 10
90.721344
 20
206.5
 30
0.0
 11
87.721344
 21
206.0
 31
0.0
  0
LINE
  5
468
100
AcDbEntity
  8
LAY-6
  6
CONTINUOUS
 62
     1
100
AcDbLine
 10
87.721344
 20
206.0
 30
0.0
 11
90.721344
 21
205.5
 31
0.0
  0
LINE
  5
469
100
AcDbEntity
  8
LAY-6
  6
CONTINUOUS
 62
     1
100
AcDbLine
 10
252.721344
 20
205.5
 30
0.0
 11
255.721344
 21
206.0
 31
0.0
  0
LINE
  5
46A
100
AcDbEntity
  8
LAY-6
  6
CONTINUOUS
 62
     1
100
AcDbLine
 10
255.721344
 20
206.0
 30
0.0
 11
252.721344
 21
206.5
 31
0.0
  0
TEXT
  5
46B
100
AcDbEntity
  8
LAY-6
  6
CONTINUOUS
 62
     2
100
AcDbText
 10
268.360229
 20
158.052078
 30
0.0
 40
5.0
  1
２４
 50
90.0
 41
0.672
  7
EXCADSTD
 72
     5
 11
268.360229
 21
165.384878
 31
0.0
100
AcDbText
  0
LINE
  5
46C
100
AcDbEntity
  8
LAY-6
  6
CONTINUOUS
 62
     1
100
AcDbLine
 10
254.221344
 20
174.052078
 30
0.0
 11
270.360229
 21
174.052078
 31
0.0
  0
LINE
  5
46D
100
AcDbEntity
  8
LAY-6
  6
CONTINUOUS
 62
     1
100
AcDbLine
 10
254.221344
 20
150.052078
 30
0.0
 11
270.360229
 21
150.052078
 31
0.0
  0
LINE
  5
46E
100
AcDbEntity
  8
LAY-6
  6
CONTINUOUS
 62
     1
100
AcDbLine
 10
268.860229
 20
174.052078
 30
0.0
 11
268.860229
 21
150.052078
 31
0.0
  0
LINE
  5
46F
100
AcDbEntity
  8
LAY-6
  6
CONTINUOUS
 62
     1
100
AcDbLine
 10
269.360229
 20
171.052078
 30
0.0
 11
268.860229
 21
174.052078
 31
0.0
  0
LINE
  5
470
100
AcDbEntity
  8
LAY-6
  6
CONTINUOUS
 62
     1
100
AcDbLine
 10
268.860229
 20
174.052078
 30
0.0
 11
268.360229
 21
171.052078
 31
0.0
  0
LINE
  5
471
100
AcDbEntity
  8
LAY-6
  6
CONTINUOUS
 62
     1
100
AcDbLine
 10
268.360229
 20
153.052078
 30
0.0
 11
268.860229
 21
150.052078
 31
0.0
  0
LINE
  5
472
100
AcDbEntity
  8
LAY-6
  6
CONTINUOUS
 62
     1
100
AcDbLine
 10
268.860229
 20
150.052078
 30
0.0
 11
269.360229
 21
153.052078
 31
0.0
  0
TEXT
  5
473
100
AcDbEntity
  8
LAY-6
  6
CONTINUOUS
 62
     2
100
AcDbText
 10
186.260229
 20
157.82621
 30
0.0
 40
5.0
  1
１０
 50
90.0
 41
0.672
  7
EXCADSTD
 72
     5
 11
186.260229
 21
165.15901
 31
0.0
100
AcDbText
  0
LINE
  5
474
100
AcDbEntity
  8
LAY-6
  6
CONTINUOUS
 62
     1
100
AcDbLine
 10
172.960229
 20
166.826202
 30
0.0
 11
188.260229
 21
166.826202
 31
0.0
  0
LINE
  5
475
100
AcDbEntity
  8
LAY-6
  6
CONTINUOUS
 62
     1
100
AcDbLine
 10
197.460229
 20
156.826218
 30
0.0
 11
185.260229
 21
156.826218
 31
0.0
  0
LINE
  5
476
100
AcDbEntity
  8
LAY-6
  6
CONTINUOUS
 62
     1
100
AcDbLine
 10
186.760229
 20
166.826202
 30
0.0
 11
186.760229
 21
156.826218
 31
0.0
  0
LINE
  5
477
100
AcDbEntity
  8
LAY-6
  6
CONTINUOUS
 62
     1
100
AcDbLine
 10
187.260229
 20
163.826202
 30
0.0
 11
186.760229
 21
166.826202
 31
0.0
  0
LINE
  5
478
100
AcDbEntity
  8
LAY-6
  6
CONTINUOUS
 62
     1
100
AcDbLine
 10
186.760229
 20
166.826202
 30
0.0
 11
186.260229
 21
163.826202
 31
0.0
  0
LINE
  5
479
100
AcDbEntity
  8
LAY-6
  6
CONTINUOUS
 62
     1
100
AcDbLine
 10
186.260229
 20
159.826218
 30
0.0
 11
186.760229
 21
156.826218
 31
0.0
  0
LINE
  5
47A
100
AcDbEntity
  8
LAY-6
  6
CONTINUOUS
 62
     1
100
AcDbLine
 10
186.760229
 20
156.826218
 30
0.0
 11
187.260229
 21
159.826218
 31
0.0
  0
TEXT
  5
47B
100
AcDbEntity
  8
LAY-6
  6
CONTINUOUS
 62
     2
100
AcDbText
 10
464.1
 20
550.0
 30
0.0
 40
5.0
  1
トッププレート　０．８ｔ
 41
0.672
  7
EXCADSTD
 72
     5
 11
512.1
 21
550.0
 31
0.0
100
AcDbText
  0
POLYLINE
  5
47C
100
AcDbEntity
  8
LAY-6
  6
CONTINUOUS
 62
     1
100
AcDb2dPolyline
 66
     1
 10
0.0
 20
0.0
 30
0.0
 70
   128
  0
VERTEX
  5
47D
100
AcDbEntity
  8
LAY-6
  6
CONTINUOUS
 62
     1
100
AcDbVertex
100
AcDb2dVertex
 10
445.8
 20
530.940918
 30
0.0
  0
VERTEX
  5
47E
100
AcDbEntity
  8
LAY-6
  6
CONTINUOUS
 62
     1
100
AcDbVertex
100
AcDb2dVertex
 10
462.9
 20
550.0
 30
0.0
  0
VERTEX
  5
47F
100
AcDbEntity
  8
LAY-6
  6
CONTINUOUS
 62
     1
100
AcDbVertex
100
AcDb2dVertex
 10
511.4
 20
550.0
 30
0.0
  0
SEQEND
  5
480
100
AcDbEntity
  8
LAY-6
  6
CONTINUOUS
 62
     1
  0
LINE
  5
481
100
AcDbEntity
  8
LAY-6
  6
CONTINUOUS
 62
     1
100
AcDbLine
 10
447.431287
 20
533.507804
 30
0.0
 11
445.8
 21
530.940918
 31
0.0
  0
LINE
  5
482
100
AcDbEntity
  8
LAY-6
  6
CONTINUOUS
 62
     1
100
AcDbLine
 10
445.8
 20
530.940918
 30
0.0
 11
448.175613
 21
532.839987
 31
0.0
  0
TEXT
  5
483
100
AcDbEntity
  8
LAY-6
  6
CONTINUOUS
 62
     2
100
AcDbText
 10
603.6
 20
327.552063
 30
0.0
 40
5.0
  1
６.５
 50
90.0
 41
0.595556
  7
EXCADSTD
 72
     5
 11
603.6
 21
337.552063
 31
0.0
100
AcDbText
  0
LINE
  5
484
100
AcDbEntity
  8
LAY-6
  6
CONTINUOUS
 62
     1
100
AcDbLine
 10
631.549836
 20
325.552063
 30
0.0
 11
603.1
 21
325.552063
 31
0.0
  0
LINE
  5
485
100
AcDbEntity
  8
LAY-6
  6
CONTINUOUS
 62
     1
100
AcDbLine
 10
604.1
 20
316.052063
 30
0.0
 11
604.1
 21
338.052063
 31
0.0
  0
LINE
  5
486
100
AcDbEntity
  8
LAY-6
  6
CONTINUOUS
 62
     1
100
AcDbLine
 10
604.6
 20
316.052063
 30
0.0
 11
604.1
 21
319.052063
 31
0.0
  0
LINE
  5
487
100
AcDbEntity
  8
LAY-6
  6
CONTINUOUS
 62
     1
100
AcDbLine
 10
604.1
 20
319.052063
 30
0.0
 11
603.6
 21
316.052063
 31
0.0
  0
LINE
  5
488
100
AcDbEntity
  8
LAY-6
  6
CONTINUOUS
 62
     1
100
AcDbLine
 10
603.6
 20
328.552063
 30
0.0
 11
604.1
 21
325.552063
 31
0.0
  0
LINE
  5
489
100
AcDbEntity
  8
LAY-6
  6
CONTINUOUS
 62
     1
100
AcDbLine
 10
604.1
 20
325.552063
 30
0.0
 11
604.6
 21
328.552063
 31
0.0
  0
TEXT
  5
48A
100
AcDbEntity
  8
LAY-6
  6
CONTINUOUS
 62
     2
100
AcDbText
 10
655.549836
 20
308.4
 30
0.0
 40
5.0
  1
５９
 41
0.672
  7
EXCADSTD
 72
     5
 11
662.882636
 21
308.4
 31
0.0
100
AcDbText
  0
LINE
  5
48B
100
AcDbEntity
  8
LAY-6
  6
CONTINUOUS
 62
     1
100
AcDbLine
 10
630.049836
 20
318.552063
 30
0.0
 11
630.049836
 21
306.9
 31
0.0
  0
LINE
  5
48C
100
AcDbEntity
  8
LAY-6
  6
CONTINUOUS
 62
     1
100
AcDbLine
 10
689.049836
 20
318.552063
 30
0.0
 11
689.049836
 21
306.9
 31
0.0
  0
LINE
  5
48D
100
AcDbEntity
  8
LAY-6
  6
CONTINUOUS
 62
     1
100
AcDbLine
 10
630.049836
 20
307.9
 30
0.0
 11
689.049836
 21
307.9
 31
0.0
  0
LINE
  5
48E
100
AcDbEntity
  8
LAY-6
  6
CONTINUOUS
 62
     1
100
AcDbLine
 10
633.049836
 20
308.4
 30
0.0
 11
630.049836
 21
307.9
 31
0.0
  0
LINE
  5
48F
100
AcDbEntity
  8
LAY-6
  6
CONTINUOUS
 62
     1
100
AcDbLine
 10
630.049836
 20
307.9
 30
0.0
 11
633.049836
 21
307.4
 31
0.0
  0
LINE
  5
490
100
AcDbEntity
  8
LAY-6
  6
CONTINUOUS
 62
     1
100
AcDbLine
 10
686.049836
 20
307.4
 30
0.0
 11
689.049836
 21
307.9
 31
0.0
  0
LINE
  5
491
100
AcDbEntity
  8
LAY-6
  6
CONTINUOUS
 62
     1
100
AcDbLine
 10
689.049836
 20
307.9
 30
0.0
 11
686.049836
 21
308.4
 31
0.0
  0
TEXT
  5
492
100
AcDbEntity
  8
LAY-6
  6
CONTINUOUS
 62
     2
100
AcDbText
 10
103.721344
 20
307.0
 30
0.0
 40
5.0
  1
６９
 41
0.672
  7
EXCADSTD
 72
     5
 11
111.054144
 21
307.0
 31
0.0
100
AcDbText
  0
LINE
  5
493
100
AcDbEntity
  8
LAY-6
  6
CONTINUOUS
 62
     1
100
AcDbLine
 10
73.221344
 20
318.552063
 30
0.0
 11
73.221344
 21
305.5
 31
0.0
  0
LINE
  5
494
100
AcDbEntity
  8
LAY-6
  6
CONTINUOUS
 62
     1
100
AcDbLine
 10
142.221344
 20
318.552063
 30
0.0
 11
142.221344
 21
305.5
 31
0.0
  0
LINE
  5
495
100
AcDbEntity
  8
LAY-6
  6
CONTINUOUS
 62
     1
100
AcDbLine
 10
73.221344
 20
306.5
 30
0.0
 11
142.221344
 21
306.5
 31
0.0
  0
LINE
  5
496
100
AcDbEntity
  8
LAY-6
  6
CONTINUOUS
 62
     1
100
AcDbLine
 10
76.221344
 20
307.0
 30
0.0
 11
73.221344
 21
306.5
 31
0.0
  0
LINE
  5
497
100
AcDbEntity
  8
LAY-6
  6
CONTINUOUS
 62
     1
100
AcDbLine
 10
73.221344
 20
306.5
 30
0.0
 11
76.221344
 21
306.0
 31
0.0
  0
LINE
  5
498
100
AcDbEntity
  8
LAY-6
  6
CONTINUOUS
 62
     1
100
AcDbLine
 10
139.221344
 20
306.0
 30
0.0
 11
142.221344
 21
306.5
 31
0.0
  0
LINE
  5
499
100
AcDbEntity
  8
LAY-6
  6
CONTINUOUS
 62
     1
100
AcDbLine
 10
142.221344
 20
306.5
 30
0.0
 11
139.221344
 21
307.0
 31
0.0
  0
TEXT
  5
49A
100
AcDbEntity
  8
LAY-6
  6
CONTINUOUS
 62
     2
100
AcDbText
 10
265.9
 20
339.052094
 30
0.0
 40
5.0
  1
１２
 50
90.0
 41
0.672
  7
EXCADSTD
 72
     5
 11
265.9
 21
346.384894
 31
0.0
100
AcDbText
  0
LINE
  5
49B
100
AcDbEntity
  8
LAY-6
  6
CONTINUOUS
 62
     1
100
AcDbLine
 10
254.721344
 20
337.052124
 30
0.0
 11
267.4
 21
337.052124
 31
0.0
  0
LINE
  5
49C
100
AcDbEntity
  8
LAY-6
  6
CONTINUOUS
 62
     1
100
AcDbLine
 10
254.721344
 20
349.052063
 30
0.0
 11
267.4
 21
349.052063
 31
0.0
  0
LINE
  5
49D
100
AcDbEntity
  8
LAY-6
  6
CONTINUOUS
 62
     1
100
AcDbLine
 10
266.4
 20
337.052124
 30
0.0
 11
266.4
 21
349.052063
 31
0.0
  0
LINE
  5
49E
100
AcDbEntity
  8
LAY-6
  6
CONTINUOUS
 62
     1
100
AcDbLine
 10
265.9
 20
340.052124
 30
0.0
 11
266.4
 21
337.052124
 31
0.0
  0
LINE
  5
49F
100
AcDbEntity
  8
LAY-6
  6
CONTINUOUS
 62
     1
100
AcDbLine
 10
266.4
 20
337.052124
 30
0.0
 11
266.9
 21
340.052124
 31
0.0
  0
LINE
  5
4A0
100
AcDbEntity
  8
LAY-6
  6
CONTINUOUS
 62
     1
100
AcDbLine
 10
266.9
 20
346.052063
 30
0.0
 11
266.4
 21
349.052063
 31
0.0
  0
LINE
  5
4A1
100
AcDbEntity
  8
LAY-6
  6
CONTINUOUS
 62
     1
100
AcDbLine
 10
266.4
 20
349.052063
 30
0.0
 11
265.9
 21
346.052063
 31
0.0
  0
TEXT
  5
4A2
100
AcDbEntity
  8
LAY-6
  6
CONTINUOUS
 62
     2
100
AcDbText
 10
22.1
 20
530.1
 30
0.0
 40
5.0
  1
裏板４．５ｔ以上（別途）
 41
0.672
  7
EXCADSTD
 72
     5
 11
70.1
 21
530.1
 31
0.0
100
AcDbText
  0
POLYLINE
  5
4A3
100
AcDbEntity
  8
LAY-6
  6
CONTINUOUS
 62
     1
100
AcDb2dPolyline
 66
     1
 10
0.0
 20
0.0
 30
0.0
 70
   128
  0
VERTEX
  5
4A4
100
AcDbEntity
  8
LAY-6
  6
CONTINUOUS
 62
     1
100
AcDbVertex
100
AcDb2dVertex
 10
76.7
 20
509.870972
 30
0.0
  0
VERTEX
  5
4A5
100
AcDbEntity
  8
LAY-6
  6
CONTINUOUS
 62
     1
100
AcDbVertex
100
AcDb2dVertex
 10
67.8
 20
530.1
 30
0.0
  0
VERTEX
  5
4A6
100
AcDbEntity
  8
LAY-6
  6
CONTINUOUS
 62
     1
100
AcDbVertex
100
AcDb2dVertex
 10
21.4
 20
530.1
 30
0.0
  0
SEQEND
  5
4A7
100
AcDbEntity
  8
LAY-6
  6
CONTINUOUS
 62
     1
  0
LINE
  5
4A8
100
AcDbEntity
  8
LAY-6
  6
CONTINUOUS
 62
     1
100
AcDbLine
 10
75.589472
 20
511.567391
 30
0.0
 11
76.7
 21
509.870972
 31
0.0
  0
LINE
  5
4A9
100
AcDbEntity
  8
LAY-6
  6
CONTINUOUS
 62
     1
100
AcDbLine
 10
76.7
 20
509.870972
 30
0.0
 11
76.199691
 21
511.835864
 31
0.0
  0
TEXT
  5
4AA
100
AcDbEntity
  8
LAY-6
  6
CONTINUOUS
 62
     2
100
AcDbText
 10
111.9
 20
442.1
 30
0.0
 40
5.0
  1
裏板４.５ｔ以上（別途）
 41
0.654222
  7
EXCADSTD
 72
     5
 11
157.9
 21
442.1
 31
0.0
100
AcDbText
  0
POLYLINE
  5
4AB
100
AcDbEntity
  8
LAY-6
  6
CONTINUOUS
 62
     1
100
AcDb2dPolyline
 66
     1
 10
0.0
 20
0.0
 30
0.0
 70
   128
  0
VERTEX
  5
4AC
100
AcDbEntity
  8
LAY-6
  6
CONTINUOUS
 62
     1
100
AcDbVertex
100
AcDb2dVertex
 10
167.3
 20
485.870972
 30
0.0
  0
VERTEX
  5
4AD
100
AcDbEntity
  8
LAY-6
  6
CONTINUOUS
 62
     1
100
AcDbVertex
100
AcDb2dVertex
 10
157.9
 20
442.1
 30
0.0
  0
VERTEX
  5
4AE
100
AcDbEntity
  8
LAY-6
  6
CONTINUOUS
 62
     1
100
AcDbVertex
100
AcDb2dVertex
 10
110.0
 20
442.1
 30
0.0
  0
SEQEND
  5
4AF
100
AcDbEntity
  8
LAY-6
  6
CONTINUOUS
 62
     1
  0
LINE
  5
4B0
100
AcDbEntity
  8
LAY-6
  6
CONTINUOUS
 62
     1
100
AcDbLine
 10
167.205969
 20
483.845566
 30
0.0
 11
167.3
 21
485.870972
 31
0.0
  0
LINE
  5
4B1
100
AcDbEntity
  8
LAY-6
  6
CONTINUOUS
 62
     1
100
AcDbLine
 10
167.3
 20
485.870972
 30
0.0
 11
166.554163
 21
483.985544
 31
0.0
  0
TEXT
  5
4B2
100
AcDbEntity
  8
LAY-6
  6
CONTINUOUS
 62
     2
100
AcDbText
 10
101.72136
 20
557.0
 30
0.0
 40
5.0
  1
φ
 41
0.672
  7
EXCADSTD
 72
     5
 11
104.92136
 21
557.0
 31
0.0
100
AcDbText
  0
TEXT
  5
4B3
100
AcDbEntity
  8
LAY-6
  6
CONTINUOUS
 62
     2
100
AcDbText
 10
105.72136
 20
557.0
 30
0.0
 40
5.0
  1
１９
 41
0.672
  7
EXCADSTD
 72
     5
 11
113.05416
 21
557.0
 31
0.0
100
AcDbText
  0
LINE
  5
4B4
100
AcDbEntity
  8
LAY-6
  6
CONTINUOUS
 62
     1
100
AcDbLine
 10
98.271363
 20
537.871033
 30
0.0
 11
98.271363
 21
557.5
 31
0.0
  0
LINE
  5
4B5
100
AcDbEntity
  8
LAY-6
  6
CONTINUOUS
 62
     1
100
AcDbLine
 10
117.171357
 20
537.871033
 30
0.0
 11
117.171357
 21
557.5
 31
0.0
  0
LINE
  5
4B6
100
AcDbEntity
  8
LAY-6
  6
CONTINUOUS
 62
     1
100
AcDbLine
 10
98.271363
 20
556.5
 30
0.0
 11
117.171357
 21
556.5
 31
0.0
  0
LINE
  5
4B7
100
AcDbEntity
  8
LAY-6
  6
CONTINUOUS
 62
     1
100
AcDbLine
 10
101.271363
 20
557.0
 30
0.0
 11
98.271363
 21
556.5
 31
0.0
  0
LINE
  5
4B8
100
AcDbEntity
  8
LAY-6
  6
CONTINUOUS
 62
     1
100
AcDbLine
 10
98.271363
 20
556.5
 30
0.0
 11
101.271363
 21
556.0
 31
0.0
  0
LINE
  5
4B9
100
AcDbEntity
  8
LAY-6
  6
CONTINUOUS
 62
     1
100
AcDbLine
 10
114.171357
 20
556.0
 30
0.0
 11
117.171357
 21
556.5
 31
0.0
  0
LINE
  5
4BA
100
AcDbEntity
  8
LAY-6
  6
CONTINUOUS
 62
     1
100
AcDbLine
 10
117.171357
 20
556.5
 30
0.0
 11
114.171357
 21
557.0
 31
0.0
  0
LINE
  5
4BB
100
AcDbEntity
  8
LAY-6
  6
CONTINUOUS
 62
     1
100
AcDbLine
 10
99.221344
 20
480.070972
 30
0.0
 11
99.221344
 21
454.1
 31
0.0
  0
LINE
  5
4BC
100
AcDbEntity
  8
LAY-6
  6
CONTINUOUS
 62
     1
100
AcDbLine
 10
116.221344
 20
480.070972
 30
0.0
 11
116.221344
 21
454.1
 31
0.0
  0
TEXT
  5
4BD
100
AcDbEntity
  8
LAY-6
  6
CONTINUOUS
 62
     2
100
AcDbText
 10
119.071344
 20
455.6
 30
0.0
 40
5.0
  1
φ
 41
0.588
  7
EXCADSTD
 72
     5
 11
121.871344
 21
455.6
 31
0.0
100
AcDbText
  0
TEXT
  5
4BE
100
AcDbEntity
  8
LAY-6
  6
CONTINUOUS
 62
     2
100
AcDbText
 10
122.571344
 20
455.6
 30
0.0
 40
5.0
  1
１７．５
 41
0.588
  7
EXCADSTD
 72
     5
 11
136.571344
 21
455.6
 31
0.0
100
AcDbText
  0
LINE
  5
4BF
100
AcDbEntity
  8
LAY-6
  6
CONTINUOUS
 62
     1
100
AcDbLine
 10
93.7
 20
455.1
 30
0.0
 11
136.0
 21
455.1
 31
0.0
  0
LINE
  5
4C0
100
AcDbEntity
  8
LAY-6
  6
CONTINUOUS
 62
     1
100
AcDbLine
 10
96.221344
 20
454.6
 30
0.0
 11
99.221344
 21
455.1
 31
0.0
  0
LINE
  5
4C1
100
AcDbEntity
  8
LAY-6
  6
CONTINUOUS
 62
     1
100
AcDbLine
 10
99.221344
 20
455.1
 30
0.0
 11
96.221344
 21
455.6
 31
0.0
  0
LINE
  5
4C2
100
AcDbEntity
  8
LAY-6
  6
CONTINUOUS
 62
     1
100
AcDbLine
 10
119.221344
 20
455.6
 30
0.0
 11
116.221344
 21
455.1
 31
0.0
  0
LINE
  5
4C3
100
AcDbEntity
  8
LAY-6
  6
CONTINUOUS
 62
     1
100
AcDbLine
 10
116.221344
 20
455.1
 30
0.0
 11
119.221344
 21
454.6
 31
0.0
  0
TEXT
  5
4C4
100
AcDbEntity
  8
LAY-6
  6
CONTINUOUS
 62
     2
100
AcDbText
 10
266.5
 20
369.3
 30
0.0
 40
5.0
  1
裏板４．５ｔ以上（別途）
 41
0.672
  7
EXCADSTD
 72
     5
 11
314.5
 21
369.3
 31
0.0
100
AcDbText
  0
POLYLINE
  5
4C5
100
AcDbEntity
  8
LAY-6
  6
CONTINUOUS
 62
     1
100
AcDb2dPolyline
 66
     1
 10
0.0
 20
0.0
 30
0.0
 70
   128
  0
VERTEX
  5
4C6
100
AcDbEntity
  8
LAY-6
  6
CONTINUOUS
 62
     1
100
AcDbVertex
100
AcDb2dVertex
 10
262.2
 20
353.552063
 30
0.0
  0
VERTEX
  5
4C7
100
AcDbEntity
  8
LAY-6
  6
CONTINUOUS
 62
     1
100
AcDbVertex
100
AcDb2dVertex
 10
266.5
 20
369.3
 30
0.0
  0
VERTEX
  5
4C8
100
AcDbEntity
  8
LAY-6
  6
CONTINUOUS
 62
     1
100
AcDbVertex
100
AcDb2dVertex
 10
314.2
 20
369.3
 30
0.0
  0
SEQEND
  5
4C9
100
AcDbEntity
  8
LAY-6
  6
CONTINUOUS
 62
     1
  0
LINE
  5
4CA
100
AcDbEntity
  8
LAY-6
  6
CONTINUOUS
 62
     1
100
AcDbLine
 10
262.405256
 20
355.569235
 30
0.0
 11
262.2
 21
353.552063
 31
0.0
  0
LINE
  5
4CB
100
AcDbEntity
  8
LAY-6
  6
CONTINUOUS
 62
     1
100
AcDbLine
 10
262.2
 20
353.552063
 30
0.0
 11
263.048379
 21
355.393629
 31
0.0
  0
INSERT
  5
4CC
100
AcDbEntity
  8
LAY-6
  6
CONTINUOUS
 62
     0
100
AcDbBlockReference
  2
SYM-2
 10
72.0
 20
61.8
 30
0.0
  0
INSERT
  5
4CD
100
AcDbEntity
  8
LAY-6
  6
CONTINUOUS
 62
     0
100
AcDbBlockReference
  2
SYM-2
 10
127.5
 20
62.1
 30
0.0
  0
INSERT
  5
4CE
100
AcDbEntity
  8
LAY-6
  6
CONTINUOUS
 62
     0
100
AcDbBlockReference
  2
SYM-2
 10
215.2
 20
51.0
 30
0.0
  0
INSERT
  5
4CF
100
AcDbEntity
  8
LAY-6
  6
CONTINUOUS
 62
     0
100
AcDbBlockReference
  2
SYM-2
 10
272.9
 20
61.8
 30
0.0
  0
INSERT
  5
4D0
100
AcDbEntity
  8
LAY-6
  6
CONTINUOUS
 62
     0
100
AcDbBlockReference
  2
SYM-2
 10
418.7
 20
158.2
 30
0.0
 50
90.0
  0
INSERT
  5
4D1
100
AcDbEntity
  8
LAY-6
  6
CONTINUOUS
 62
     0
100
AcDbBlockReference
  2
SYM-2
 10
325.3
 20
541.5
 30
0.0
  0
INSERT
  5
4D2
100
AcDbEntity
  8
LAY-6
  6
CONTINUOUS
 62
     0
100
AcDbBlockReference
  2
SYM-2
 10
415.1
 20
542.1
 30
0.0
  0
INSERT
  5
4D3
100
AcDbEntity
  8
LAY-6
  6
CONTINUOUS
 62
     0
100
AcDbBlockReference
  2
SYM-2
 10
295.7
 20
507.1
 30
0.0
 50
90.0
  0
TEXT
  5
4D4
100
AcDbEntity
  8
LAY-6
  6
CONTINUOUS
 62
     2
100
AcDbText
 10
290.5
 20
558.7
 30
0.0
 40
6.0
  1
トップピボット（上枠側）
 41
0.672
  7
EXCADSTD
 72
     5
 11
348.100002
 21
558.7
 31
0.0
100
AcDbText
  0
TEXT
  5
4D5
100
AcDbEntity
  8
LAY-6
  6
CONTINUOUS
 62
     2
100
AcDbText
 10
299.9
 20
452.1
 30
0.0
 40
6.0
  1
トップピボット（ドア側）
 41
0.672
  7
EXCADSTD
 72
     5
 11
357.500002
 21
452.1
 31
0.0
100
AcDbText
  0
LINE
  5
4D6
100
AcDbEntity
  8
LAY-6
  6
CONTINUOUS
 62
     1
100
AcDbLine
 10
297.5
 20
558.7
 30
0.0
 11
355.5
 21
558.7
 31
0.0
  0
LINE
  5
4D7
100
AcDbEntity
  8
LAY-6
  6
CONTINUOUS
 62
     1
100
AcDbLine
 10
299.9
 20
451.5
 30
0.0
 11
357.5
 21
451.5
 31
0.0
  0
TEXT
  5
4D8
100
AcDbEntity
  8
LAY-6
  6
CONTINUOUS
 62
     2
100
AcDbText
 10
31.2
 20
552.4
 30
0.0
 40
6.0
  1
トップピボット
 41
0.672
  7
EXCADSTD
 72
     5
 11
64.800001
 21
552.4
 31
0.0
100
AcDbText
  0
TEXT
  5
4D9
100
AcDbEntity
  8
LAY-6
  6
CONTINUOUS
 62
     2
100
AcDbText
 10
337.0
 20
275.0
 30
0.0
 40
6.0
  1
セメントケース
 41
0.672
  7
EXCADSTD
 72
     5
 11
370.600001
 21
275.0
 31
0.0
100
AcDbText
  0
TEXT
  5
4DA
100
AcDbEntity
  8
LAY-6
  6
CONTINUOUS
 62
     2
100
AcDbText
 10
265.7
 20
504.5
 30
0.0
 40
6.0
  1
上 枠
 41
0.595556
  7
EXCADSTD
 72
     5
 11
277.7
 21
504.5
 31
0.0
100
AcDbText
  0
TEXT
  5
4DB
100
AcDbEntity
  8
LAY-6
  6
CONTINUOUS
 62
     2
100
AcDbText
 10
266.1
 20
484.4
 30
0.0
 40
6.0
  1
ド ア
 41
0.595556
  7
EXCADSTD
 72
     5
 11
278.1
 21
484.4
 31
0.0
100
AcDbText
  0
TEXT
  5
4DC
100
AcDbEntity
  8
LAY-6
  6
CONTINUOUS
 62
     2
100
AcDbText
 10
33.3
 20
464.1
 30
0.0
 40
6.0
  1
竪　枠
 41
0.8
  7
EXCADVERT
 72
     3
 11
33.3
 21
446.1
 31
0.0
100
AcDbText
  0
TEXT
  5
4DD
100
AcDbEntity
  8
LAY-6
  6
CONTINUOUS
 62
     2
100
AcDbText
 10
421.0
 20
308.75
 30
0.0
 40
6.0
  1
床　面
 41
0.672
  7
EXCADSTD
 72
     5
 11
435.400001
 21
308.75
 31
0.0
100
AcDbText
  0
TEXT
  5
4DE
100
AcDbEntity
  8
LAY-6
  6
CONTINUOUS
 62
     2
100
AcDbText
 10
29.500031
 20
171.500015
 30
0.0
 40
6.0
  1
竪　枠
 41
0.8
  7
EXCADVERT
 72
     3
 11
29.500031
 21
153.500015
 31
0.0
100
AcDbText
  0
LINE
  5
4DF
100
AcDbEntity
  8
LAY-6
  6
CONTINUOUS
 62
     1
100
AcDbLine
 10
284.0
 20
499.370972
 30
0.0
 11
248.8
 21
499.370972
 31
0.0
  0
LINE
  5
4E0
100
AcDbEntity
  8
LAY-6
  6
CONTINUOUS
 62
     1
100
AcDbLine
 10
263.6
 20
499.370972
 30
0.0
 11
254.6
 21
499.370972
 31
0.0
  0
LINE
  5
4E1
100
AcDbEntity
  8
LAY-6
  6
CONTINUOUS
 62
     1
100
AcDbLine
 10
283.0
 20
496.370972
 30
0.0
 11
242.721344
 21
496.370972
 31
0.0
  0
LINE
  5
4E2
100
AcDbEntity
  8
LAY-6
  6
CONTINUOUS
 62
     1
100
AcDbLine
 10
262.8
 20
496.370972
 30
0.0
 11
254.6
 21
496.370972
 31
0.0
  0
LINE
  5
4E3
100
AcDbEntity
  8
LAY-6
  6
CONTINUOUS
 62
     1
100
AcDbLine
 10
156.16
 20
496.370972
 30
0.0
 11
159.1
 21
496.370972
 31
0.0
  0
LINE
  5
4E4
100
AcDbEntity
  8
LAY-6
  6
CONTINUOUS
 62
     1
100
AcDbLine
 10
156.3
 20
499.370972
 30
0.0
 11
159.1
 21
499.370972
 31
0.0
  0
LINE
  5
4E5
100
AcDbEntity
  8
LAY-6
  6
CONTINUOUS
 62
     1
100
AcDbLine
 10
441.7
 20
319.052063
 30
0.0
 11
399.7
 21
319.052063
 31
0.0
  0
POLYLINE
  5
4E6
100
AcDbEntity
  8
LAY-6
  6
CONTINUOUS
 62
     1
100
AcDb2dPolyline
 66
     1
 10
0.0
 20
0.0
 30
0.0
 70
   128
  0
VERTEX
  5
4E7
100
AcDbEntity
  8
LAY-6
  6
CONTINUOUS
 62
     1
100
AcDbVertex
100
AcDb2dVertex
 10
229.721344
 20
480.370972
 30
0.0
  0
VERTEX
  5
4E8
100
AcDbEntity
  8
LAY-6
  6
CONTINUOUS
 62
     1
100
AcDbVertex
100
AcDb2dVertex
 10
242.3
 20
450.9
 30
0.0
  0
VERTEX
  5
4E9
100
AcDbEntity
  8
LAY-6
  6
CONTINUOUS
 62
     1
100
AcDbVertex
100
AcDb2dVertex
 10
195.8
 20
450.9
 30
0.0
  0
SEQEND
  5
4EA
100
AcDbEntity
  8
LAY-6
  6
CONTINUOUS
 62
     1
  0
LINE
  5
4EB
100
AcDbEntity
  8
LAY-6
  6
CONTINUOUS
 62
     1
100
AcDbLine
 10
230.813029
 20
478.662366
 30
0.0
 11
229.721344
 21
480.370972
 31
0.0
  0
LINE
  5
4EC
100
AcDbEntity
  8
LAY-6
  6
CONTINUOUS
 62
     1
100
AcDbLine
 10
229.721344
 20
480.370972
 30
0.0
 11
230.199876
 21
478.400663
 31
0.0
  0
LINE
  5
4ED
100
AcDbEntity
  8
LAY-6
  6
CONTINUOUS
 62
     1
100
AcDbLine
 10
229.721314
 20
515.370984
 30
0.0
 11
230.903274
 21
518.128333
 31
0.0
  0
LINE
  5
4EE
100
AcDbEntity
  8
LAY-6
  6
CONTINUOUS
 62
     1
100
AcDbLine
 10
229.721314
 20
515.370984
 30
0.0
 11
232.123596
 21
517.167938
 31
0.0
  0
LINE
  5
4EF
100
AcDbEntity
  8
LAY-6
  6
CONTINUOUS
 62
     1
100
AcDbLine
 10
263.5852
 20
558.4
 30
0.0
 11
220.4
 21
558.4
 31
0.0
  0
LINE
  5
4F0
100
AcDbEntity
  8
LAY-6
  6
CONTINUOUS
 62
     1
100
AcDbLine
 10
229.721314
 20
515.370984
 30
0.0
 11
263.5852
 21
558.4
 31
0.0
  0
INSERT
  5
4F1
100
AcDbEntity
  8
LAY-6
  6
CONTINUOUS
 62
     0
100
AcDbBlockReference
  2
SYM-2
 10
761.4
 20
325.3
 30
0.0
 50
90.0
  0
LINE
  5
4F2
100
AcDbEntity
  8
LAY-6
  6
CONTINUOUS
 62
     1
100
AcDbLine
 10
670.049836
 20
349.052063
 30
0.0
 11
707.4
 21
349.052063
 31
0.0
  0
LINE
  5
4F3
100
AcDbEntity
  8
LAY-6
  6
CONTINUOUS
 62
     1
100
AcDbLine
 10
749.5
 20
317.552063
 30
0.0
 11
764.4
 21
317.552063
 31
0.0
  0
LINE
  5
4F4
100
AcDbEntity
  8
LAY-6
  6
CONTINUOUS
 62
     1
100
AcDbLine
 10
749.5
 20
319.052063
 30
0.0
 11
764.4
 21
319.052063
 31
0.0
  0
LINE
  5
4F5
100
AcDbEntity
  8
LAY-6
  6
CONTINUOUS
 62
     1
100
AcDbLine
 10
714.7
 20
268.952087
 30
0.0
 11
764.4
 21
268.952087
 31
0.0
  0
LINE
  5
4F6
100
AcDbEntity
  8
LAY-6
  6
CONTINUOUS
 62
     1
100
AcDbLine
 10
762.9
 20
319.052063
 30
0.0
 11
762.9
 21
340.0
 31
0.0
  0
TEXT
  5
4F7
100
AcDbEntity
  8
LAY-6
  6
CONTINUOUS
 62
     2
100
AcDbText
 10
203.96302
 20
128.326039
 30
0.0
 40
5.0
  1
アーム
 41
0.672
  7
EXCADSTD
 72
     5
 11
215.96302
 21
128.326039
 31
0.0
100
AcDbText
  0
POLYLINE
  5
4F8
100
AcDbEntity
  8
LAY-6
  6
CONTINUOUS
 62
     1
100
AcDb2dPolyline
 66
     1
 10
0.0
 20
0.0
 30
0.0
 70
   128
  0
VERTEX
  5
4F9
100
AcDbEntity
  8
LAY-6
  6
CONTINUOUS
 62
     1
100
AcDbVertex
100
AcDb2dVertex
 10
177.9
 20
150.052078
 30
0.0
  0
VERTEX
  5
4FA
100
AcDbEntity
  8
LAY-6
  6
CONTINUOUS
 62
     1
100
AcDbVertex
100
AcDb2dVertex
 10
200.126039
 20
127.826039
 30
0.0
  0
VERTEX
  5
4FB
100
AcDbEntity
  8
LAY-6
  6
CONTINUOUS
 62
     1
100
AcDbVertex
100
AcDb2dVertex
 10
219.8
 20
127.826039
 30
0.0
  0
SEQEND
  5
4FC
100
AcDbEntity
  8
LAY-6
  6
CONTINUOUS
 62
     1
  0
LINE
  5
4FD
100
AcDbEntity
  8
LAY-6
  6
CONTINUOUS
 62
     1
100
AcDbLine
 10
179.549916
 20
148.873567
 30
0.0
 11
177.9
 21
150.052078
 31
0.0
  0
LINE
  5
4FE
100
AcDbEntity
  8
LAY-6
  6
CONTINUOUS
 62
     1
100
AcDbLine
 10
177.9
 20
150.052078
 30
0.0
 11
179.078511
 21
148.402162
 31
0.0
  0
TEXT
  5
4FF
100
AcDbEntity
  8
LAY-6
  6
CONTINUOUS
 62
     2
100
AcDbText
 10
277.149905
 20
169.425807
 30
0.0
 40
5.0
  1
ドア
 41
0.672
  7
EXCADSTD
 72
     5
 11
284.482705
 21
169.425807
 31
0.0
100
AcDbText
  0
INSERT
  5
500
100
AcDbEntity
  8
LAY-6
  6
CONTINUOUS
 62
     0
100
AcDbBlockReference
  2
SYM-2
 10
494.7
 20
551.0
 30
0.0
  0
TEXT
  5
501
100
AcDbEntity
  8
LAY-6
  6
CONTINUOUS
 62
     2
100
AcDbText
 10
332.221344
 20
484.3
 30
0.0
 40
5.0
  1
２５
 41
0.672
  7
EXCADSTD
 72
     5
 11
339.554144
 21
484.3
 31
0.0
100
AcDbText
  0
LINE
  5
502
100
AcDbEntity
  8
LAY-6
  6
CONTINUOUS
 62
     1
100
AcDbLine
 10
323.721344
 20
495.940979
 30
0.0
 11
323.721344
 21
482.3
 31
0.0
  0
LINE
  5
503
100
AcDbEntity
  8
LAY-6
  6
CONTINUOUS
 62
     1
100
AcDbLine
 10
348.721344
 20
487.6
 30
0.0
 11
348.721344
 21
482.3
 31
0.0
  0
LINE
  5
504
100
AcDbEntity
  8
LAY-6
  6
CONTINUOUS
 62
     1
100
AcDbLine
 10
323.721344
 20
483.8
 30
0.0
 11
348.721344
 21
483.8
 31
0.0
  0
LINE
  5
505
100
AcDbEntity
  8
LAY-6
  6
CONTINUOUS
 62
     1
100
AcDbLine
 10
326.721344
 20
484.3
 30
0.0
 11
323.721344
 21
483.8
 31
0.0
  0
LINE
  5
506
100
AcDbEntity
  8
LAY-6
  6
CONTINUOUS
 62
     1
100
AcDbLine
 10
323.721344
 20
483.8
 30
0.0
 11
326.721344
 21
483.3
 31
0.0
  0
LINE
  5
507
100
AcDbEntity
  8
LAY-6
  6
CONTINUOUS
 62
     1
100
AcDbLine
 10
345.721344
 20
483.3
 30
0.0
 11
348.721344
 21
483.8
 31
0.0
  0
LINE
  5
508
100
AcDbEntity
  8
LAY-6
  6
CONTINUOUS
 62
     1
100
AcDbLine
 10
348.721344
 20
483.8
 30
0.0
 11
345.721344
 21
484.3
 31
0.0
  0
TEXT
  5
509
100
AcDbEntity
  8
LAY-6
  6
CONTINUOUS
 62
     2
100
AcDbText
 10
250.673319
 20
524.654569
 30
0.0
 40
5.0
  1
裏板４.５ｔ以上
 41
0.645
  7
EXCADSTD
 72
     5
 11
280.673319
 21
524.654569
 31
0.0
100
AcDbText
  0
POLYLINE
  5
50A
100
AcDbEntity
  8
LAY-6
  6
CONTINUOUS
 62
     1
100
AcDb2dPolyline
 66
     1
 10
0.0
 20
0.0
 30
0.0
 70
   128
  0
VERTEX
  5
50B
100
AcDbEntity
  8
LAY-6
  6
CONTINUOUS
 62
     1
100
AcDbVertex
100
AcDb2dVertex
 10
240.0
 20
509.870972
 30
0.0
  0
VERTEX
  5
50C
100
AcDbEntity
  8
LAY-6
  6
CONTINUOUS
 62
     1
100
AcDbVertex
100
AcDb2dVertex
 10
248.246638
 20
524.154569
 30
0.0
  0
VERTEX
  5
50D
100
AcDbEntity
  8
LAY-6
  6
CONTINUOUS
 62
     1
100
AcDbVertex
100
AcDb2dVertex
 10
283.1
 20
524.154569
 30
0.0
  0
SEQEND
  5
50E
100
AcDbEntity
  8
LAY-6
  6
CONTINUOUS
 62
     1
  0
LINE
  5
50F
100
AcDbEntity
  8
LAY-6
  6
CONTINUOUS
 62
     1
100
AcDbLine
 10
240.711325
 20
511.769689
 30
0.0
 11
240.0
 21
509.870972
 31
0.0
  0
LINE
  5
510
100
AcDbEntity
  8
LAY-6
  6
CONTINUOUS
 62
     1
100
AcDbLine
 10
240.0
 20
509.870972
 30
0.0
 11
241.288675
 21
511.436356
 31
0.0
  0
TEXT
  5
511
100
AcDbEntity
  8
LAY-6
  6
CONTINUOUS
 62
     2
100
AcDbText
 10
249.473319
 20
518.754569
 30
0.0
 40
5.0
  1
（別途）
 41
0.672
  7
EXCADSTD
 72
     5
 11
265.473319
 21
518.754569
 31
0.0
100
AcDbText
  0
LINE
  5
512
100
AcDbEntity
  8
LAY-6
  6
CONTINUOUS
 62
     1
100
AcDbLine
 10
106.221344
 20
475.370972
 30
0.0
 11
60.0
 21
475.370972
 31
0.0
  0
LINE
  5
513
100
AcDbEntity
  8
LAY-6
  6
CONTINUOUS
 62
     1
100
AcDbLine
 10
68.6
 20
496.370972
 30
0.0
 11
60.0
 21
496.370972
 31
0.0
  0
LINE
  5
514
100
AcDbEntity
  8
LAY-6
  6
CONTINUOUS
 62
     1
100
AcDbLine
 10
61.5
 20
475.370972
 30
0.0
 11
61.5
 21
496.370972
 31
0.0
  0
LINE
  5
515
100
AcDbEntity
  8
LAY-6
  6
CONTINUOUS
 62
     1
100
AcDbLine
 10
61.166667
 20
477.370972
 30
0.0
 11
61.5
 21
475.370972
 31
0.0
  0
LINE
  5
516
100
AcDbEntity
  8
LAY-6
  6
CONTINUOUS
 62
     1
100
AcDbLine
 10
61.5
 20
475.370972
 30
0.0
 11
61.833333
 21
477.370972
 31
0.0
  0
LINE
  5
517
100
AcDbEntity
  8
LAY-6
  6
CONTINUOUS
 62
     1
100
AcDbLine
 10
61.833333
 20
494.370972
 30
0.0
 11
61.5
 21
496.370972
 31
0.0
  0
LINE
  5
518
100
AcDbEntity
  8
LAY-6
  6
CONTINUOUS
 62
     1
100
AcDbLine
 10
61.5
 20
496.370972
 30
0.0
 11
61.166667
 21
494.370972
 31
0.0
  0
TEXT
  5
519
100
AcDbEntity
  8
LAY-6
  6
CONTINUOUS
 62
     2
100
AcDbText
 10
61.0
 20
481.870972
 30
0.0
 40
5.0
  1
２１
 50
90.0
 41
0.672
  7
EXCADSTD
 72
     5
 11
61.0
 21
489.203772
 31
0.0
100
AcDbText
  0
LINE
  5
51A
100
AcDbEntity
  8
LAY-6
  6
CONTINUOUS
 62
     1
100
AcDbLine
 10
65.221344
 20
499.370972
 30
0.0
 11
59.8
 21
499.370972
 31
0.0
  0
LINE
  5
51B
100
AcDbEntity
  8
LAY-6
  6
CONTINUOUS
 62
     1
100
AcDbLine
 10
99.6
 20
537.371033
 30
0.0
 11
59.8
 21
537.371033
 31
0.0
  0
LINE
  5
51C
100
AcDbEntity
  8
LAY-6
  6
CONTINUOUS
 62
     1
100
AcDbLine
 10
61.3
 20
499.370972
 30
0.0
 11
61.3
 21
537.371033
 31
0.0
  0
LINE
  5
51D
100
AcDbEntity
  8
LAY-6
  6
CONTINUOUS
 62
     1
100
AcDbLine
 10
60.966667
 20
501.370972
 30
0.0
 11
61.3
 21
499.370972
 31
0.0
  0
LINE
  5
51E
100
AcDbEntity
  8
LAY-6
  6
CONTINUOUS
 62
     1
100
AcDbLine
 10
61.3
 20
499.370972
 30
0.0
 11
61.633333
 21
501.370972
 31
0.0
  0
LINE
  5
51F
100
AcDbEntity
  8
LAY-6
  6
CONTINUOUS
 62
     1
100
AcDbLine
 10
61.633333
 20
535.371033
 30
0.0
 11
61.3
 21
537.371033
 31
0.0
  0
LINE
  5
520
100
AcDbEntity
  8
LAY-6
  6
CONTINUOUS
 62
     1
100
AcDbLine
 10
61.3
 20
537.371033
 30
0.0
 11
60.966667
 21
535.371033
 31
0.0
  0
TEXT
  5
521
100
AcDbEntity
  8
LAY-6
  6
CONTINUOUS
 62
     2
100
AcDbText
 10
60.8
 20
514.371003
 30
0.0
 40
5.0
  1
３８
 50
90.0
 41
0.672
  7
EXCADSTD
 72
     5
 11
60.8
 21
521.703803
 31
0.0
100
AcDbText
  0
LINE
  5
522
100
AcDbEntity
  8
LAY-6
  6
CONTINUOUS
 62
     1
100
AcDbLine
 10
643.549821
 20
488.870972
 30
0.0
 11
643.549821
 21
463.6
 31
0.0
  0
LINE
  5
523
100
AcDbEntity
  8
LAY-6
  6
CONTINUOUS
 62
     1
100
AcDbLine
 10
675.549851
 20
488.870972
 30
0.0
 11
675.549851
 21
463.6
 31
0.0
  0
LINE
  5
524
100
AcDbEntity
  8
LAY-6
  6
CONTINUOUS
 62
     1
100
AcDbLine
 10
643.549821
 20
465.1
 30
0.0
 11
675.549851
 21
465.1
 31
0.0
  0
LINE
  5
525
100
AcDbEntity
  8
LAY-6
  6
CONTINUOUS
 62
     1
100
AcDbLine
 10
645.549821
 20
465.433333
 30
0.0
 11
643.549821
 21
465.1
 31
0.0
  0
LINE
  5
526
100
AcDbEntity
  8
LAY-6
  6
CONTINUOUS
 62
     1
100
AcDbLine
 10
643.549821
 20
465.1
 30
0.0
 11
645.549821
 21
464.766667
 31
0.0
  0
LINE
  5
527
100
AcDbEntity
  8
LAY-6
  6
CONTINUOUS
 62
     1
100
AcDbLine
 10
673.549851
 20
464.766667
 30
0.0
 11
675.549851
 21
465.1
 31
0.0
  0
LINE
  5
528
100
AcDbEntity
  8
LAY-6
  6
CONTINUOUS
 62
     1
100
AcDbLine
 10
675.549851
 20
465.1
 30
0.0
 11
673.549851
 21
465.433333
 31
0.0
  0
TEXT
  5
529
100
AcDbEntity
  8
LAY-6
  6
CONTINUOUS
 62
     2
100
AcDbText
 10
655.549836
 20
465.6
 30
0.0
 40
5.0
  1
３２
 41
0.672
  7
EXCADSTD
 72
     5
 11
662.882636
 21
465.6
 31
0.0
100
AcDbText
  0
LINE
  5
52A
100
AcDbEntity
  8
LAY-6
  6
CONTINUOUS
 62
     1
100
AcDbLine
 10
643.549836
 20
506.870972
 30
0.0
 11
643.549836
 21
549.1
 31
0.0
  0
LINE
  5
52B
100
AcDbEntity
  8
LAY-6
  6
CONTINUOUS
 62
     1
100
AcDbLine
 10
675.549836
 20
506.870972
 30
0.0
 11
675.549836
 21
549.1
 31
0.0
  0
LINE
  5
52C
100
AcDbEntity
  8
LAY-6
  6
CONTINUOUS
 62
     1
100
AcDbLine
 10
643.549836
 20
547.6
 30
0.0
 11
675.549836
 21
547.6
 31
0.0
  0
LINE
  5
52D
100
AcDbEntity
  8
LAY-6
  6
CONTINUOUS
 62
     1
100
AcDbLine
 10
645.549836
 20
547.933333
 30
0.0
 11
643.549836
 21
547.6
 31
0.0
  0
LINE
  5
52E
100
AcDbEntity
  8
LAY-6
  6
CONTINUOUS
 62
     1
100
AcDbLine
 10
643.549836
 20
547.6
 30
0.0
 11
645.549836
 21
547.266667
 31
0.0
  0
LINE
  5
52F
100
AcDbEntity
  8
LAY-6
  6
CONTINUOUS
 62
     1
100
AcDbLine
 10
673.549836
 20
547.266667
 30
0.0
 11
675.549836
 21
547.6
 31
0.0
  0
LINE
  5
530
100
AcDbEntity
  8
LAY-6
  6
CONTINUOUS
 62
     1
100
AcDbLine
 10
675.549836
 20
547.6
 30
0.0
 11
673.549836
 21
547.933333
 31
0.0
  0
TEXT
  5
531
100
AcDbEntity
  8
LAY-6
  6
CONTINUOUS
 62
     2
100
AcDbText
 10
655.549836
 20
548.1
 30
0.0
 40
5.0
  1
３２
 41
0.672
  7
EXCADSTD
 72
     5
 11
662.882636
 21
548.1
 31
0.0
100
AcDbText
  0
LINE
  5
532
100
AcDbEntity
  8
LAY-6
  6
CONTINUOUS
 62
     1
100
AcDbLine
 10
670.499849
 20
537.371033
 30
0.0
 11
693.3
 21
537.371033
 31
0.0
  0
LINE
  5
533
100
AcDbEntity
  8
LAY-6
  6
CONTINUOUS
 62
     1
100
AcDbLine
 10
677.049836
 20
499.370972
 30
0.0
 11
693.3
 21
499.370972
 31
0.0
  0
LINE
  5
534
100
AcDbEntity
  8
LAY-6
  6
CONTINUOUS
 62
     1
100
AcDbLine
 10
691.8
 20
537.371033
 30
0.0
 11
691.8
 21
499.370972
 31
0.0
  0
LINE
  5
535
100
AcDbEntity
  8
LAY-6
  6
CONTINUOUS
 62
     1
100
AcDbLine
 10
692.133333
 20
535.371033
 30
0.0
 11
691.8
 21
537.371033
 31
0.0
  0
LINE
  5
536
100
AcDbEntity
  8
LAY-6
  6
CONTINUOUS
 62
     1
100
AcDbLine
 10
691.8
 20
537.371033
 30
0.0
 11
691.466667
 21
535.371033
 31
0.0
  0
LINE
  5
537
100
AcDbEntity
  8
LAY-6
  6
CONTINUOUS
 62
     1
100
AcDbLine
 10
691.466667
 20
501.370972
 30
0.0
 11
691.8
 21
499.370972
 31
0.0
  0
LINE
  5
538
100
AcDbEntity
  8
LAY-6
  6
CONTINUOUS
 62
     1
100
AcDbLine
 10
691.8
 20
499.370972
 30
0.0
 11
692.133333
 21
501.370972
 31
0.0
  0
TEXT
  5
539
100
AcDbEntity
  8
LAY-6
  6
CONTINUOUS
 62
     2
100
AcDbText
 10
691.3
 20
514.371003
 30
0.0
 40
5.0
  1
３８
 50
90.0
 41
0.672
  7
EXCADSTD
 72
     5
 11
691.3
 21
521.703803
 31
0.0
100
AcDbText
  0
LINE
  5
53A
100
AcDbEntity
  8
LAY-6
  6
CONTINUOUS
 62
     1
100
AcDbLine
 10
677.049851
 20
496.370972
 30
0.0
 11
693.0
 21
496.370972
 31
0.0
  0
LINE
  5
53B
100
AcDbEntity
  8
LAY-6
  6
CONTINUOUS
 62
     1
100
AcDbLine
 10
661.049836
 20
475.370972
 30
0.0
 11
693.0
 21
475.370972
 31
0.0
  0
LINE
  5
53C
100
AcDbEntity
  8
LAY-6
  6
CONTINUOUS
 62
     1
100
AcDbLine
 10
691.5
 20
496.370972
 30
0.0
 11
691.5
 21
475.370972
 31
0.0
  0
LINE
  5
53D
100
AcDbEntity
  8
LAY-6
  6
CONTINUOUS
 62
     1
100
AcDbLine
 10
691.833333
 20
494.370972
 30
0.0
 11
691.5
 21
496.370972
 31
0.0
  0
LINE
  5
53E
100
AcDbEntity
  8
LAY-6
  6
CONTINUOUS
 62
     1
100
AcDbLine
 10
691.5
 20
496.370972
 30
0.0
 11
691.166667
 21
494.370972
 31
0.0
  0
LINE
  5
53F
100
AcDbEntity
  8
LAY-6
  6
CONTINUOUS
 62
     1
100
AcDbLine
 10
691.166667
 20
477.370972
 30
0.0
 11
691.5
 21
475.370972
 31
0.0
  0
LINE
  5
540
100
AcDbEntity
  8
LAY-6
  6
CONTINUOUS
 62
     1
100
AcDbLine
 10
691.5
 20
475.370972
 30
0.0
 11
691.833333
 21
477.370972
 31
0.0
  0
TEXT
  5
541
100
AcDbEntity
  8
LAY-6
  6
CONTINUOUS
 62
     2
100
AcDbText
 10
691.0
 20
481.870972
 30
0.0
 40
5.0
  1
２１
 50
90.0
 41
0.672
  7
EXCADSTD
 72
     5
 11
691.0
 21
489.203772
 31
0.0
100
AcDbText
  0
TEXT
  5
542
100
AcDbEntity
  8
LAY-6
  6
CONTINUOUS
 62
     2
100
AcDbText
 10
654.749836
 20
406.0
 30
0.0
 40
6.0
  1
ドア
 41
0.672
  7
EXCADSTD
 72
     5
 11
663.549196
 21
406.0
 31
0.0
100
AcDbText
  0
LINE
  5
543
100
AcDbEntity
  8
LAY-9
  6
CONTINUOUS
 62
     1
100
AcDbLine
 10
646.5815
 20
349.052063
 30
0.0
 11
651.0815
 21
353.552063
 31
0.0
  0
LINE
  5
544
100
AcDbEntity
  8
LAY-9
  6
CONTINUOUS
 62
     1
100
AcDbLine
 10
649.409927
 20
349.052063
 30
0.0
 11
653.909927
 21
353.552063
 31
0.0
  0
LINE
  5
545
100
AcDbEntity
  8
LAY-9
  6
CONTINUOUS
 62
     1
100
AcDbLine
 10
666.38049
 20
349.052063
 30
0.0
 11
670.88049
 21
353.552063
 31
0.0
  0
LINE
  5
546
100
AcDbEntity
  8
LAY-9
  6
CONTINUOUS
 62
     1
100
AcDbLine
 10
669.208917
 20
349.052063
 30
0.0
 11
673.708917
 21
353.552063
 31
0.0
  0
LINE
  5
547
100
AcDbEntity
  8
LAY-9
  6
CONTINUOUS
 62
     1
100
AcDbLine
 10
84.505569
 20
505.370972
 30
0.0
 11
89.005569
 21
509.870972
 31
0.0
  0
LINE
  5
548
100
AcDbEntity
  8
LAY-9
  6
CONTINUOUS
 62
     1
100
AcDbLine
 10
87.333996
 20
505.370972
 30
0.0
 11
91.833996
 21
509.870972
 31
0.0
  0
LINE
  5
549
100
AcDbEntity
  8
LAY-9
  6
CONTINUOUS
 62
     1
100
AcDbLine
 10
231.133996
 20
505.370972
 30
0.0
 11
235.633996
 21
509.870972
 31
0.0
  0
LINE
  5
54A
100
AcDbEntity
  8
LAY-9
  6
CONTINUOUS
 62
     1
100
AcDbLine
 10
233.962423
 20
505.370972
 30
0.0
 11
238.462423
 21
509.870972
 31
0.0
  0
LINE
  5
54B
100
AcDbEntity
  8
LAY-9
  6
CONTINUOUS
 62
     1
100
AcDbLine
 10
141.361304
 20
485.870972
 30
0.0
 11
145.861304
 21
490.370972
 31
0.0
  0
LINE
  5
54C
100
AcDbEntity
  8
LAY-9
  6
CONTINUOUS
 62
     1
100
AcDbLine
 10
144.189731
 20
485.870972
 30
0.0
 11
148.689731
 21
490.370972
 31
0.0
  0
LINE
  5
54D
100
AcDbEntity
  8
LAY-9
  6
CONTINUOUS
 62
     1
100
AcDbLine
 10
169.645575
 20
485.870972
 30
0.0
 11
174.145575
 21
490.370972
 31
0.0
  0
LINE
  5
54E
100
AcDbEntity
  8
LAY-9
  6
CONTINUOUS
 62
     1
100
AcDbLine
 10
172.474002
 20
485.870972
 30
0.0
 11
176.974002
 21
490.370972
 31
0.0
  0
LINE
  5
54F
100
AcDbEntity
  8
LAY-9
  6
CONTINUOUS
 62
     1
100
AcDbLine
 10
197.929847
 20
485.870972
 30
0.0
 11
202.429847
 21
490.370972
 31
0.0
  0
LINE
  5
550
100
AcDbEntity
  8
LAY-9
  6
CONTINUOUS
 62
     1
100
AcDbLine
 10
200.758274
 20
485.870972
 30
0.0
 11
205.258274
 21
490.370972
 31
0.0
  0
LINE
  5
551
100
AcDbEntity
  8
LAY-9
  6
CONTINUOUS
 62
     1
100
AcDbLine
 10
226.214118
 20
485.870972
 30
0.0
 11
230.714118
 21
490.370972
 31
0.0
  0
LINE
  5
552
100
AcDbEntity
  8
LAY-9
  6
CONTINUOUS
 62
     1
100
AcDbLine
 10
229.042545
 20
485.870972
 30
0.0
 11
233.542545
 21
490.370972
 31
0.0
  0
LINE
  5
553
100
AcDbEntity
  8
LAY-9
  6
CONTINUOUS
 62
     1
100
AcDbLine
 10
71.522049
 20
349.052063
 30
0.0
 11
76.022049
 21
353.552063
 31
0.0
  0
LINE
  5
554
100
AcDbEntity
  8
LAY-9
  6
CONTINUOUS
 62
     1
100
AcDbLine
 10
74.350476
 20
349.052063
 30
0.0
 11
78.850476
 21
353.552063
 31
0.0
  0
LINE
  5
555
100
AcDbEntity
  8
LAY-9
  6
CONTINUOUS
 62
     1
100
AcDbLine
 10
99.80632
 20
349.052063
 30
0.0
 11
104.30632
 21
353.552063
 31
0.0
  0
LINE
  5
556
100
AcDbEntity
  8
LAY-9
  6
CONTINUOUS
 62
     1
100
AcDbLine
 10
102.634747
 20
349.052063
 30
0.0
 11
107.134747
 21
353.552063
 31
0.0
  0
LINE
  5
557
100
AcDbEntity
  8
LAY-9
  6
CONTINUOUS
 62
     1
100
AcDbLine
 10
128.090591
 20
349.052063
 30
0.0
 11
132.590591
 21
353.552063
 31
0.0
  0
LINE
  5
558
100
AcDbEntity
  8
LAY-9
  6
CONTINUOUS
 62
     1
100
AcDbLine
 10
130.919019
 20
349.052063
 30
0.0
 11
135.419019
 21
353.552063
 31
0.0
  0
LINE
  5
559
100
AcDbEntity
  8
LAY-9
  6
CONTINUOUS
 62
     1
100
AcDbLine
 10
269.511948
 20
349.052063
 30
0.0
 11
274.011948
 21
353.552063
 31
0.0
  0
LINE
  5
55A
100
AcDbEntity
  8
LAY-9
  6
CONTINUOUS
 62
     1
100
AcDbLine
 10
272.340375
 20
349.052063
 30
0.0
 11
276.840375
 21
353.552063
 31
0.0
  0
LINE
  5
55B
100
AcDbEntity
  8
LAY-9
  6
CONTINUOUS
 62
     1
100
AcDbLine
 10
297.796219
 20
349.052063
 30
0.0
 11
302.296219
 21
353.552063
 31
0.0
  0
LINE
  5
55C
100
AcDbEntity
  8
LAY-9
  6
CONTINUOUS
 62
     1
100
AcDbLine
 10
300.624646
 20
349.052063
 30
0.0
 11
305.124646
 21
353.552063
 31
0.0
  0
LINE
  5
55D
100
AcDbEntity
  8
LAY-9
  6
CONTINUOUS
 62
     1
100
AcDbLine
 10
326.08049
 20
349.052063
 30
0.0
 11
330.58049
 21
353.552063
 31
0.0
  0
LINE
  5
55E
100
AcDbEntity
  8
LAY-9
  6
CONTINUOUS
 62
     1
100
AcDbLine
 10
328.908917
 20
349.052063
 30
0.0
 11
333.408917
 21
353.552063
 31
0.0
  0
LINE
  5
55F
100
AcDbEntity
  8
LAY-9
  6
CONTINUOUS
 62
     1
100
AcDbLine
 10
354.364761
 20
349.052063
 30
0.0
 11
358.864761
 21
353.552063
 31
0.0
  0
LINE
  5
560
100
AcDbEntity
  8
LAY-9
  6
CONTINUOUS
 62
     1
100
AcDbLine
 10
357.193188
 20
349.052063
 30
0.0
 11
361.693188
 21
353.552063
 31
0.0
  0
LINE
  5
561
100
AcDbEntity
  8
LAY-9
  6
CONTINUOUS
 62
     1
100
AcDbLine
 10
382.649033
 20
349.052063
 30
0.0
 11
387.149033
 21
353.552063
 31
0.0
  0
LINE
  5
562
100
AcDbEntity
  8
LAY-9
  6
CONTINUOUS
 62
     1
100
AcDbLine
 10
385.47746
 20
349.052063
 30
0.0
 11
389.97746
 21
353.552063
 31
0.0
  0
LINE
  5
563
100
AcDbEntity
  8
LAY-9
  6
CONTINUOUS
 62
     1
100
AcDbLine
 10
410.933304
 20
349.052063
 30
0.0
 11
415.433304
 21
353.552063
 31
0.0
  0
LINE
  5
564
100
AcDbEntity
  8
LAY-9
  6
CONTINUOUS
 62
     1
100
AcDbLine
 10
413.761731
 20
349.052063
 30
0.0
 11
418.261731
 21
353.552063
 31
0.0
  0
LINE
  5
565
100
AcDbEntity
  8
LAY-9
  6
CONTINUOUS
 62
     1
100
AcDbLine
 10
214.984271
 20
349.052063
 30
0.0
 11
219.484271
 21
353.552063
 31
0.0
  0
LINE
  5
566
100
AcDbEntity
  8
LAY-9
  6
CONTINUOUS
 62
     1
100
AcDbLine
 10
217.812698
 20
349.052063
 30
0.0
 11
222.312698
 21
353.552063
 31
0.0
  0
LINE
  5
567
100
AcDbEntity
  8
LAY-9
  6
CONTINUOUS
 62
     1
100
AcDbLine
 10
150.8
 20
349.052063
 30
0.0
 11
155.3
 21
353.552063
 31
0.0
  0
LINE
  5
568
100
AcDbEntity
  8
LAY-9
  6
CONTINUOUS
 62
     1
100
AcDbLine
 10
153.628427
 20
349.052063
 30
0.0
 11
158.128427
 21
353.552063
 31
0.0
  0
LINE
  5
569
100
AcDbEntity
  8
LAY-9
  6
CONTINUOUS
 62
     1
100
AcDbLine
 10
179.084271
 20
349.052063
 30
0.0
 11
183.584271
 21
353.552063
 31
0.0
  0
LINE
  5
56A
100
AcDbEntity
  8
LAY-9
  6
CONTINUOUS
 62
     1
100
AcDbLine
 10
181.912698
 20
349.052063
 30
0.0
 11
186.412698
 21
353.552063
 31
0.0
  0
LINE
  5
56B
100
AcDbEntity
  8
LAY-9
  6
CONTINUOUS
 62
     1
100
AcDbLine
 10
20.549469
 20
212.052078
 30
0.0
 11
43.121344
 21
212.052078
 31
0.0
  0
LINE
  5
56C
100
AcDbEntity
  8
LAY-9
  6
CONTINUOUS
 62
     1
100
AcDbLine
 10
20.549469
 20
210.452078
 30
0.0
 11
43.121344
 21
210.452078
 31
0.0
  0
LINE
  5
56D
100
AcDbEntity
  8
LAY-9
  6
CONTINUOUS
 62
     1
100
AcDbLine
 10
20.549469
 20
112.052078
 30
0.0
 11
43.121344
 21
112.052078
 31
0.0
  0
LINE
  5
56E
100
AcDbEntity
  8
LAY-9
  6
CONTINUOUS
 62
     1
100
AcDbLine
 10
20.549469
 20
113.652078
 30
0.0
 11
43.121344
 21
113.652078
 31
0.0
  0
LINE
  5
56F
100
AcDbEntity
  8
LAY-9
  6
CONTINUOUS
 62
     1
100
AcDbLine
 10
43.121344
 20
210.452078
 30
0.0
 11
43.121344
 21
113.652078
 31
0.0
  0
ARC
  5
570
100
AcDbEntity
  8
LAY-9
  6
CONTINUOUS
 62
     1
100
AcDbCircle
 10
43.121344
 20
210.452078
 30
0.0
 40
1.6
100
AcDbArc
 50
0.0
 51
90.0
  0
ARC
  5
571
100
AcDbEntity
  8
LAY-9
  6
CONTINUOUS
 62
     1
100
AcDbCircle
 10
43.121344
 20
113.652078
 30
0.0
 40
1.6
100
AcDbArc
 50
270.0
 51
0.0
  0
LINE
  5
572
100
AcDbEntity
  8
LAY-9
  6
CONTINUOUS
 62
     1
100
AcDbLine
 10
44.721344
 20
500.970972
 30
0.0
 11
73.721344
 21
500.970972
 31
0.0
  0
LINE
  5
573
100
AcDbEntity
  8
LAY-9
  6
CONTINUOUS
 62
     1
100
AcDbLine
 10
242.721344
 20
500.970972
 30
0.0
 11
284.624785
 21
500.970972
 31
0.0
  0
LINE
  5
574
100
AcDbEntity
  8
LAY-9
  6
CONTINUOUS
 62
     1
100
AcDbLine
 10
49.321344
 20
494.770972
 30
0.0
 11
91.721329
 21
494.770972
 31
0.0
  0
LINE
  5
575
100
AcDbEntity
  8
LAY-9
  6
CONTINUOUS
 62
     1
100
AcDbLine
 10
242.721344
 20
494.770972
 30
0.0
 11
282.538211
 21
494.770972
 31
0.0
  0
LINE
  5
576
100
AcDbEntity
  8
LAY-9
  6
CONTINUOUS
 62
     1
100
AcDbLine
 10
49.321344
 20
353.552063
 30
0.0
 11
440.03866
 21
353.552063
 31
0.0
  0
LINE
  5
577
100
AcDbEntity
  8
LAY-9
  6
CONTINUOUS
 62
     1
100
AcDbLine
 10
49.321344
 20
355.852063
 30
0.0
 11
440.536816
 21
355.852063
 31
0.0
  0
LINE
  5
578
100
AcDbEntity
  8
LAY-9
  6
CONTINUOUS
 62
     1
100
AcDbLine
 10
44.721344
 20
309.052063
 30
0.0
 11
43.121344
 21
309.052063
 31
0.0
  0
LINE
  5
579
100
AcDbEntity
  8
LAY-9
  6
DIVIDE
 62
     1
100
AcDbLine
 10
31.3
 20
430.1
 30
0.0
 11
83.6
 21
430.1
 31
0.0
  0
LINE
  5
57A
100
AcDbEntity
  8
LAY-9
  6
DIVIDE
 62
     1
100
AcDbLine
 10
31.3
 20
425.1
 30
0.0
 11
83.6
 21
425.1
 31
0.0
  0
LINE
  5
57B
100
AcDbEntity
  8
LAY-9
  6
CONTINUOUS
 62
     1
100
AcDbLine
 10
49.321344
 20
494.770972
 30
0.0
 11
49.321344
 21
430.1
 31
0.0
  0
LINE
  5
57C
100
AcDbEntity
  8
LAY-9
  6
CONTINUOUS
 62
     1
100
AcDbLine
 10
49.321344
 20
425.1
 30
0.0
 11
49.321344
 21
329.052063
 31
0.0
  0
LINE
  5
57D
100
AcDbEntity
  8
LAY-9
  6
CONTINUOUS
 62
     1
100
AcDbLine
 10
47.721344
 20
496.370972
 30
0.0
 11
47.721344
 21
430.1
 31
0.0
  0
LINE
  5
57E
100
AcDbEntity
  8
LAY-9
  6
CONTINUOUS
 62
     1
100
AcDbLine
 10
47.721344
 20
425.1
 30
0.0
 11
47.721344
 21
329.052063
 31
0.0
  0
LINE
  5
57F
100
AcDbEntity
  8
LAY-9
  6
CONTINUOUS
 62
     1
100
AcDbLine
 10
44.721344
 20
512.4
 30
0.0
 11
44.721344
 21
430.1
 31
0.0
  0
LINE
  5
580
100
AcDbEntity
  8
LAY-9
  6
CONTINUOUS
 62
     1
100
AcDbLine
 10
43.121344
 20
512.4
 30
0.0
 11
43.121344
 21
430.1
 31
0.0
  0
LINE
  5
581
100
AcDbEntity
  8
LAY-9
  6
CONTINUOUS
 62
     1
100
AcDbLine
 10
43.121344
 20
425.1
 30
0.0
 11
43.121344
 21
309.052063
 31
0.0
  0
POLYLINE
  5
582
100
AcDbEntity
  8
LAY-9
  6
CONTINUOUS
 62
     1
100
AcDb2dPolyline
 66
     1
 10
0.0
 20
0.0
 30
0.0
 70
   128
  0
VERTEX
  5
583
100
AcDbEntity
  8
LAY-9
  6
CONTINUOUS
 62
     1
100
AcDbVertex
100
AcDb2dVertex
 10
284.0
 20
499.370972
 30
0.0
  0
VERTEX
  5
584
100
AcDbEntity
  8
LAY-9
  6
CONTINUOUS
 62
     1
100
AcDbVertex
100
AcDb2dVertex
 10
284.024918
 20
499.443809
 30
0.0
  0
VERTEX
  5
585
100
AcDbEntity
  8
LAY-9
  6
CONTINUOUS
 62
     1
100
AcDbVertex
100
AcDb2dVertex
 10
284.093618
 20
499.649882
 30
0.0
  0
VERTEX
  5
586
100
AcDbEntity
  8
LAY-9
  6
CONTINUOUS
 62
     1
100
AcDbVertex
100
AcDb2dVertex
 10
284.197024
 20
499.970529
 30
0.0
  0
VERTEX
  5
587
100
AcDbEntity
  8
LAY-9
  6
CONTINUOUS
 62
     1
100
AcDbVertex
100
AcDb2dVertex
 10
284.326056
 20
500.387091
 30
0.0
  0
VERTEX
  5
588
100
AcDbEntity
  8
LAY-9
  6
CONTINUOUS
 62
     1
100
AcDbVertex
100
AcDb2dVertex
 10
284.471635
 20
500.880908
 30
0.0
  0
VERTEX
  5
589
100
AcDbEntity
  8
LAY-9
  6
CONTINUOUS
 62
     1
100
AcDbVertex
100
AcDb2dVertex
 10
284.624684
 20
501.43332
 30
0.0
  0
VERTEX
  5
58A
100
AcDbEntity
  8
LAY-9
  6
CONTINUOUS
 62
     1
100
AcDbVertex
100
AcDb2dVertex
 10
284.776125
 20
502.025667
 30
0.0
  0
VERTEX
  5
58B
100
AcDbEntity
  8
LAY-9
  6
CONTINUOUS
 62
     1
100
AcDbVertex
100
AcDb2dVertex
 10
284.916877
 20
502.639288
 30
0.0
  0
VERTEX
  5
58C
100
AcDbEntity
  8
LAY-9
  6
CONTINUOUS
 62
     1
100
AcDbVertex
100
AcDb2dVertex
 10
285.037865
 20
503.255525
 30
0.0
  0
VERTEX
  5
58D
100
AcDbEntity
  8
LAY-9
  6
CONTINUOUS
 62
     1
100
AcDbVertex
100
AcDb2dVertex
 10
285.130008
 20
503.855717
 30
0.0
  0
VERTEX
  5
58E
100
AcDbEntity
  8
LAY-9
  6
CONTINUOUS
 62
     1
100
AcDbVertex
100
AcDb2dVertex
 10
285.184228
 20
504.421204
 30
0.0
  0
VERTEX
  5
58F
100
AcDbEntity
  8
LAY-9
  6
CONTINUOUS
 62
     1
100
AcDbVertex
100
AcDb2dVertex
 10
285.194679
 20
504.896832
 30
0.0
  0
VERTEX
  5
590
100
AcDbEntity
  8
LAY-9
  6
CONTINUOUS
 62
     1
100
AcDbVertex
100
AcDb2dVertex
 10
285.169545
 20
505.33597
 30
0.0
  0
VERTEX
  5
591
100
AcDbEntity
  8
LAY-9
  6
CONTINUOUS
 62
     1
100
AcDbVertex
100
AcDb2dVertex
 10
285.112718
 20
505.746953
 30
0.0
  0
VERTEX
  5
592
100
AcDbEntity
  8
LAY-9
  6
CONTINUOUS
 62
     1
100
AcDbVertex
100
AcDb2dVertex
 10
285.02809
 20
506.138113
 30
0.0
  0
VERTEX
  5
593
100
AcDbEntity
  8
LAY-9
  6
CONTINUOUS
 62
     1
100
AcDbVertex
100
AcDb2dVertex
 10
284.919555
 20
506.517784
 30
0.0
  0
VERTEX
  5
594
100
AcDbEntity
  8
LAY-9
  6
CONTINUOUS
 62
     1
100
AcDbVertex
100
AcDb2dVertex
 10
284.791003
 20
506.894299
 30
0.0
  0
VERTEX
  5
595
100
AcDbEntity
  8
LAY-9
  6
CONTINUOUS
 62
     1
100
AcDbVertex
100
AcDb2dVertex
 10
284.646327
 20
507.275992
 30
0.0
  0
VERTEX
  5
596
100
AcDbEntity
  8
LAY-9
  6
CONTINUOUS
 62
     1
100
AcDbVertex
100
AcDb2dVertex
 10
284.489419
 20
507.671196
 30
0.0
  0
VERTEX
  5
597
100
AcDbEntity
  8
LAY-9
  6
CONTINUOUS
 62
     1
100
AcDbVertex
100
AcDb2dVertex
 10
284.324172
 20
508.088243
 30
0.0
  0
VERTEX
  5
598
100
AcDbEntity
  8
LAY-9
  6
CONTINUOUS
 62
     1
100
AcDbVertex
100
AcDb2dVertex
 10
284.154478
 20
508.535468
 30
0.0
  0
VERTEX
  5
599
100
AcDbEntity
  8
LAY-9
  6
CONTINUOUS
 62
     1
100
AcDbVertex
100
AcDb2dVertex
 10
283.984228
 20
509.021204
 30
0.0
  0
VERTEX
  5
59A
100
AcDbEntity
  8
LAY-9
  6
CONTINUOUS
 62
     1
100
AcDbVertex
100
AcDb2dVertex
 10
283.82803
 20
509.51315
 30
0.0
  0
VERTEX
  5
59B
100
AcDbEntity
  8
LAY-9
  6
CONTINUOUS
 62
     1
100
AcDbVertex
100
AcDb2dVertex
 10
283.676824
 20
510.030669
 30
0.0
  0
VERTEX
  5
59C
100
AcDbEntity
  8
LAY-9
  6
CONTINUOUS
 62
     1
100
AcDbVertex
100
AcDb2dVertex
 10
283.532692
 20
510.5585
 30
0.0
  0
VERTEX
  5
59D
100
AcDbEntity
  8
LAY-9
  6
CONTINUOUS
 62
     1
100
AcDbVertex
100
AcDb2dVertex
 10
283.397717
 20
511.081385
 30
0.0
  0
VERTEX
  5
59E
100
AcDbEntity
  8
LAY-9
  6
CONTINUOUS
 62
     1
100
AcDbVertex
100
AcDb2dVertex
 10
283.273981
 20
511.584062
 30
0.0
  0
VERTEX
  5
59F
100
AcDbEntity
  8
LAY-9
  6
CONTINUOUS
 62
     1
100
AcDbVertex
100
AcDb2dVertex
 10
283.163568
 20
512.051272
 30
0.0
  0
VERTEX
  5
5A0
100
AcDbEntity
  8
LAY-9
  6
CONTINUOUS
 62
     1
100
AcDbVertex
100
AcDb2dVertex
 10
283.068559
 20
512.467754
 30
0.0
  0
VERTEX
  5
5A1
100
AcDbEntity
  8
LAY-9
  6
CONTINUOUS
 62
     1
100
AcDbVertex
100
AcDb2dVertex
 10
282.991038
 20
512.818248
 30
0.0
  0
VERTEX
  5
5A2
100
AcDbEntity
  8
LAY-9
  6
CONTINUOUS
 62
     1
100
AcDbVertex
100
AcDb2dVertex
 10
282.933088
 20
513.087495
 30
0.0
  0
VERTEX
  5
5A3
100
AcDbEntity
  8
LAY-9
  6
CONTINUOUS
 62
     1
100
AcDbVertex
100
AcDb2dVertex
 10
282.89679
 20
513.260233
 30
0.0
  0
VERTEX
  5
5A4
100
AcDbEntity
  8
LAY-9
  6
CONTINUOUS
 62
     1
100
AcDbVertex
100
AcDb2dVertex
 10
282.884228
 20
513.321204
 30
0.0
  0
SEQEND
  5
5A5
100
AcDbEntity
  8
LAY-9
  6
CONTINUOUS
 62
     1
  0
POLYLINE
  5
5A6
100
AcDbEntity
  8
LAY-9
  6
CONTINUOUS
 62
     1
100
AcDb2dPolyline
 66
     1
 10
0.0
 20
0.0
 30
0.0
 70
   128
  0
VERTEX
  5
5A7
100
AcDbEntity
  8
LAY-9
  6
CONTINUOUS
 62
     1
100
AcDbVertex
100
AcDb2dVertex
 10
283.0
 20
496.370972
 30
0.0
  0
VERTEX
  5
5A8
100
AcDbEntity
  8
LAY-9
  6
CONTINUOUS
 62
     1
100
AcDbVertex
100
AcDb2dVertex
 10
282.980961
 20
496.289281
 30
0.0
  0
VERTEX
  5
5A9
100
AcDbEntity
  8
LAY-9
  6
CONTINUOUS
 62
     1
100
AcDbVertex
100
AcDb2dVertex
 10
282.928103
 20
496.058208
 30
0.0
  0
VERTEX
  5
5AA
100
AcDbEntity
  8
LAY-9
  6
CONTINUOUS
 62
     1
100
AcDbVertex
100
AcDb2dVertex
 10
282.847811
 20
495.698751
 30
0.0
  0
VERTEX
  5
5AB
100
AcDbEntity
  8
LAY-9
  6
CONTINUOUS
 62
     1
100
AcDbVertex
100
AcDb2dVertex
 10
282.746473
 20
495.231911
 30
0.0
  0
VERTEX
  5
5AC
100
AcDbEntity
  8
LAY-9
  6
CONTINUOUS
 62
     1
100
AcDbVertex
100
AcDb2dVertex
 10
282.630473
 20
494.678685
 30
0.0
  0
VERTEX
  5
5AD
100
AcDbEntity
  8
LAY-9
  6
CONTINUOUS
 62
     1
100
AcDbVertex
100
AcDb2dVertex
 10
282.506199
 20
494.060074
 30
0.0
  0
VERTEX
  5
5AE
100
AcDbEntity
  8
LAY-9
  6
CONTINUOUS
 62
     1
100
AcDbVertex
100
AcDb2dVertex
 10
282.380036
 20
493.397077
 30
0.0
  0
VERTEX
  5
5AF
100
AcDbEntity
  8
LAY-9
  6
CONTINUOUS
 62
     1
100
AcDbVertex
100
AcDb2dVertex
 10
282.258372
 20
492.710692
 30
0.0
  0
VERTEX
  5
5B0
100
AcDbEntity
  8
LAY-9
  6
CONTINUOUS
 62
     1
100
AcDbVertex
100
AcDb2dVertex
 10
282.147591
 20
492.021919
 30
0.0
  0
VERTEX
  5
5B1
100
AcDbEntity
  8
LAY-9
  6
CONTINUOUS
 62
     1
100
AcDbVertex
100
AcDb2dVertex
 10
282.054081
 20
491.351756
 30
0.0
  0
VERTEX
  5
5B2
100
AcDbEntity
  8
LAY-9
  6
CONTINUOUS
 62
     1
100
AcDbVertex
100
AcDb2dVertex
 10
281.984228
 20
490.721204
 30
0.0
  0
VERTEX
  5
5B3
100
AcDbEntity
  8
LAY-9
  6
CONTINUOUS
 62
     1
100
AcDbVertex
100
AcDb2dVertex
 10
281.949955
 20
490.269773
 30
0.0
  0
VERTEX
  5
5B4
100
AcDbEntity
  8
LAY-9
  6
CONTINUOUS
 62
     1
100
AcDbVertex
100
AcDb2dVertex
 10
281.934152
 20
489.848296
 30
0.0
  0
VERTEX
  5
5B5
100
AcDbEntity
  8
LAY-9
  6
CONTINUOUS
 62
     1
100
AcDbVertex
100
AcDb2dVertex
 10
281.937188
 20
489.450218
 30
0.0
  0
VERTEX
  5
5B6
100
AcDbEntity
  8
LAY-9
  6
CONTINUOUS
 62
     1
100
AcDbVertex
100
AcDb2dVertex
 10
281.959435
 20
489.068982
 30
0.0
  0
VERTEX
  5
5B7
100
AcDbEntity
  8
LAY-9
  6
CONTINUOUS
 62
     1
100
AcDbVertex
100
AcDb2dVertex
 10
282.001263
 20
488.698033
 30
0.0
  0
VERTEX
  5
5B8
100
AcDbEntity
  8
LAY-9
  6
CONTINUOUS
 62
     1
100
AcDbVertex
100
AcDb2dVertex
 10
282.063045
 20
488.330814
 30
0.0
  0
VERTEX
  5
5B9
100
AcDbEntity
  8
LAY-9
  6
CONTINUOUS
 62
     1
100
AcDbVertex
100
AcDb2dVertex
 10
282.14515
 20
487.960768
 30
0.0
  0
VERTEX
  5
5BA
100
AcDbEntity
  8
LAY-9
  6
CONTINUOUS
 62
     1
100
AcDbVertex
100
AcDb2dVertex
 10
282.24795
 20
487.581341
 30
0.0
  0
VERTEX
  5
5BB
100
AcDbEntity
  8
LAY-9
  6
CONTINUOUS
 62
     1
100
AcDbVertex
100
AcDb2dVertex
 10
282.371816
 20
487.185975
 30
0.0
  0
VERTEX
  5
5BC
100
AcDbEntity
  8
LAY-9
  6
CONTINUOUS
 62
     1
100
AcDbVertex
100
AcDb2dVertex
 10
282.517118
 20
486.768115
 30
0.0
  0
VERTEX
  5
5BD
100
AcDbEntity
  8
LAY-9
  6
CONTINUOUS
 62
     1
100
AcDbVertex
100
AcDb2dVertex
 10
282.684228
 20
486.321204
 30
0.0
  0
VERTEX
  5
5BE
100
AcDbEntity
  8
LAY-9
  6
CONTINUOUS
 62
     1
100
AcDbVertex
100
AcDb2dVertex
 10
282.867439
 20
485.854263
 30
0.0
  0
VERTEX
  5
5BF
100
AcDbEntity
  8
LAY-9
  6
CONTINUOUS
 62
     1
100
AcDbVertex
100
AcDb2dVertex
 10
283.065047
 20
485.367073
 30
0.0
  0
VERTEX
  5
5C0
100
AcDbEntity
  8
LAY-9
  6
CONTINUOUS
 62
     1
100
AcDbVertex
100
AcDb2dVertex
 10
283.270341
 20
484.873272
 30
0.0
  0
VERTEX
  5
5C1
100
AcDbEntity
  8
LAY-9
  6
CONTINUOUS
 62
     1
100
AcDbVertex
100
AcDb2dVertex
 10
283.476611
 20
484.386495
 30
0.0
  0
VERTEX
  5
5C2
100
AcDbEntity
  8
LAY-9
  6
CONTINUOUS
 62
     1
100
AcDbVertex
100
AcDb2dVertex
 10
283.677149
 20
483.920379
 30
0.0
  0
VERTEX
  5
5C3
100
AcDbEntity
  8
LAY-9
  6
CONTINUOUS
 62
     1
100
AcDbVertex
100
AcDb2dVertex
 10
283.865243
 20
483.488561
 30
0.0
  0
VERTEX
  5
5C4
100
AcDbEntity
  8
LAY-9
  6
CONTINUOUS
 62
     1
100
AcDbVertex
100
AcDb2dVertex
 10
284.034185
 20
483.104676
 30
0.0
  0
VERTEX
  5
5C5
100
AcDbEntity
  8
LAY-9
  6
CONTINUOUS
 62
     1
100
AcDbVertex
100
AcDb2dVertex
 10
284.177264
 20
482.782362
 30
0.0
  0
VERTEX
  5
5C6
100
AcDbEntity
  8
LAY-9
  6
CONTINUOUS
 62
     1
100
AcDbVertex
100
AcDb2dVertex
 10
284.287771
 20
482.535254
 30
0.0
  0
VERTEX
  5
5C7
100
AcDbEntity
  8
LAY-9
  6
CONTINUOUS
 62
     1
100
AcDbVertex
100
AcDb2dVertex
 10
284.358995
 20
482.376989
 30
0.0
  0
VERTEX
  5
5C8
100
AcDbEntity
  8
LAY-9
  6
CONTINUOUS
 62
     1
100
AcDbVertex
100
AcDb2dVertex
 10
284.384228
 20
482.321204
 30
0.0
  0
SEQEND
  5
5C9
100
AcDbEntity
  8
LAY-9
  6
CONTINUOUS
 62
     1
  0
LINE
  5
5CA
100
AcDbEntity
  8
LAY-9
  6
CONTINUOUS
 62
     1
100
AcDbLine
 10
73.721313
 20
505.370972
 30
0.0
 11
73.721313
 21
509.870972
 31
0.0
  0
LINE
  5
5CB
100
AcDbEntity
  8
LAY-9
  6
CONTINUOUS
 62
     1
100
AcDbLine
 10
73.721313
 20
509.870972
 30
0.0
 11
93.721313
 21
509.870972
 31
0.0
  0
LINE
  5
5CC
100
AcDbEntity
  8
LAY-9
  6
CONTINUOUS
 62
     1
100
AcDbLine
 10
93.721313
 20
509.870972
 30
0.0
 11
93.721313
 21
505.370972
 31
0.0
  0
LINE
  5
5CD
100
AcDbEntity
  8
LAY-9
  6
CONTINUOUS
 62
     1
100
AcDbLine
 10
242.721344
 20
505.370972
 30
0.0
 11
242.721344
 21
509.870972
 31
0.0
  0
LINE
  5
5CE
100
AcDbEntity
  8
LAY-9
  6
CONTINUOUS
 62
     1
100
AcDbLine
 10
242.721344
 20
509.870972
 30
0.0
 11
223.721344
 21
509.870972
 31
0.0
  0
LINE
  5
5CF
100
AcDbEntity
  8
LAY-9
  6
CONTINUOUS
 62
     1
100
AcDbLine
 10
223.721344
 20
509.870972
 30
0.0
 11
223.721344
 21
505.370972
 31
0.0
  0
LINE
  5
5D0
100
AcDbEntity
  8
LAY-9
  6
CONTINUOUS
 62
     1
100
AcDbLine
 10
242.721344
 20
490.370972
 30
0.0
 11
242.721344
 21
485.870972
 31
0.0
  0
LINE
  5
5D1
100
AcDbEntity
  8
LAY-9
  6
CONTINUOUS
 62
     1
100
AcDbLine
 10
242.721344
 20
485.870972
 30
0.0
 11
127.721344
 21
485.870972
 31
0.0
  0
LINE
  5
5D2
100
AcDbEntity
  8
LAY-9
  6
CONTINUOUS
 62
     1
100
AcDbLine
 10
127.721344
 20
485.870972
 30
0.0
 11
127.721344
 21
490.370972
 31
0.0
  0
POLYLINE
  5
5D3
100
AcDbEntity
  8
LAY-9
  6
CONTINUOUS
 62
     1
100
AcDb2dPolyline
 66
     1
 10
0.0
 20
0.0
 30
0.0
 70
   128
  0
VERTEX
  5
5D4
100
AcDbEntity
  8
LAY-9
  6
CONTINUOUS
 62
     1
100
AcDbVertex
100
AcDb2dVertex
 10
441.7
 20
319.052063
 30
0.0
  0
VERTEX
  5
5D5
100
AcDbEntity
  8
LAY-9
  6
CONTINUOUS
 62
     1
100
AcDbVertex
100
AcDb2dVertex
 10
441.742904
 20
318.947917
 30
0.0
  0
VERTEX
  5
5D6
100
AcDbEntity
  8
LAY-9
  6
CONTINUOUS
 62
     1
100
AcDbVertex
100
AcDb2dVertex
 10
441.861066
 20
318.653165
 30
0.0
  0
VERTEX
  5
5D7
100
AcDbEntity
  8
LAY-9
  6
CONTINUOUS
 62
     1
100
AcDbVertex
100
AcDb2dVertex
 10
442.038662
 20
318.194333
 30
0.0
  0
VERTEX
  5
5D8
100
AcDbEntity
  8
LAY-9
  6
CONTINUOUS
 62
     1
100
AcDbVertex
100
AcDb2dVertex
 10
442.259865
 20
317.597948
 30
0.0
  0
VERTEX
  5
5D9
100
AcDbEntity
  8
LAY-9
  6
CONTINUOUS
 62
     1
100
AcDbVertex
100
AcDb2dVertex
 10
442.508851
 20
316.890536
 30
0.0
  0
VERTEX
  5
5DA
100
AcDbEntity
  8
LAY-9
  6
CONTINUOUS
 62
     1
100
AcDbVertex
100
AcDb2dVertex
 10
442.769795
 20
316.098624
 30
0.0
  0
VERTEX
  5
5DB
100
AcDbEntity
  8
LAY-9
  6
CONTINUOUS
 62
     1
100
AcDbVertex
100
AcDb2dVertex
 10
443.026871
 20
315.248739
 30
0.0
  0
VERTEX
  5
5DC
100
AcDbEntity
  8
LAY-9
  6
CONTINUOUS
 62
     1
100
AcDbVertex
100
AcDb2dVertex
 10
443.264255
 20
314.367407
 30
0.0
  0
VERTEX
  5
5DD
100
AcDbEntity
  8
LAY-9
  6
CONTINUOUS
 62
     1
100
AcDbVertex
100
AcDb2dVertex
 10
443.466121
 20
313.481155
 30
0.0
  0
VERTEX
  5
5DE
100
AcDbEntity
  8
LAY-9
  6
CONTINUOUS
 62
     1
100
AcDbVertex
100
AcDb2dVertex
 10
443.616644
 20
312.616511
 30
0.0
  0
VERTEX
  5
5DF
100
AcDbEntity
  8
LAY-9
  6
CONTINUOUS
 62
     1
100
AcDbVertex
100
AcDb2dVertex
 10
443.7
 20
311.8
 30
0.0
  0
VERTEX
  5
5E0
100
AcDbEntity
  8
LAY-9
  6
CONTINUOUS
 62
     1
100
AcDbVertex
100
AcDb2dVertex
 10
443.706927
 20
311.097909
 30
0.0
  0
VERTEX
  5
5E1
100
AcDbEntity
  8
LAY-9
  6
CONTINUOUS
 62
     1
100
AcDbVertex
100
AcDb2dVertex
 10
443.650905
 20
310.448972
 30
0.0
  0
VERTEX
  5
5E2
100
AcDbEntity
  8
LAY-9
  6
CONTINUOUS
 62
     1
100
AcDbVertex
100
AcDb2dVertex
 10
443.541545
 20
309.841064
 30
0.0
  0
VERTEX
  5
5E3
100
AcDbEntity
  8
LAY-9
  6
CONTINUOUS
 62
     1
100
AcDbVertex
100
AcDb2dVertex
 10
443.388459
 20
309.262062
 30
0.0
  0
VERTEX
  5
5E4
100
AcDbEntity
  8
LAY-9
  6
CONTINUOUS
 62
     1
100
AcDbVertex
100
AcDb2dVertex
 10
443.201261
 20
308.699842
 30
0.0
  0
VERTEX
  5
5E5
100
AcDbEntity
  8
LAY-9
  6
CONTINUOUS
 62
     1
100
AcDbVertex
100
AcDb2dVertex
 10
442.989562
 20
308.142279
 30
0.0
  0
VERTEX
  5
5E6
100
AcDbEntity
  8
LAY-9
  6
CONTINUOUS
 62
     1
100
AcDbVertex
100
AcDb2dVertex
 10
442.762976
 20
307.57725
 30
0.0
  0
VERTEX
  5
5E7
100
AcDbEntity
  8
LAY-9
  6
CONTINUOUS
 62
     1
100
AcDbVertex
100
AcDb2dVertex
 10
442.531114
 20
306.992632
 30
0.0
  0
VERTEX
  5
5E8
100
AcDbEntity
  8
LAY-9
  6
CONTINUOUS
 62
     1
100
AcDbVertex
100
AcDb2dVertex
 10
442.303589
 20
306.3763
 30
0.0
  0
VERTEX
  5
5E9
100
AcDbEntity
  8
LAY-9
  6
CONTINUOUS
 62
     1
100
AcDbVertex
100
AcDb2dVertex
 10
442.090013
 20
305.716131
 30
0.0
  0
VERTEX
  5
5EA
100
AcDbEntity
  8
LAY-9
  6
CONTINUOUS
 62
     1
100
AcDbVertex
100
AcDb2dVertex
 10
441.9
 20
305.0
 30
0.0
  0
VERTEX
  5
5EB
100
AcDbEntity
  8
LAY-9
  6
CONTINUOUS
 62
     1
100
AcDbVertex
100
AcDb2dVertex
 10
441.725152
 20
304.130685
 30
0.0
  0
VERTEX
  5
5EC
100
AcDbEntity
  8
LAY-9
  6
CONTINUOUS
 62
     1
100
AcDbVertex
100
AcDb2dVertex
 10
441.587094
 20
303.206222
 30
0.0
  0
VERTEX
  5
5ED
100
AcDbEntity
  8
LAY-9
  6
CONTINUOUS
 62
     1
100
AcDbVertex
100
AcDb2dVertex
 10
441.481582
 20
302.255675
 30
0.0
  0
VERTEX
  5
5EE
100
AcDbEntity
  8
LAY-9
  6
CONTINUOUS
 62
     1
100
AcDbVertex
100
AcDb2dVertex
 10
441.404373
 20
301.308109
 30
0.0
  0
VERTEX
  5
5EF
100
AcDbEntity
  8
LAY-9
  6
CONTINUOUS
 62
     1
100
AcDbVertex
100
AcDb2dVertex
 10
441.351225
 20
300.392588
 30
0.0
  0
VERTEX
  5
5F0
100
AcDbEntity
  8
LAY-9
  6
CONTINUOUS
 62
     1
100
AcDbVertex
100
AcDb2dVertex
 10
441.317894
 20
299.538176
 30
0.0
  0
VERTEX
  5
5F1
100
AcDbEntity
  8
LAY-9
  6
CONTINUOUS
 62
     1
100
AcDbVertex
100
AcDb2dVertex
 10
441.300137
 20
298.773937
 30
0.0
  0
VERTEX
  5
5F2
100
AcDbEntity
  8
LAY-9
  6
CONTINUOUS
 62
     1
100
AcDbVertex
100
AcDb2dVertex
 10
441.293713
 20
298.128936
 30
0.0
  0
VERTEX
  5
5F3
100
AcDbEntity
  8
LAY-9
  6
CONTINUOUS
 62
     1
100
AcDbVertex
100
AcDb2dVertex
 10
441.294377
 20
297.632237
 30
0.0
  0
VERTEX
  5
5F4
100
AcDbEntity
  8
LAY-9
  6
CONTINUOUS
 62
     1
100
AcDbVertex
100
AcDb2dVertex
 10
441.297887
 20
297.312903
 30
0.0
  0
VERTEX
  5
5F5
100
AcDbEntity
  8
LAY-9
  6
CONTINUOUS
 62
     1
100
AcDbVertex
100
AcDb2dVertex
 10
441.3
 20
297.2
 30
0.0
  0
SEQEND
  5
5F6
100
AcDbEntity
  8
LAY-9
  6
CONTINUOUS
 62
     1
  0
POLYLINE
  5
5F7
100
AcDbEntity
  8
LAY-9
  6
CONTINUOUS
 62
     1
100
AcDb2dPolyline
 66
     1
 10
0.0
 20
0.0
 30
0.0
 70
   128
  0
VERTEX
  5
5F8
100
AcDbEntity
  8
LAY-9
  6
CONTINUOUS
 62
     1
100
AcDbVertex
100
AcDb2dVertex
 10
438.7
 20
329.052063
 30
0.0
  0
VERTEX
  5
5F9
100
AcDbEntity
  8
LAY-9
  6
CONTINUOUS
 62
     1
100
AcDbVertex
100
AcDb2dVertex
 10
438.664045
 20
329.184222
 30
0.0
  0
VERTEX
  5
5FA
100
AcDbEntity
  8
LAY-9
  6
CONTINUOUS
 62
     1
100
AcDbVertex
100
AcDb2dVertex
 10
438.564281
 20
329.560061
 30
0.0
  0
VERTEX
  5
5FB
100
AcDbEntity
  8
LAY-9
  6
CONTINUOUS
 62
     1
100
AcDbVertex
100
AcDb2dVertex
 10
438.412859
 20
330.14862
 30
0.0
  0
VERTEX
  5
5FC
100
AcDbEntity
  8
LAY-9
  6
CONTINUOUS
 62
     1
100
AcDbVertex
100
AcDb2dVertex
 10
438.221931
 20
330.918942
 30
0.0
  0
VERTEX
  5
5FD
100
AcDbEntity
  8
LAY-9
  6
CONTINUOUS
 62
     1
100
AcDbVertex
100
AcDb2dVertex
 10
438.003649
 20
331.840066
 30
0.0
  0
VERTEX
  5
5FE
100
AcDbEntity
  8
LAY-9
  6
CONTINUOUS
 62
     1
100
AcDbVertex
100
AcDb2dVertex
 10
437.770164
 20
332.881036
 30
0.0
  0
VERTEX
  5
5FF
100
AcDbEntity
  8
LAY-9
  6
CONTINUOUS
 62
     1
100
AcDbVertex
100
AcDb2dVertex
 10
437.533627
 20
334.010891
 30
0.0
  0
VERTEX
  5
600
100
AcDbEntity
  8
LAY-9
  6
CONTINUOUS
 62
     1
100
AcDbVertex
100
AcDb2dVertex
 10
437.306191
 20
335.198674
 30
0.0
  0
VERTEX
  5
601
100
AcDbEntity
  8
LAY-9
  6
CONTINUOUS
 62
     1
100
AcDbVertex
100
AcDb2dVertex
 10
437.100007
 20
336.413426
 30
0.0
  0
VERTEX
  5
602
100
AcDbEntity
  8
LAY-9
  6
CONTINUOUS
 62
     1
100
AcDbVertex
100
AcDb2dVertex
 10
436.927226
 20
337.624187
 30
0.0
  0
VERTEX
  5
603
100
AcDbEntity
  8
LAY-9
  6
CONTINUOUS
 62
     1
100
AcDbVertex
100
AcDb2dVertex
 10
436.8
 20
338.8
 30
0.0
  0
VERTEX
  5
604
100
AcDbEntity
  8
LAY-9
  6
CONTINUOUS
 62
     1
100
AcDbVertex
100
AcDb2dVertex
 10
436.728821
 20
339.892433
 30
0.0
  0
VERTEX
  5
605
100
AcDbEntity
  8
LAY-9
  6
CONTINUOUS
 62
     1
100
AcDbVertex
100
AcDb2dVertex
 10
436.709446
 20
340.926566
 30
0.0
  0
VERTEX
  5
606
100
AcDbEntity
  8
LAY-9
  6
CONTINUOUS
 62
     1
100
AcDbVertex
100
AcDb2dVertex
 10
436.738443
 20
341.907185
 30
0.0
  0
VERTEX
  5
607
100
AcDbEntity
  8
LAY-9
  6
CONTINUOUS
 62
     1
100
AcDbVertex
100
AcDb2dVertex
 10
436.812381
 20
342.839077
 30
0.0
  0
VERTEX
  5
608
100
AcDbEntity
  8
LAY-9
  6
CONTINUOUS
 62
     1
100
AcDbVertex
100
AcDb2dVertex
 10
436.927828
 20
343.727028
 30
0.0
  0
VERTEX
  5
609
100
AcDbEntity
  8
LAY-9
  6
CONTINUOUS
 62
     1
100
AcDbVertex
100
AcDb2dVertex
 10
437.081351
 20
344.575824
 30
0.0
  0
VERTEX
  5
60A
100
AcDbEntity
  8
LAY-9
  6
CONTINUOUS
 62
     1
100
AcDbVertex
100
AcDb2dVertex
 10
437.269519
 20
345.390252
 30
0.0
  0
VERTEX
  5
60B
100
AcDbEntity
  8
LAY-9
  6
CONTINUOUS
 62
     1
100
AcDbVertex
100
AcDb2dVertex
 10
437.4889
 20
346.175097
 30
0.0
  0
VERTEX
  5
60C
100
AcDbEntity
  8
LAY-9
  6
CONTINUOUS
 62
     1
100
AcDbVertex
100
AcDb2dVertex
 10
437.736061
 20
346.935146
 30
0.0
  0
VERTEX
  5
60D
100
AcDbEntity
  8
LAY-9
  6
CONTINUOUS
 62
     1
100
AcDbVertex
100
AcDb2dVertex
 10
438.007572
 20
347.675185
 30
0.0
  0
VERTEX
  5
60E
100
AcDbEntity
  8
LAY-9
  6
CONTINUOUS
 62
     1
100
AcDbVertex
100
AcDb2dVertex
 10
438.3
 20
348.4
 30
0.0
  0
VERTEX
  5
60F
100
AcDbEntity
  8
LAY-9
  6
CONTINUOUS
 62
     1
100
AcDbVertex
100
AcDb2dVertex
 10
438.599105
 20
349.092844
 30
0.0
  0
VERTEX
  5
610
100
AcDbEntity
  8
LAY-9
  6
CONTINUOUS
 62
     1
100
AcDbVertex
100
AcDb2dVertex
 10
438.906466
 20
349.785066
 30
0.0
  0
VERTEX
  5
611
100
AcDbEntity
  8
LAY-9
  6
CONTINUOUS
 62
     1
100
AcDbVertex
100
AcDb2dVertex
 10
439.213937
 20
350.485835
 30
0.0
  0
VERTEX
  5
612
100
AcDbEntity
  8
LAY-9
  6
CONTINUOUS
 62
     1
100
AcDbVertex
100
AcDb2dVertex
 10
439.51337
 20
351.20432
 30
0.0
  0
VERTEX
  5
613
100
AcDbEntity
  8
LAY-9
  6
CONTINUOUS
 62
     1
100
AcDbVertex
100
AcDb2dVertex
 10
439.796619
 20
351.94969
 30
0.0
  0
VERTEX
  5
614
100
AcDbEntity
  8
LAY-9
  6
CONTINUOUS
 62
     1
100
AcDbVertex
100
AcDb2dVertex
 10
440.055536
 20
352.731116
 30
0.0
  0
VERTEX
  5
615
100
AcDbEntity
  8
LAY-9
  6
CONTINUOUS
 62
     1
100
AcDbVertex
100
AcDb2dVertex
 10
440.281974
 20
353.557766
 30
0.0
  0
VERTEX
  5
616
100
AcDbEntity
  8
LAY-9
  6
CONTINUOUS
 62
     1
100
AcDbVertex
100
AcDb2dVertex
 10
440.467787
 20
354.43881
 30
0.0
  0
VERTEX
  5
617
100
AcDbEntity
  8
LAY-9
  6
CONTINUOUS
 62
     1
100
AcDbVertex
100
AcDb2dVertex
 10
440.604827
 20
355.383418
 30
0.0
  0
VERTEX
  5
618
100
AcDbEntity
  8
LAY-9
  6
CONTINUOUS
 62
     1
100
AcDbVertex
100
AcDb2dVertex
 10
440.684947
 20
356.400758
 30
0.0
  0
VERTEX
  5
619
100
AcDbEntity
  8
LAY-9
  6
CONTINUOUS
 62
     1
100
AcDbVertex
100
AcDb2dVertex
 10
440.7
 20
357.5
 30
0.0
  0
VERTEX
  5
61A
100
AcDbEntity
  8
LAY-9
  6
CONTINUOUS
 62
     1
100
AcDbVertex
100
AcDb2dVertex
 10
440.679443
 20
358.120933
 30
0.0
  0
VERTEX
  5
61B
100
AcDbEntity
  8
LAY-9
  6
CONTINUOUS
 62
     1
100
AcDbVertex
100
AcDb2dVertex
 10
440.641987
 20
358.753019
 30
0.0
  0
VERTEX
  5
61C
100
AcDbEntity
  8
LAY-9
  6
CONTINUOUS
 62
     1
100
AcDbVertex
100
AcDb2dVertex
 10
440.591605
 20
359.381447
 30
0.0
  0
VERTEX
  5
61D
100
AcDbEntity
  8
LAY-9
  6
CONTINUOUS
 62
     1
100
AcDbVertex
100
AcDb2dVertex
 10
440.53227
 20
359.991408
 30
0.0
  0
VERTEX
  5
61E
100
AcDbEntity
  8
LAY-9
  6
CONTINUOUS
 62
     1
100
AcDbVertex
100
AcDb2dVertex
 10
440.467956
 20
360.568092
 30
0.0
  0
VERTEX
  5
61F
100
AcDbEntity
  8
LAY-9
  6
CONTINUOUS
 62
     1
100
AcDbVertex
100
AcDb2dVertex
 10
440.402635
 20
361.096688
 30
0.0
  0
VERTEX
  5
620
100
AcDbEntity
  8
LAY-9
  6
CONTINUOUS
 62
     1
100
AcDbVertex
100
AcDb2dVertex
 10
440.340282
 20
361.562387
 30
0.0
  0
VERTEX
  5
621
100
AcDbEntity
  8
LAY-9
  6
CONTINUOUS
 62
     1
100
AcDbVertex
100
AcDb2dVertex
 10
440.284868
 20
361.950377
 30
0.0
  0
VERTEX
  5
622
100
AcDbEntity
  8
LAY-9
  6
CONTINUOUS
 62
     1
100
AcDbVertex
100
AcDb2dVertex
 10
440.240368
 20
362.24585
 30
0.0
  0
VERTEX
  5
623
100
AcDbEntity
  8
LAY-9
  6
CONTINUOUS
 62
     1
100
AcDbVertex
100
AcDb2dVertex
 10
440.210754
 20
362.433994
 30
0.0
  0
VERTEX
  5
624
100
AcDbEntity
  8
LAY-9
  6
CONTINUOUS
 62
     1
100
AcDbVertex
100
AcDb2dVertex
 10
440.2
 20
362.5
 30
0.0
  0
SEQEND
  5
625
100
AcDbEntity
  8
LAY-9
  6
CONTINUOUS
 62
     1
  0
LINE
  5
626
100
AcDbEntity
  8
LAY-9
  6
CONTINUOUS
 62
     1
100
AcDbLine
 10
265.4
 20
499.370972
 30
0.0
 11
284.0
 21
499.370972
 31
0.0
  0
LINE
  5
627
100
AcDbEntity
  8
LAY-9
  6
CONTINUOUS
 62
     1
100
AcDbLine
 10
265.6
 20
496.370972
 30
0.0
 11
283.0
 21
496.370972
 31
0.0
  0
LINE
  5
628
100
AcDbEntity
  8
LAY-9
  6
CONTINUOUS
 62
     1
100
AcDbLine
 10
44.721344
 20
499.370972
 30
0.0
 11
66.8
 21
499.370972
 31
0.0
  0
LINE
  5
629
100
AcDbEntity
  8
LAY-9
  6
CONTINUOUS
 62
     1
100
AcDbLine
 10
47.721344
 20
496.370972
 30
0.0
 11
91.721329
 21
496.370972
 31
0.0
  0
LINE
  5
62A
100
AcDbEntity
  8
LAY-9
  6
CONTINUOUS
 62
     1
100
AcDbLine
 10
419.5
 20
319.052063
 30
0.0
 11
441.7
 21
319.052063
 31
0.0
  0
LINE
  5
62B
100
AcDbEntity
  8
LAY-9
  6
CONTINUOUS
 62
     1
100
AcDbLine
 10
44.721344
 20
317.552063
 30
0.0
 11
44.721344
 21
309.052063
 31
0.0
  0
LINE
  5
62C
100
AcDbEntity
  8
LAY-9
  6
CONTINUOUS
 62
     1
100
AcDbLine
 10
44.721344
 20
425.1
 30
0.0
 11
44.721344
 21
319.052063
 31
0.0
  0
LINE
  5
62D
100
AcDbEntity
  8
LAY-9
  6
CONTINUOUS
 62
     1
100
AcDbLine
 10
47.721344
 20
329.052063
 30
0.0
 11
88.7
 21
329.052063
 31
0.0
  0
LINE
  5
62E
100
AcDbEntity
  8
LAY-9
  6
CONTINUOUS
 62
     1
100
AcDbLine
 10
128.9
 20
329.052063
 30
0.0
 11
438.7
 21
329.052063
 31
0.0
  0
LINE
  5
62F
100
AcDbEntity
  8
LAY-9
  6
CONTINUOUS
 62
     1
100
AcDbLine
 10
49.321344
 20
349.052063
 30
0.0
 11
89.221344
 21
349.052063
 31
0.0
  0
LINE
  5
630
100
AcDbEntity
  8
LAY-9
  6
CONTINUOUS
 62
     1
100
AcDbLine
 10
254.221344
 20
349.052063
 30
0.0
 11
438.540584
 21
349.052063
 31
0.0
  0
ARC
  5
631
100
AcDbEntity
  8
LAY-9
  6
CONTINUOUS
 62
     1
100
AcDbCircle
 10
107.721344
 20
162.052078
 30
0.0
 40
60.0
100
AcDbArc
 50
160.528779
 51
199.471221
  0
LINE
  5
632
100
AcDbEntity
  8
LAY-9
  6
CONTINUOUS
 62
     1
100
AcDbLine
 10
51.152802
 20
182.052078
 30
0.0
 11
293.760229
 21
182.052078
 31
0.0
  0
LINE
  5
633
100
AcDbEntity
  8
LAY-9
  6
CONTINUOUS
 62
     1
100
AcDbLine
 10
51.152802
 20
142.052078
 30
0.0
 11
293.760229
 21
142.052078
 31
0.0
  0
ARC
  5
634
100
AcDbEntity
  8
LAY-9
  6
CONTINUOUS
 62
     1
100
AcDbCircle
 10
107.721344
 20
162.052078
 30
0.0
 40
58.4
100
AcDbArc
 50
161.635051
 51
198.364949
  0
LINE
  5
635
100
AcDbEntity
  8
LAY-9
  6
CONTINUOUS
 62
     1
100
AcDbLine
 10
52.295718
 20
143.652078
 30
0.0
 11
293.099261
 21
143.652078
 31
0.0
  0
LINE
  5
636
100
AcDbEntity
  8
LAY-9
  6
CONTINUOUS
 62
     1
100
AcDbLine
 10
294.622017
 20
180.452078
 30
0.0
 11
52.295718
 21
180.452078
 31
0.0
  0
POLYLINE
  5
637
100
AcDbEntity
  8
LAY-9
  6
CONTINUOUS
 62
     1
100
AcDb2dPolyline
 66
     1
 10
0.0
 20
0.0
 30
0.0
 70
   128
  0
VERTEX
  5
638
100
AcDbEntity
  8
LAY-9
  6
CONTINUOUS
 62
     1
100
AcDbVertex
100
AcDb2dVertex
 10
293.760229
 20
182.052078
 30
0.0
  0
VERTEX
  5
639
100
AcDbEntity
  8
LAY-9
  6
CONTINUOUS
 62
     1
100
AcDbVertex
100
AcDb2dVertex
 10
293.827992
 20
181.896393
 30
0.0
  0
VERTEX
  5
63A
100
AcDbEntity
  8
LAY-9
  6
CONTINUOUS
 62
     1
100
AcDbVertex
100
AcDb2dVertex
 10
294.014094
 20
181.454746
 30
0.0
  0
VERTEX
  5
63B
100
AcDbEntity
  8
LAY-9
  6
CONTINUOUS
 62
     1
100
AcDbVertex
100
AcDb2dVertex
 10
294.292752
 20
180.765248
 30
0.0
  0
VERTEX
  5
63C
100
AcDbEntity
  8
LAY-9
  6
CONTINUOUS
 62
     1
100
AcDbVertex
100
AcDb2dVertex
 10
294.638185
 20
179.86601
 30
0.0
  0
VERTEX
  5
63D
100
AcDbEntity
  8
LAY-9
  6
CONTINUOUS
 62
     1
100
AcDbVertex
100
AcDb2dVertex
 10
295.024611
 20
178.795145
 30
0.0
  0
VERTEX
  5
63E
100
AcDbEntity
  8
LAY-9
  6
CONTINUOUS
 62
     1
100
AcDbVertex
100
AcDb2dVertex
 10
295.426247
 20
177.590762
 30
0.0
  0
VERTEX
  5
63F
100
AcDbEntity
  8
LAY-9
  6
CONTINUOUS
 62
     1
100
AcDbVertex
100
AcDb2dVertex
 10
295.817313
 20
176.290975
 30
0.0
  0
VERTEX
  5
640
100
AcDbEntity
  8
LAY-9
  6
CONTINUOUS
 62
     1
100
AcDbVertex
100
AcDb2dVertex
 10
296.172026
 20
174.933893
 30
0.0
  0
VERTEX
  5
641
100
AcDbEntity
  8
LAY-9
  6
CONTINUOUS
 62
     1
100
AcDbVertex
100
AcDb2dVertex
 10
296.464604
 20
173.557629
 30
0.0
  0
VERTEX
  5
642
100
AcDbEntity
  8
LAY-9
  6
CONTINUOUS
 62
     1
100
AcDbVertex
100
AcDb2dVertex
 10
296.669266
 20
172.200295
 30
0.0
  0
VERTEX
  5
643
100
AcDbEntity
  8
LAY-9
  6
CONTINUOUS
 62
     1
100
AcDbVertex
100
AcDb2dVertex
 10
296.760229
 20
170.9
 30
0.0
  0
VERTEX
  5
644
100
AcDbEntity
  8
LAY-9
  6
CONTINUOUS
 62
     1
100
AcDbVertex
100
AcDb2dVertex
 10
296.736357
 20
169.905848
 30
0.0
  0
VERTEX
  5
645
100
AcDbEntity
  8
LAY-9
  6
CONTINUOUS
 62
     1
100
AcDbVertex
100
AcDb2dVertex
 10
296.629395
 20
168.968668
 30
0.0
  0
VERTEX
  5
646
100
AcDbEntity
  8
LAY-9
  6
CONTINUOUS
 62
     1
100
AcDbVertex
100
AcDb2dVertex
 10
296.448632
 20
168.082413
 30
0.0
  0
VERTEX
  5
647
100
AcDbEntity
  8
LAY-9
  6
CONTINUOUS
 62
     1
100
AcDbVertex
100
AcDb2dVertex
 10
296.203355
 20
167.241035
 30
0.0
  0
VERTEX
  5
648
100
AcDbEntity
  8
LAY-9
  6
CONTINUOUS
 62
     1
100
AcDbVertex
100
AcDb2dVertex
 10
295.902852
 20
166.438487
 30
0.0
  0
VERTEX
  5
649
100
AcDbEntity
  8
LAY-9
  6
CONTINUOUS
 62
     1
100
AcDbVertex
100
AcDb2dVertex
 10
295.556412
 20
165.668723
 30
0.0
  0
VERTEX
  5
64A
100
AcDbEntity
  8
LAY-9
  6
CONTINUOUS
 62
     1
100
AcDbVertex
100
AcDb2dVertex
 10
295.173323
 20
164.925695
 30
0.0
  0
VERTEX
  5
64B
100
AcDbEntity
  8
LAY-9
  6
CONTINUOUS
 62
     1
100
AcDbVertex
100
AcDb2dVertex
 10
294.762871
 20
164.203355
 30
0.0
  0
VERTEX
  5
64C
100
AcDbEntity
  8
LAY-9
  6
CONTINUOUS
 62
     1
100
AcDbVertex
100
AcDb2dVertex
 10
294.334347
 20
163.495658
 30
0.0
  0
VERTEX
  5
64D
100
AcDbEntity
  8
LAY-9
  6
CONTINUOUS
 62
     1
100
AcDbVertex
100
AcDb2dVertex
 10
293.897037
 20
162.796555
 30
0.0
  0
VERTEX
  5
64E
100
AcDbEntity
  8
LAY-9
  6
CONTINUOUS
 62
     1
100
AcDbVertex
100
AcDb2dVertex
 10
293.460229
 20
162.1
 30
0.0
  0
VERTEX
  5
64F
100
AcDbEntity
  8
LAY-9
  6
CONTINUOUS
 62
     1
100
AcDbVertex
100
AcDb2dVertex
 10
293.054279
 20
161.435957
 30
0.0
  0
VERTEX
  5
650
100
AcDbEntity
  8
LAY-9
  6
CONTINUOUS
 62
     1
100
AcDbVertex
100
AcDb2dVertex
 10
292.662967
 20
160.764116
 30
0.0
  0
VERTEX
  5
651
100
AcDbEntity
  8
LAY-9
  6
CONTINUOUS
 62
     1
100
AcDbVertex
100
AcDb2dVertex
 10
292.292112
 20
160.079831
 30
0.0
  0
VERTEX
  5
652
100
AcDbEntity
  8
LAY-9
  6
CONTINUOUS
 62
     1
100
AcDbVertex
100
AcDb2dVertex
 10
291.947535
 20
159.378456
 30
0.0
  0
VERTEX
  5
653
100
AcDbEntity
  8
LAY-9
  6
CONTINUOUS
 62
     1
100
AcDbVertex
100
AcDb2dVertex
 10
291.635057
 20
158.655344
 30
0.0
  0
VERTEX
  5
654
100
AcDbEntity
  8
LAY-9
  6
CONTINUOUS
 62
     1
100
AcDbVertex
100
AcDb2dVertex
 10
291.360499
 20
157.905849
 30
0.0
  0
VERTEX
  5
655
100
AcDbEntity
  8
LAY-9
  6
CONTINUOUS
 62
     1
100
AcDbVertex
100
AcDb2dVertex
 10
291.129682
 20
157.125324
 30
0.0
  0
VERTEX
  5
656
100
AcDbEntity
  8
LAY-9
  6
CONTINUOUS
 62
     1
100
AcDbVertex
100
AcDb2dVertex
 10
290.948425
 20
156.309123
 30
0.0
  0
VERTEX
  5
657
100
AcDbEntity
  8
LAY-9
  6
CONTINUOUS
 62
     1
100
AcDbVertex
100
AcDb2dVertex
 10
290.82255
 20
155.452599
 30
0.0
  0
VERTEX
  5
658
100
AcDbEntity
  8
LAY-9
  6
CONTINUOUS
 62
     1
100
AcDbVertex
100
AcDb2dVertex
 10
290.757878
 20
154.551107
 30
0.0
  0
VERTEX
  5
659
100
AcDbEntity
  8
LAY-9
  6
CONTINUOUS
 62
     1
100
AcDbVertex
100
AcDb2dVertex
 10
290.760229
 20
153.6
 30
0.0
  0
VERTEX
  5
65A
100
AcDbEntity
  8
LAY-9
  6
CONTINUOUS
 62
     1
100
AcDbVertex
100
AcDb2dVertex
 10
290.871897
 20
152.250333
 30
0.0
  0
VERTEX
  5
65B
100
AcDbEntity
  8
LAY-9
  6
CONTINUOUS
 62
     1
100
AcDbVertex
100
AcDb2dVertex
 10
291.089395
 20
150.842824
 30
0.0
  0
VERTEX
  5
65C
100
AcDbEntity
  8
LAY-9
  6
CONTINUOUS
 62
     1
100
AcDbVertex
100
AcDb2dVertex
 10
291.388185
 20
149.416744
 30
0.0
  0
VERTEX
  5
65D
100
AcDbEntity
  8
LAY-9
  6
CONTINUOUS
 62
     1
100
AcDbVertex
100
AcDb2dVertex
 10
291.743726
 20
148.011364
 30
0.0
  0
VERTEX
  5
65E
100
AcDbEntity
  8
LAY-9
  6
CONTINUOUS
 62
     1
100
AcDbVertex
100
AcDb2dVertex
 10
292.131479
 20
146.665955
 30
0.0
  0
VERTEX
  5
65F
100
AcDbEntity
  8
LAY-9
  6
CONTINUOUS
 62
     1
100
AcDbVertex
100
AcDb2dVertex
 10
292.526904
 20
145.419789
 30
0.0
  0
VERTEX
  5
660
100
AcDbEntity
  8
LAY-9
  6
CONTINUOUS
 62
     1
100
AcDbVertex
100
AcDb2dVertex
 10
292.905462
 20
144.312136
 30
0.0
  0
VERTEX
  5
661
100
AcDbEntity
  8
LAY-9
  6
CONTINUOUS
 62
     1
100
AcDbVertex
100
AcDb2dVertex
 10
293.242613
 20
143.382267
 30
0.0
  0
VERTEX
  5
662
100
AcDbEntity
  8
LAY-9
  6
CONTINUOUS
 62
     1
100
AcDbVertex
100
AcDb2dVertex
 10
293.513818
 20
142.669454
 30
0.0
  0
VERTEX
  5
663
100
AcDbEntity
  8
LAY-9
  6
CONTINUOUS
 62
     1
100
AcDbVertex
100
AcDb2dVertex
 10
293.694536
 20
142.212967
 30
0.0
  0
VERTEX
  5
664
100
AcDbEntity
  8
LAY-9
  6
CONTINUOUS
 62
     1
100
AcDbVertex
100
AcDb2dVertex
 10
293.760229
 20
142.052078
 30
0.0
  0
SEQEND
  5
665
100
AcDbEntity
  8
LAY-9
  6
CONTINUOUS
 62
     1
  0
LINE
  5
666
100
AcDbEntity
  8
LAY-9
  6
CONTINUOUS
 62
     1
100
AcDbLine
 10
569.549836
 20
319.052063
 30
0.0
 11
539.4
 21
319.052063
 31
0.0
  0
POLYLINE
  5
667
100
AcDbEntity
  8
LAY-9
  6
CONTINUOUS
 62
     1
100
AcDb2dPolyline
 66
     1
 10
0.0
 20
0.0
 30
0.0
 70
   128
  0
VERTEX
  5
668
100
AcDbEntity
  8
LAY-9
  6
CONTINUOUS
 62
     1
100
AcDbVertex
100
AcDb2dVertex
 10
539.4
 20
319.052063
 30
0.0
  0
VERTEX
  5
669
100
AcDbEntity
  8
LAY-9
  6
CONTINUOUS
 62
     1
100
AcDbVertex
100
AcDb2dVertex
 10
539.477323
 20
318.904244
 30
0.0
  0
VERTEX
  5
66A
100
AcDbEntity
  8
LAY-9
  6
CONTINUOUS
 62
     1
100
AcDbVertex
100
AcDb2dVertex
 10
539.690593
 20
318.484372
 30
0.0
  0
VERTEX
  5
66B
100
AcDbEntity
  8
LAY-9
  6
CONTINUOUS
 62
     1
100
AcDbVertex
100
AcDb2dVertex
 10
540.011765
 20
317.827821
 30
0.0
  0
VERTEX
  5
66C
100
AcDbEntity
  8
LAY-9
  6
CONTINUOUS
 62
     1
100
AcDbVertex
100
AcDb2dVertex
 10
540.412792
 20
316.969967
 30
0.0
  0
VERTEX
  5
66D
100
AcDbEntity
  8
LAY-9
  6
CONTINUOUS
 62
     1
100
AcDbVertex
100
AcDb2dVertex
 10
540.865626
 20
315.946184
 30
0.0
  0
VERTEX
  5
66E
100
AcDbEntity
  8
LAY-9
  6
CONTINUOUS
 62
     1
100
AcDbVertex
100
AcDb2dVertex
 10
541.342223
 20
314.791848
 30
0.0
  0
VERTEX
  5
66F
100
AcDbEntity
  8
LAY-9
  6
CONTINUOUS
 62
     1
100
AcDbVertex
100
AcDb2dVertex
 10
541.814534
 20
313.542334
 30
0.0
  0
VERTEX
  5
670
100
AcDbEntity
  8
LAY-9
  6
CONTINUOUS
 62
     1
100
AcDbVertex
100
AcDb2dVertex
 10
542.254514
 20
312.233017
 30
0.0
  0
VERTEX
  5
671
100
AcDbEntity
  8
LAY-9
  6
CONTINUOUS
 62
     1
100
AcDbVertex
100
AcDb2dVertex
 10
542.634116
 20
310.899272
 30
0.0
  0
VERTEX
  5
672
100
AcDbEntity
  8
LAY-9
  6
CONTINUOUS
 62
     1
100
AcDbVertex
100
AcDb2dVertex
 10
542.925294
 20
309.576475
 30
0.0
  0
VERTEX
  5
673
100
AcDbEntity
  8
LAY-9
  6
CONTINUOUS
 62
     1
100
AcDbVertex
100
AcDb2dVertex
 10
543.1
 20
308.3
 30
0.0
  0
VERTEX
  5
674
100
AcDbEntity
  8
LAY-9
  6
CONTINUOUS
 62
     1
100
AcDbVertex
100
AcDb2dVertex
 10
543.138934
 20
307.160918
 30
0.0
  0
VERTEX
  5
675
100
AcDbEntity
  8
LAY-9
  6
CONTINUOUS
 62
     1
100
AcDbVertex
100
AcDb2dVertex
 10
543.062113
 20
306.087711
 30
0.0
  0
VERTEX
  5
676
100
AcDbEntity
  8
LAY-9
  6
CONTINUOUS
 62
     1
100
AcDbVertex
100
AcDb2dVertex
 10
542.883102
 20
305.073147
 30
0.0
  0
VERTEX
  5
677
100
AcDbEntity
  8
LAY-9
  6
CONTINUOUS
 62
     1
100
AcDbVertex
100
AcDb2dVertex
 10
542.615466
 20
304.109994
 30
0.0
  0
VERTEX
  5
678
100
AcDbEntity
  8
LAY-9
  6
CONTINUOUS
 62
     1
100
AcDbVertex
100
AcDb2dVertex
 10
542.272771
 20
303.191022
 30
0.0
  0
VERTEX
  5
679
100
AcDbEntity
  8
LAY-9
  6
CONTINUOUS
 62
     1
100
AcDbVertex
100
AcDb2dVertex
 10
541.868582
 20
302.308998
 30
0.0
  0
VERTEX
  5
67A
100
AcDbEntity
  8
LAY-9
  6
CONTINUOUS
 62
     1
100
AcDbVertex
100
AcDb2dVertex
 10
541.416463
 20
301.456691
 30
0.0
  0
VERTEX
  5
67B
100
AcDbEntity
  8
LAY-9
  6
CONTINUOUS
 62
     1
100
AcDbVertex
100
AcDb2dVertex
 10
540.92998
 20
300.626869
 30
0.0
  0
VERTEX
  5
67C
100
AcDbEntity
  8
LAY-9
  6
CONTINUOUS
 62
     1
100
AcDbVertex
100
AcDb2dVertex
 10
540.422699
 20
299.812301
 30
0.0
  0
VERTEX
  5
67D
100
AcDbEntity
  8
LAY-9
  6
CONTINUOUS
 62
     1
100
AcDbVertex
100
AcDb2dVertex
 10
539.908184
 20
299.005755
 30
0.0
  0
VERTEX
  5
67E
100
AcDbEntity
  8
LAY-9
  6
CONTINUOUS
 62
     1
100
AcDbVertex
100
AcDb2dVertex
 10
539.4
 20
298.2
 30
0.0
  0
VERTEX
  5
67F
100
AcDbEntity
  8
LAY-9
  6
CONTINUOUS
 62
     1
100
AcDbVertex
100
AcDb2dVertex
 10
538.892899
 20
297.357423
 30
0.0
  0
VERTEX
  5
680
100
AcDbEntity
  8
LAY-9
  6
CONTINUOUS
 62
     1
100
AcDbVertex
100
AcDb2dVertex
 10
538.416311
 20
296.502229
 30
0.0
  0
VERTEX
  5
681
100
AcDbEntity
  8
LAY-9
  6
CONTINUOUS
 62
     1
100
AcDbVertex
100
AcDb2dVertex
 10
537.979325
 20
295.628734
 30
0.0
  0
VERTEX
  5
682
100
AcDbEntity
  8
LAY-9
  6
CONTINUOUS
 62
     1
100
AcDbVertex
100
AcDb2dVertex
 10
537.591033
 20
294.731255
 30
0.0
  0
VERTEX
  5
683
100
AcDbEntity
  8
LAY-9
  6
CONTINUOUS
 62
     1
100
AcDbVertex
100
AcDb2dVertex
 10
537.260524
 20
293.80411
 30
0.0
  0
VERTEX
  5
684
100
AcDbEntity
  8
LAY-9
  6
CONTINUOUS
 62
     1
100
AcDbVertex
100
AcDb2dVertex
 10
536.99689
 20
292.841616
 30
0.0
  0
VERTEX
  5
685
100
AcDbEntity
  8
LAY-9
  6
CONTINUOUS
 62
     1
100
AcDbVertex
100
AcDb2dVertex
 10
536.809221
 20
291.838089
 30
0.0
  0
VERTEX
  5
686
100
AcDbEntity
  8
LAY-9
  6
CONTINUOUS
 62
     1
100
AcDbVertex
100
AcDb2dVertex
 10
536.706607
 20
290.787847
 30
0.0
  0
VERTEX
  5
687
100
AcDbEntity
  8
LAY-9
  6
CONTINUOUS
 62
     1
100
AcDbVertex
100
AcDb2dVertex
 10
536.698138
 20
289.685207
 30
0.0
  0
VERTEX
  5
688
100
AcDbEntity
  8
LAY-9
  6
CONTINUOUS
 62
     1
100
AcDbVertex
100
AcDb2dVertex
 10
536.792906
 20
288.524485
 30
0.0
  0
VERTEX
  5
689
100
AcDbEntity
  8
LAY-9
  6
CONTINUOUS
 62
     1
100
AcDbVertex
100
AcDb2dVertex
 10
537.0
 20
287.3
 30
0.0
  0
VERTEX
  5
68A
100
AcDbEntity
  8
LAY-9
  6
CONTINUOUS
 62
     1
100
AcDbVertex
100
AcDb2dVertex
 10
537.265206
 20
286.216072
 30
0.0
  0
VERTEX
  5
68B
100
AcDbEntity
  8
LAY-9
  6
CONTINUOUS
 62
     1
100
AcDbVertex
100
AcDb2dVertex
 10
537.597667
 20
285.109127
 30
0.0
  0
VERTEX
  5
68C
100
AcDbEntity
  8
LAY-9
  6
CONTINUOUS
 62
     1
100
AcDbVertex
100
AcDb2dVertex
 10
537.97789
 20
284.005767
 30
0.0
  0
VERTEX
  5
68D
100
AcDbEntity
  8
LAY-9
  6
CONTINUOUS
 62
     1
100
AcDbVertex
100
AcDb2dVertex
 10
538.386382
 20
282.932591
 30
0.0
  0
VERTEX
  5
68E
100
AcDbEntity
  8
LAY-9
  6
CONTINUOUS
 62
     1
100
AcDbVertex
100
AcDb2dVertex
 10
538.803652
 20
281.916202
 30
0.0
  0
VERTEX
  5
68F
100
AcDbEntity
  8
LAY-9
  6
CONTINUOUS
 62
     1
100
AcDbVertex
100
AcDb2dVertex
 10
539.210206
 20
280.983198
 30
0.0
  0
VERTEX
  5
690
100
AcDbEntity
  8
LAY-9
  6
CONTINUOUS
 62
     1
100
AcDbVertex
100
AcDb2dVertex
 10
539.586551
 20
280.160182
 30
0.0
  0
VERTEX
  5
691
100
AcDbEntity
  8
LAY-9
  6
CONTINUOUS
 62
     1
100
AcDbVertex
100
AcDb2dVertex
 10
539.913196
 20
279.473753
 30
0.0
  0
VERTEX
  5
692
100
AcDbEntity
  8
LAY-9
  6
CONTINUOUS
 62
     1
100
AcDbVertex
100
AcDb2dVertex
 10
540.170648
 20
278.950513
 30
0.0
  0
VERTEX
  5
693
100
AcDbEntity
  8
LAY-9
  6
CONTINUOUS
 62
     1
100
AcDbVertex
100
AcDb2dVertex
 10
540.339413
 20
278.617062
 30
0.0
  0
VERTEX
  5
694
100
AcDbEntity
  8
LAY-9
  6
CONTINUOUS
 62
     1
100
AcDbVertex
100
AcDb2dVertex
 10
540.4
 20
278.5
 30
0.0
  0
SEQEND
  5
695
100
AcDbEntity
  8
LAY-9
  6
CONTINUOUS
 62
     1
  0
POLYLINE
  5
696
100
AcDbEntity
  8
LAY-9
  6
CONTINUOUS
 62
     1
100
AcDb2dPolyline
 66
     1
 10
0.0
 20
0.0
 30
0.0
 70
   128
  0
VERTEX
  5
697
100
AcDbEntity
  8
LAY-9
  6
CONTINUOUS
 62
     1
100
AcDbVertex
100
AcDb2dVertex
 10
779.699672
 20
319.052063
 30
0.0
  0
VERTEX
  5
698
100
AcDbEntity
  8
LAY-9
  6
CONTINUOUS
 62
     1
100
AcDbVertex
100
AcDb2dVertex
 10
779.776995
 20
318.904244
 30
0.0
  0
VERTEX
  5
699
100
AcDbEntity
  8
LAY-9
  6
CONTINUOUS
 62
     1
100
AcDbVertex
100
AcDb2dVertex
 10
779.990265
 20
318.484372
 30
0.0
  0
VERTEX
  5
69A
100
AcDbEntity
  8
LAY-9
  6
CONTINUOUS
 62
     1
100
AcDbVertex
100
AcDb2dVertex
 10
780.311437
 20
317.827821
 30
0.0
  0
VERTEX
  5
69B
100
AcDbEntity
  8
LAY-9
  6
CONTINUOUS
 62
     1
100
AcDbVertex
100
AcDb2dVertex
 10
780.712464
 20
316.969967
 30
0.0
  0
VERTEX
  5
69C
100
AcDbEntity
  8
LAY-9
  6
CONTINUOUS
 62
     1
100
AcDbVertex
100
AcDb2dVertex
 10
781.165298
 20
315.946184
 30
0.0
  0
VERTEX
  5
69D
100
AcDbEntity
  8
LAY-9
  6
CONTINUOUS
 62
     1
100
AcDbVertex
100
AcDb2dVertex
 10
781.641895
 20
314.791848
 30
0.0
  0
VERTEX
  5
69E
100
AcDbEntity
  8
LAY-9
  6
CONTINUOUS
 62
     1
100
AcDbVertex
100
AcDb2dVertex
 10
782.114206
 20
313.542334
 30
0.0
  0
VERTEX
  5
69F
100
AcDbEntity
  8
LAY-9
  6
CONTINUOUS
 62
     1
100
AcDbVertex
100
AcDb2dVertex
 10
782.554186
 20
312.233017
 30
0.0
  0
VERTEX
  5
6A0
100
AcDbEntity
  8
LAY-9
  6
CONTINUOUS
 62
     1
100
AcDbVertex
100
AcDb2dVertex
 10
782.933788
 20
310.899272
 30
0.0
  0
VERTEX
  5
6A1
100
AcDbEntity
  8
LAY-9
  6
CONTINUOUS
 62
     1
100
AcDbVertex
100
AcDb2dVertex
 10
783.224966
 20
309.576475
 30
0.0
  0
VERTEX
  5
6A2
100
AcDbEntity
  8
LAY-9
  6
CONTINUOUS
 62
     1
100
AcDbVertex
100
AcDb2dVertex
 10
783.399672
 20
308.3
 30
0.0
  0
VERTEX
  5
6A3
100
AcDbEntity
  8
LAY-9
  6
CONTINUOUS
 62
     1
100
AcDbVertex
100
AcDb2dVertex
 10
783.438606
 20
307.160918
 30
0.0
  0
VERTEX
  5
6A4
100
AcDbEntity
  8
LAY-9
  6
CONTINUOUS
 62
     1
100
AcDbVertex
100
AcDb2dVertex
 10
783.361785
 20
306.087711
 30
0.0
  0
VERTEX
  5
6A5
100
AcDbEntity
  8
LAY-9
  6
CONTINUOUS
 62
     1
100
AcDbVertex
100
AcDb2dVertex
 10
783.182774
 20
305.073147
 30
0.0
  0
VERTEX
  5
6A6
100
AcDbEntity
  8
LAY-9
  6
CONTINUOUS
 62
     1
100
AcDbVertex
100
AcDb2dVertex
 10
782.915138
 20
304.109994
 30
0.0
  0
VERTEX
  5
6A7
100
AcDbEntity
  8
LAY-9
  6
CONTINUOUS
 62
     1
100
AcDbVertex
100
AcDb2dVertex
 10
782.572443
 20
303.191022
 30
0.0
  0
VERTEX
  5
6A8
100
AcDbEntity
  8
LAY-9
  6
CONTINUOUS
 62
     1
100
AcDbVertex
100
AcDb2dVertex
 10
782.168254
 20
302.308998
 30
0.0
  0
VERTEX
  5
6A9
100
AcDbEntity
  8
LAY-9
  6
CONTINUOUS
 62
     1
100
AcDbVertex
100
AcDb2dVertex
 10
781.716135
 20
301.456691
 30
0.0
  0
VERTEX
  5
6AA
100
AcDbEntity
  8
LAY-9
  6
CONTINUOUS
 62
     1
100
AcDbVertex
100
AcDb2dVertex
 10
781.229652
 20
300.626869
 30
0.0
  0
VERTEX
  5
6AB
100
AcDbEntity
  8
LAY-9
  6
CONTINUOUS
 62
     1
100
AcDbVertex
100
AcDb2dVertex
 10
780.722371
 20
299.812301
 30
0.0
  0
VERTEX
  5
6AC
100
AcDbEntity
  8
LAY-9
  6
CONTINUOUS
 62
     1
100
AcDbVertex
100
AcDb2dVertex
 10
780.207856
 20
299.005755
 30
0.0
  0
VERTEX
  5
6AD
100
AcDbEntity
  8
LAY-9
  6
CONTINUOUS
 62
     1
100
AcDbVertex
100
AcDb2dVertex
 10
779.699672
 20
298.2
 30
0.0
  0
VERTEX
  5
6AE
100
AcDbEntity
  8
LAY-9
  6
CONTINUOUS
 62
     1
100
AcDbVertex
100
AcDb2dVertex
 10
779.192571
 20
297.357423
 30
0.0
  0
VERTEX
  5
6AF
100
AcDbEntity
  8
LAY-9
  6
CONTINUOUS
 62
     1
100
AcDbVertex
100
AcDb2dVertex
 10
778.715983
 20
296.502229
 30
0.0
  0
VERTEX
  5
6B0
100
AcDbEntity
  8
LAY-9
  6
CONTINUOUS
 62
     1
100
AcDbVertex
100
AcDb2dVertex
 10
778.278997
 20
295.628734
 30
0.0
  0
VERTEX
  5
6B1
100
AcDbEntity
  8
LAY-9
  6
CONTINUOUS
 62
     1
100
AcDbVertex
100
AcDb2dVertex
 10
777.890705
 20
294.731255
 30
0.0
  0
VERTEX
  5
6B2
100
AcDbEntity
  8
LAY-9
  6
CONTINUOUS
 62
     1
100
AcDbVertex
100
AcDb2dVertex
 10
777.560196
 20
293.80411
 30
0.0
  0
VERTEX
  5
6B3
100
AcDbEntity
  8
LAY-9
  6
CONTINUOUS
 62
     1
100
AcDbVertex
100
AcDb2dVertex
 10
777.296562
 20
292.841616
 30
0.0
  0
VERTEX
  5
6B4
100
AcDbEntity
  8
LAY-9
  6
CONTINUOUS
 62
     1
100
AcDbVertex
100
AcDb2dVertex
 10
777.108893
 20
291.838089
 30
0.0
  0
VERTEX
  5
6B5
100
AcDbEntity
  8
LAY-9
  6
CONTINUOUS
 62
     1
100
AcDbVertex
100
AcDb2dVertex
 10
777.006279
 20
290.787847
 30
0.0
  0
VERTEX
  5
6B6
100
AcDbEntity
  8
LAY-9
  6
CONTINUOUS
 62
     1
100
AcDbVertex
100
AcDb2dVertex
 10
776.99781
 20
289.685207
 30
0.0
  0
VERTEX
  5
6B7
100
AcDbEntity
  8
LAY-9
  6
CONTINUOUS
 62
     1
100
AcDbVertex
100
AcDb2dVertex
 10
777.092578
 20
288.524485
 30
0.0
  0
VERTEX
  5
6B8
100
AcDbEntity
  8
LAY-9
  6
CONTINUOUS
 62
     1
100
AcDbVertex
100
AcDb2dVertex
 10
777.299672
 20
287.3
 30
0.0
  0
VERTEX
  5
6B9
100
AcDbEntity
  8
LAY-9
  6
CONTINUOUS
 62
     1
100
AcDbVertex
100
AcDb2dVertex
 10
777.564878
 20
286.216072
 30
0.0
  0
VERTEX
  5
6BA
100
AcDbEntity
  8
LAY-9
  6
CONTINUOUS
 62
     1
100
AcDbVertex
100
AcDb2dVertex
 10
777.897339
 20
285.109127
 30
0.0
  0
VERTEX
  5
6BB
100
AcDbEntity
  8
LAY-9
  6
CONTINUOUS
 62
     1
100
AcDbVertex
100
AcDb2dVertex
 10
778.277562
 20
284.005767
 30
0.0
  0
VERTEX
  5
6BC
100
AcDbEntity
  8
LAY-9
  6
CONTINUOUS
 62
     1
100
AcDbVertex
100
AcDb2dVertex
 10
778.686054
 20
282.932591
 30
0.0
  0
VERTEX
  5
6BD
100
AcDbEntity
  8
LAY-9
  6
CONTINUOUS
 62
     1
100
AcDbVertex
100
AcDb2dVertex
 10
779.103324
 20
281.916202
 30
0.0
  0
VERTEX
  5
6BE
100
AcDbEntity
  8
LAY-9
  6
CONTINUOUS
 62
     1
100
AcDbVertex
100
AcDb2dVertex
 10
779.509878
 20
280.983198
 30
0.0
  0
VERTEX
  5
6BF
100
AcDbEntity
  8
LAY-9
  6
CONTINUOUS
 62
     1
100
AcDbVertex
100
AcDb2dVertex
 10
779.886223
 20
280.160182
 30
0.0
  0
VERTEX
  5
6C0
100
AcDbEntity
  8
LAY-9
  6
CONTINUOUS
 62
     1
100
AcDbVertex
100
AcDb2dVertex
 10
780.212868
 20
279.473753
 30
0.0
  0
VERTEX
  5
6C1
100
AcDbEntity
  8
LAY-9
  6
CONTINUOUS
 62
     1
100
AcDbVertex
100
AcDb2dVertex
 10
780.47032
 20
278.950513
 30
0.0
  0
VERTEX
  5
6C2
100
AcDbEntity
  8
LAY-9
  6
CONTINUOUS
 62
     1
100
AcDbVertex
100
AcDb2dVertex
 10
780.639085
 20
278.617062
 30
0.0
  0
VERTEX
  5
6C3
100
AcDbEntity
  8
LAY-9
  6
CONTINUOUS
 62
     1
100
AcDbVertex
100
AcDb2dVertex
 10
780.699672
 20
278.5
 30
0.0
  0
SEQEND
  5
6C4
100
AcDbEntity
  8
LAY-9
  6
CONTINUOUS
 62
     1
  0
LINE
  5
6C5
100
AcDbEntity
  8
LAY-9
  6
CONTINUOUS
 62
     1
100
AcDbLine
 10
643.449836
 20
330.852063
 30
0.0
 11
643.449836
 21
353.552063
 31
0.0
  0
LINE
  5
6C6
100
AcDbEntity
  8
LAY-9
  6
CONTINUOUS
 62
     1
100
AcDbLine
 10
675.649836
 20
330.852063
 30
0.0
 11
675.649836
 21
353.552063
 31
0.0
  0
LINE
  5
6C7
100
AcDbEntity
  8
LAY-9
  6
CONTINUOUS
 62
     1
100
AcDbLine
 10
643.449836
 20
353.552063
 30
0.0
 11
675.649836
 21
353.552063
 31
0.0
  0
LINE
  5
6C8
100
AcDbEntity
  8
LAY-9
  6
CONTINUOUS
 62
     1
100
AcDbLine
 10
643.449836
 20
355.852063
 30
0.0
 11
675.649836
 21
355.852063
 31
0.0
  0
LINE
  5
6C9
100
AcDbEntity
  8
LAY-9
  6
CONTINUOUS
 62
     1
100
AcDbLine
 10
639.549836
 20
329.052063
 30
0.0
 11
641.149836
 21
329.052063
 31
0.0
  0
LINE
  5
6CA
100
AcDbEntity
  8
LAY-9
  6
CONTINUOUS
 62
     1
100
AcDbLine
 10
679.549836
 20
329.052063
 30
0.0
 11
677.949836
 21
329.052063
 31
0.0
  0
ARC
  5
6CB
100
AcDbEntity
  8
LAY-9
  6
CONTINUOUS
 62
     1
100
AcDbCircle
 10
643.449836
 20
353.552063
 30
0.0
 40
2.3
100
AcDbArc
 50
90.0
 51
180.0
  0
ARC
  5
6CC
100
AcDbEntity
  8
LAY-9
  6
CONTINUOUS
 62
     1
100
AcDbCircle
 10
675.649836
 20
353.552063
 30
0.0
 40
2.3
100
AcDbArc
 50
0.0
 51
90.0
  0
LINE
  5
6CD
100
AcDbEntity
  8
LAY-9
  6
CONTINUOUS
 62
     1
100
AcDbLine
 10
643.449836
 20
330.852063
 30
0.0
 11
641.149836
 21
330.852063
 31
0.0
  0
LINE
  5
6CE
100
AcDbEntity
  8
LAY-9
  6
CONTINUOUS
 62
     1
100
AcDbLine
 10
677.949836
 20
330.852063
 30
0.0
 11
675.649836
 21
330.852063
 31
0.0
  0
LINE
  5
6CF
100
AcDbEntity
  8
LAY-9
  6
CONTINUOUS
 62
     1
100
AcDbLine
 10
643.449836
 20
349.052063
 30
0.0
 11
649.049836
 21
349.052063
 31
0.0
  0
LINE
  5
6D0
100
AcDbEntity
  8
LAY-9
  6
CONTINUOUS
 62
     1
100
AcDbLine
 10
674.6
 20
349.052063
 30
0.0
 11
675.649836
 21
349.052063
 31
0.0
  0
LINE
  5
6D1
100
AcDbEntity
  8
LAY-9
  6
CONTINUOUS
 62
     1
100
AcDbLine
 10
779.699672
 20
319.052063
 30
0.0
 11
756.2
 21
319.052063
 31
0.0
  0
LINE
  5
6D2
100
AcDbEntity
  8
LAY-9
  6
CONTINUOUS
 62
     1
100
AcDbLine
 10
639.549836
 20
496.370972
 30
0.0
 11
679.549836
 21
496.370972
 31
0.0
  0
LINE
  5
6D3
100
AcDbEntity
  8
LAY-9
  6
CONTINUOUS
 62
     1
100
AcDbLine
 10
707.949836
 20
500.970972
 30
0.0
 11
707.949836
 21
525.3
 31
0.0
  0
LINE
  5
6D4
100
AcDbEntity
  8
LAY-9
  6
CONTINUOUS
 62
     1
100
AcDbLine
 10
611.149836
 20
500.970972
 30
0.0
 11
611.149836
 21
525.3
 31
0.0
  0
LINE
  5
6D5
100
AcDbEntity
  8
LAY-9
  6
CONTINUOUS
 62
     1
100
AcDbLine
 10
609.549836
 20
499.370972
 30
0.0
 11
609.549836
 21
525.3
 31
0.0
  0
LINE
  5
6D6
100
AcDbEntity
  8
LAY-9
  6
CONTINUOUS
 62
     1
100
AcDbLine
 10
609.549836
 20
499.370972
 30
0.0
 11
709.549836
 21
499.370972
 31
0.0
  0
LINE
  5
6D7
100
AcDbEntity
  8
LAY-9
  6
CONTINUOUS
 62
     1
100
AcDbLine
 10
709.549836
 20
499.370972
 30
0.0
 11
709.549836
 21
525.3
 31
0.0
  0
LINE
  5
6D8
100
AcDbEntity
  8
LAY-9
  6
CONTINUOUS
 62
     1
100
AcDbLine
 10
679.549836
 20
430.1
 30
0.0
 11
679.549836
 21
496.370972
 31
0.0
  0
LINE
  5
6D9
100
AcDbEntity
  8
LAY-9
  6
CONTINUOUS
 62
     1
100
AcDbLine
 10
677.949836
 20
430.1
 30
0.0
 11
677.949836
 21
496.370972
 31
0.0
  0
LINE
  5
6DA
100
AcDbEntity
  8
LAY-9
  6
CONTINUOUS
 62
     1
100
AcDbLine
 10
641.149836
 20
430.1
 30
0.0
 11
641.149836
 21
496.370972
 31
0.0
  0
LINE
  5
6DB
100
AcDbEntity
  8
LAY-9
  6
CONTINUOUS
 62
     1
100
AcDbLine
 10
639.549836
 20
430.1
 30
0.0
 11
639.549836
 21
496.370972
 31
0.0
  0
LINE
  5
6DC
100
AcDbEntity
  8
LAY-9
  6
CONTINUOUS
 62
     1
100
AcDbLine
 10
639.549836
 20
329.052063
 30
0.0
 11
639.549836
 21
425.1
 31
0.0
  0
LINE
  5
6DD
100
AcDbEntity
  8
LAY-9
  6
CONTINUOUS
 62
     1
100
AcDbLine
 10
641.149836
 20
329.052063
 30
0.0
 11
641.149836
 21
425.1
 31
0.0
  0
LINE
  5
6DE
100
AcDbEntity
  8
LAY-9
  6
CONTINUOUS
 62
     1
100
AcDbLine
 10
679.549836
 20
329.052063
 30
0.0
 11
679.549836
 21
425.1
 31
0.0
  0
LINE
  5
6DF
100
AcDbEntity
  8
LAY-9
  6
CONTINUOUS
 62
     1
100
AcDbLine
 10
677.949836
 20
329.052063
 30
0.0
 11
677.949836
 21
425.1
 31
0.0
  0
LINE
  5
6E0
100
AcDbEntity
  8
LAY-9
  6
CONTINUOUS
 62
     1
100
AcDbLine
 10
679.549836
 20
485.870972
 30
0.0
 11
679.549836
 21
490.370972
 31
0.0
  0
LINE
  5
6E1
100
AcDbEntity
  8
LAY-9
  6
DIVIDE
 62
     1
100
AcDbLine
 10
624.8
 20
430.1
 30
0.0
 11
694.0
 21
430.1
 31
0.0
  0
LINE
  5
6E2
100
AcDbEntity
  8
LAY-9
  6
DIVIDE
 62
     1
100
AcDbLine
 10
624.8
 20
425.1
 30
0.0
 11
694.0
 21
425.1
 31
0.0
  0
LINE
  5
6E3
100
AcDbEntity
  8
LAY-9
  6
CONTINUOUS
 62
     1
100
AcDbLine
 10
675.549836
 20
500.970972
 30
0.0
 11
707.949836
 21
500.970972
 31
0.0
  0
LINE
  5
6E4
100
AcDbEntity
  8
LAY-9
  6
CONTINUOUS
 62
     1
100
AcDbLine
 10
611.149836
 20
500.970972
 30
0.0
 11
643.549836
 21
500.970972
 31
0.0
  0
LINE
  5
6E5
100
AcDbEntity
  8
LAY-10
  6
CONTINUOUS
 62
     5
100
AcDbLine
 10
15.0
 20
15.0
 30
0.0
 11
826.0
 21
15.0
 31
0.0
  0
LINE
  5
6E6
100
AcDbEntity
  8
LAY-10
  6
CONTINUOUS
 62
     5
100
AcDbLine
 10
826.0
 20
15.0
 30
0.0
 11
826.0
 21
579.0
 31
0.0
  0
LINE
  5
6E7
100
AcDbEntity
  8
LAY-10
  6
CONTINUOUS
 62
     5
100
AcDbLine
 10
15.0
 20
15.0
 30
0.0
 11
15.0
 21
579.0
 31
0.0
  0
LINE
  5
6E8
100
AcDbEntity
  8
LAY-10
  6
CONTINUOUS
 62
     5
100
AcDbLine
 10
15.0
 20
40.0
 30
0.0
 11
826.0
 21
40.0
 31
0.0
  0
LINE
  5
6E9
100
AcDbEntity
  8
LAY-10
  6
CONTINUOUS
 62
     1
100
AcDbLine
 10
224.0
 20
40.0
 30
0.0
 11
224.0
 21
15.0
 31
0.0
  0
LINE
  5
6EA
100
AcDbEntity
  8
LAY-10
  6
CONTINUOUS
 62
     1
100
AcDbLine
 10
249.5
 20
40.0
 30
0.0
 11
249.5
 21
15.0
 31
0.0
  0
LINE
  5
6EB
100
AcDbEntity
  8
LAY-10
  6
CONTINUOUS
 62
     1
100
AcDbLine
 10
275.0
 20
40.0
 30
0.0
 11
275.0
 21
15.0
 31
0.0
  0
LINE
  5
6EC
100
AcDbEntity
  8
LAY-10
  6
CONTINUOUS
 62
     1
100
AcDbLine
 10
300.5
 20
40.0
 30
0.0
 11
300.5
 21
15.0
 31
0.0
  0
LINE
  5
6ED
100
AcDbEntity
  8
LAY-10
  6
CONTINUOUS
 62
     1
100
AcDbLine
 10
326.0
 20
40.0
 30
0.0
 11
326.0
 21
15.0
 31
0.0
  0
LINE
  5
6EE
100
AcDbEntity
  8
LAY-10
  6
CONTINUOUS
 62
     1
100
AcDbLine
 10
377.0
 20
40.0
 30
0.0
 11
377.0
 21
15.0
 31
0.0
  0
LINE
  5
6EF
100
AcDbEntity
  8
LAY-10
  6
CONTINUOUS
 62
     1
100
AcDbLine
 10
738.0
 20
40.0
 30
0.0
 11
738.0
 21
15.0
 31
0.0
  0
LINE
  5
6F0
100
AcDbEntity
  8
LAY-10
  6
CONTINUOUS
 62
     1
100
AcDbLine
 10
224.0
 20
32.0
 30
0.0
 11
377.0
 21
32.0
 31
0.0
  0
TEXT
  5
6F1
100
AcDbEntity
  8
LAY-10
  6
CONTINUOUS
 62
     4
100
AcDbText
 10
227.5
 20
33.0
 30
0.0
 40
6.0
  1
検　  図
 41
0.57856
  7
EXCADSTD
 72
     5
 11
246.700001
 21
33.0
 31
0.0
100
AcDbText
  0
TEXT
  5
6F2
100
AcDbEntity
  8
LAY-10
  6
CONTINUOUS
 62
     4
100
AcDbText
 10
253.2
 20
33.0
 30
0.0
 40
6.0
  1
担　　当
 41
0.672
  7
EXCADSTD
 72
     5
 11
272.400001
 21
33.0
 31
0.0
100
AcDbText
  0
TEXT
  5
6F3
100
AcDbEntity
  8
LAY-10
  6
CONTINUOUS
 62
     4
100
AcDbText
 10
278.4
 20
33.0
 30
0.0
 40
6.0
  1
製　　図
 41
0.672
  7
EXCADSTD
 72
     5
 11
297.600001
 21
33.0
 31
0.0
100
AcDbText
  0
TEXT
  5
6F4
100
AcDbEntity
  8
LAY-10
  6
CONTINUOUS
 62
     4
100
AcDbText
 10
303.9
 20
33.0
 30
0.0
 40
6.0
  1
尺　　度
 41
0.672
  7
EXCADSTD
 72
     5
 11
323.100001
 21
33.0
 31
0.0
100
AcDbText
  0
TEXT
  5
6F5
100
AcDbEntity
  8
LAY-10
  6
CONTINUOUS
 62
     4
100
AcDbText
 10
339.5
 20
33.0
 30
0.0
 40
6.0
  1
作成年月日
 41
0.672
  7
EXCADSTD
 72
     5
 11
363.500001
 21
33.0
 31
0.0
100
AcDbText
  0
TEXT
  5
6F6
100
AcDbEntity
  8
LAY-10
  6
CONTINUOUS
 62
   134
100
AcDbText
 10
42.98
 20
20.91
 30
0.0
 40
13.0
  1
日本ドアーチエック製造株式会社
 41
0.653908
  7
EXCADSTD
 72
     5
 11
194.779994
 21
20.91
 31
0.0
100
AcDbText
  0
LINE
  5
6F7
100
AcDbEntity
  8
LAY-10
  6
CONTINUOUS
 62
     1
100
AcDbLine
 10
841.0
 20
0.0
 30
0.0
 11
841.0
 21
2.0
 31
0.0
  0
LINE
  5
6F8
100
AcDbEntity
  8
LAY-10
  6
CONTINUOUS
 62
     1
100
AcDbLine
 10
2.0
 20
594.0
 30
0.0
 11
0.0
 21
594.0
 31
0.0
  0
LINE
  5
6F9
100
AcDbEntity
  8
LAY-10
  6
CONTINUOUS
 62
     1
100
AcDbLine
 10
0.0
 20
594.0
 30
0.0
 11
0.0
 21
592.0
 31
0.0
  0
LINE
  5
6FA
100
AcDbEntity
  8
LAY-10
  6
CONTINUOUS
 62
     1
100
AcDbLine
 10
0.0
 20
2.0
 30
0.0
 11
0.0
 21
0.0
 31
0.0
  0
LINE
  5
6FB
100
AcDbEntity
  8
LAY-10
  6
CONTINUOUS
 62
     1
100
AcDbLine
 10
0.0
 20
0.0
 30
0.0
 11
2.0
 21
0.0
 31
0.0
  0
LINE
  5
6FC
100
AcDbEntity
  8
LAY-10
  6
CONTINUOUS
 62
     1
100
AcDbLine
 10
839.0
 20
0.0
 30
0.0
 11
841.0
 21
0.0
 31
0.0
  0
TEXT
  5
6FD
100
AcDbEntity
  8
LAY-10
  6
CONTINUOUS
 62
     4
100
AcDbText
 10
383.0
 20
33.0
 30
0.0
 40
6.0
  1
図 面 名
 41
0.57856
  7
EXCADSTD
 72
     5
 11
402.200001
 21
33.0
 31
0.0
100
AcDbText
  0
TEXT
  5
6FE
100
AcDbEntity
  8
LAY-10
  6
CONTINUOUS
 62
     4
100
AcDbText
 10
744.0
 20
33.0
 30
0.0
 40
6.0
  1
図面番号
 41
0.672
  7
EXCADSTD
 72
     5
 11
763.200001
 21
33.0
 31
0.0
100
AcDbText
  0
TEXT
  5
6FF
100
AcDbEntity
  8
LAY-10
  6
CONTINUOUS
 62
     2
100
AcDbText
 10
306.5
 20
20.2
 30
0.0
 40
6.0
  1
１／１
 41
0.672
  7
EXCADSTD
 72
     5
 11
320.900001
 21
20.2
 31
0.0
100
AcDbText
  0
LINE
  5
700
100
AcDbEntity
  8
LAY-10
  6
CONTINUOUS
 62
     5
100
AcDbLine
 10
15.0
 20
579.0
 30
0.0
 11
826.0
 21
579.0
 31
0.0
  0
TEXT
  5
701
100
AcDbEntity
  8
LAY-10
  6
CONTINUOUS
 62
     2
100
AcDbText
 10
332.6
 20
20.2
 30
0.0
 40
6.0
  1
Ｈ１４.　７.　１
 41
0.622617
  7
EXCADSTD
 72
     5
 11
371.000002
 21
20.2
 31
0.0
100
AcDbText
  0
TEXT
  5
702
100
AcDbEntity
  8
LAY-10
  6
CONTINUOUS
 62
     2
100
AcDbText
 10
406.828367
 20
19.274519
 30
0.0
 40
10.0
  1
フロアヒンジ　Ａ－１３００/Ａ－１４００　納まり図
 41
0.663578
  7
EXCADSTD
 72
     5
 11
602.828367
 21
19.274519
 31
0.0
100
AcDbText
  0
ENDSEC
  0
SECTION
  2
OBJECTS
  0
DICTIONARY
  5
19
100
AcDbDictionary
  3
ACAD_GROUP
350
1A
  3
ACAD_MLINESTYLE
350
1B
  0
DICTIONARY
  5
1A
102
{ACAD_REACTORS
330
19
102
}
100
AcDbDictionary
  0
DICTIONARY
  5
1B
102
{ACAD_REACTORS
330
19
102
}
100
AcDbDictionary
  3
STANDARD
350
1C
  0
MLINESTYLE
  5
1C
102
{ACAD_REACTORS
330
1B
102
}
100
AcDbMlineStyle
  2
Standard
 70
     0
  3

 62
     0
 51
90.0
 52
90.0
 71
     2
 49
0.5
 62
   256
  6
ByLayer
 49
-0.5
 62
   256
  6
ByLayer
  0
ENDSEC
  0
EOF
