  0
SECTION
  2
HEADER
  9
$ACADVER
  1
AC1014
  9
$ACADMAINTVER
 70
     0
  9
$DWGCODEPAGE
  3
ANSI_932
  9
$INSBASE
 10
0.0
 20
0.0
 30
0.0
  9
$EXTMIN
 10
0.0
 20
0.0
 30
0.0
  9
$EXTMAX
 10
841.0
 20
594.0
 30
0.0
  9
$LIMMIN
 10
0.0
 20
0.0
  9
$LIMMAX
 10
841.0
 20
594.0
  9
$ORTHOMODE
 70
     0
  9
$REGENMODE
 70
     1
  9
$FILLMODE
 70
     1
  9
$QTEXTMODE
 70
     0
  9
$MIRRTEXT
 70
     1
  9
$DRAGMODE
 70
     2
  9
$LTSCALE
 40
1.0
  9
$OSMODE
 70
     0
  9
$ATTMODE
 70
     1
  9
$TEXTSIZE
 40
0.2
  9
$TRACEWID
 40
0.05
  9
$TEXTSTYLE
  7
STANDARD
  9
$CLAYER
  8
LAY-1
  9
$CELTYPE
  6
CONTINUOUS
  9
$CECOLOR
 62
   256
  9
$CELTSCALE
 40
1.0
  9
$DELOBJ
 70
     1
  9
$DISPSILH
 70
     0
  9
$DIMSCALE
 40
1.0
  9
$DIMASZ
 40
0.18
  9
$DIMEXO
 40
0.0625
  9
$DIMDLI
 40
0.38
  9
$DIMRND
 40
0.0
  9
$DIMDLE
 40
0.0
  9
$DIMEXE
 40
0.18
  9
$DIMTP
 40
0.0
  9
$DIMTM
 40
0.0
  9
$DIMTXT
 40
0.18
  9
$DIMCEN
 40
0.09
  9
$DIMTSZ
 40
0.0
  9
$DIMTOL
 70
     0
  9
$DIMLIM
 70
     0
  9
$DIMTIH
 70
     1
  9
$DIMTOH
 70
     1
  9
$DIMSE1
 70
     0
  9
$DIMSE2
 70
     0
  9
$DIMTAD
 70
     0
  9
$DIMZIN
 70
     0
  9
$DIMBLK
  1

  9
$DIMASO
 70
     1
  9
$DIMSHO
 70
     1
  9
$DIMPOST
  1

  9
$DIMAPOST
  1

  9
$DIMALT
 70
     0
  9
$DIMALTD
 70
     2
  9
$DIMALTF
 40
25.4
  9
$DIMLFAC
 40
1.0
  9
$DIMTOFL
 70
     0
  9
$DIMTVP
 40
0.0
  9
$DIMTIX
 70
     0
  9
$DIMSOXD
 70
     0
  9
$DIMSAH
 70
     0
  9
$DIMBLK1
  1

  9
$DIMBLK2
  1

  9
$DIMSTYLE
  2
STANDARD
  9
$DIMCLRD
 70
     0
  9
$DIMCLRE
 70
     0
  9
$DIMCLRT
 70
     0
  9
$DIMTFAC
 40
1.0
  9
$DIMGAP
 40
0.09
  9
$DIMJUST
 70
     0
  9
$DIMSD1
 70
     0
  9
$DIMSD2
 70
     0
  9
$DIMTOLJ
 70
     1
  9
$DIMTZIN
 70
     0
  9
$DIMALTZ
 70
     0
  9
$DIMALTTZ
 70
     0
  9
$DIMFIT
 70
     3
  9
$DIMUPT
 70
     0
  9
$DIMUNIT
 70
     2
  9
$DIMDEC
 70
     4
  9
$DIMTDEC
 70
     4
  9
$DIMALTU
 70
     2
  9
$DIMALTTD
 70
     2
  9
$DIMTXSTY
  7
STANDARD
  9
$DIMAUNIT
 70
     0
  9
$LUNITS
 70
     2
  9
$LUPREC
 70
     4
  9
$SKETCHINC
 40
0.1
  9
$FILLETRAD
 40
0.0
  9
$AUNITS
 70
     0
  9
$AUPREC
 70
     0
  9
$MENU
  1
acad
  9
$ELEVATION
 40
0.0
  9
$PELEVATION
 40
0.0
  9
$THICKNESS
 40
0.0
  9
$LIMCHECK
 70
     0
  9
$BLIPMODE
 70
     1
  9
$CHAMFERA
 40
0.0
  9
$CHAMFERB
 40
0.0
  9
$CHAMFERC
 40
0.0
  9
$CHAMFERD
 40
0.0
  9
$SKPOLY
 70
     0
  9
$TDCREATE
 40
2455606.817252894
  9
$TDUPDATE
 40
2455606.817252894
  9
$TDINDWG
 40
0.0000000000
  9
$TDUSRTIMER
 40
0.0000000000
  9
$USRTIMER
 70
     1
  9
$ANGBASE
 50
0.0
  9
$ANGDIR
 70
     0
  9
$PDMODE
 70
     0
  9
$PDSIZE
 40
0.0
  9
$PLINEWID
 40
0.0
  9
$COORDS
 70
     1
  9
$SPLFRAME
 70
     0
  9
$SPLINETYPE
 70
     6
  9
$SPLINESEGS
 70
     8
  9
$ATTDIA
 70
     0
  9
$ATTREQ
 70
     1
  9
$HANDLING
 70
     1
  9
$HANDSEED
  5
802
  9
$SURFTAB1
 70
     6
  9
$SURFTAB2
 70
     6
  9
$SURFTYPE
 70
     6
  9
$SURFU
 70
     6
  9
$SURFV
 70
     6
  9
$UCSNAME
  2

  9
$UCSORG
 10
0.0
 20
0.0
 30
0.0
  9
$UCSXDIR
 10
1.0
 20
0.0
 30
0.0
  9
$UCSYDIR
 10
0.0
 20
1.0
 30
0.0
  9
$PUCSNAME
  2

  9
$PUCSORG
 10
0.0
 20
0.0
 30
0.0
  9
$PUCSXDIR
 10
1.0
 20
0.0
 30
0.0
  9
$PUCSYDIR
 10
0.0
 20
1.0
 30
0.0
  9
$USERI1
 70
     0
  9
$USERI2
 70
     0
  9
$USERI3
 70
     0
  9
$USERI4
 70
     0
  9
$USERI5
 70
     0
  9
$USERR1
 40
0.0
  9
$USERR2
 40
0.0
  9
$USERR3
 40
0.0
  9
$USERR4
 40
0.0
  9
$USERR5
 40
0.0
  9
$WORLDVIEW
 70
     1
  9
$SHADEDGE
 70
     3
  9
$SHADEDIF
 70
    70
  9
$TILEMODE
 70
     1
  9
$MAXACTVP
 70
    16
  9
$PINSBASE
 10
0.0
 20
0.0
 30
0.0
  9
$PLIMCHECK
 70
     0
  9
$PEXTMIN
 10
1.000000E+20
 20
1.000000E+20
 30
1.000000E+20
  9
$PEXTMAX
 10
-1.000000E+20
 20
-1.000000E+20
 30
-1.000000E+20
  9
$PLIMMIN
 10
0.0
 20
0.0
  9
$PLIMMAX
 10
12.0
 20
9.0
  9
$UNITMODE
 70
     0
  9
$VISRETAIN
 70
     0
  9
$PLINEGEN
 70
     1
  9
$PSLTSCALE
 70
     0
  9
$TREEDEPTH
 70
  3020
  9
$PICKSTYLE
 70
     1
  9
$CMLSTYLE
  2
Standard
  9
$CMLJUST
 70
     0
  9
$CMLSCALE
 40
1.0
  9
$PROXYGRAPHICS
 70
     0
  9
$MEASUREMENT
 70
     0
  0
ENDSEC
  0
SECTION
  2
CLASSES
  0
CLASS
  1
LWPOLYLINE
  2
AcDbPolyline
  3
"AutoCAD"
 90
        0
280
     0
281
     1
  0
CLASS
  1
IMAGE
  2
AcDbRasterImage
  3
ISM
 90
      127
280
     0
281
     1
  0
CLASS
  1
OLE2FRAME
  2
AcDbOle2Frame
  3
""
 90
        0
280
     0
281
     1
  0
CLASS
  1
HATCH
  2
AcDbHatch
  3
"ACAD_SEDONA"
 90
        0
280
     0
281
     1
  0
CLASS
  1
DICTIONARYVAR
  2
AcDbDictionaryVar
  3
"AutoCAD"
 90
        0
280
     0
281
     0
  0
CLASS
  1
RASTERVARIABLES
  2
AcDbRasterVariables
  3
ISM
 90
        0
280
     0
281
     0
  0
CLASS
  1
IMAGEDEF
  2
AcDbRasterImageDef
  3
ISM
 90
        0
280
     0
281
     0
  0
CLASS
  1
IMAGEDEF_REACTOR
  2
AcDbRasterImageDefReactor
  3
ISM
 90
        1
280
     0
281
     0
  0
CLASS
  1
IDBUFFER
  2
AcDbIdBuffer
  3
"Acad"
 90
        0
280
     0
281
     0
  0
CLASS
  1
SPATIAL_FILTER
  2
AcDbSpatialFilter
  3
"Acad"
 90
        0
280
     0
281
     0
  0
CLASS
  1
XRECORD
  2
AcDbXrecord
  3
"<Built In>"
 90
        0
280
     0
281
     0
  0
CLASS
  1
SORTENTSTABLE
  2
AcDbSortentsTable
  3
"AutoCAD"
 90
        0
280
     0
281
     0
  0
CLASS
  1
LAYER_INDEX
  2
AcDbLayerIndex
  3
"Acad"
 90
        0
280
     0
281
     0
  0
CLASS
  1
SPATIAL_INDEX
  2
AcDbSpatialIndex
  3
"Acad"
 90
        0
280
     0
281
     0
  0
CLASS
  1
OBJECT_PTR
  2
CAseDLPNTableRecord
  3
"ASE-LPNTableRecord"
 90
        1
280
     0
281
     0
  0
CLASS
  1
LAYOUT
  2
AcDbLayout
  3
"AutoCAD 2000"
 90
        0
280
     0
281
     0
  0
CLASS
  1
PLOTSETTINGS
  2
AcDbPlotSettings
  3
"AutoCAD 2000"
 90
        0
280
     0
281
     0
  0
CLASS
  1
ACDBDICTIONARYWDFLT
  2
AcDbDictionaryWithDefault
  3
"AutoCAD 2000"
 90
        0
280
     0
281
     0
  0
CLASS
  1
ACDBPLACEHOLDER
  2
AcDbPlaceHolder
  3
"AutoCAD 2000"
 90
        0
280
     0
281
     0
  0
CLASS
  1
VBA_PROJECT
  2
AcDbVbaProject
  3
"acadvba"
 90
        0
280
     0
281
     0
  0
CLASS
  1
WIPEOUT
  2
AcDbWipeout
  3
WipeOut|AutoCAD Express Tool|expresstools@autodesk.com
 90
      127
280
     0
281
     1
  0
CLASS
  1
WIPEOUTVARIABLES
  2
AcDbWipeoutVariables
  3
WipeOut|AutoCAD Express Tool|expresstools@autodesk.com
 90
        0
280
     0
281
     0
  0
CLASS
  1
RTEXT
  2
RText
  3
RText|AutoCAD Express Tool|expresstools@autodesk.com
 90
        0
280
     0
281
     1
  0
CLASS
  1
ARCALIGNEDTEXT
  2
AcDbArcAlignedText
  3
ATEXT|AutoCAD Express Tool|expresstools@autodesk.com
 90
        0
280
     0
281
     1
  0
ENDSEC
  0
SECTION
  2
TABLES
  0
TABLE
  2
VPORT
  5
7
100
AcDbSymbolTable
 70
     1
  0
VPORT
  5
15
100
AcDbSymbolTableRecord
100
AcDbViewportTableRecord
  2
*ACTIVE
 70
     0
 10
0.0
 20
0.0
 11
1.0
 21
1.0
 12
420.5
 22
297.0
 13
0.0
 23
0.0
 14
1.0
 24
1.0
 15
0.0
 25
0.0
 16
0.0
 26
0.0
 36
1.0
 17
0.0
 27
0.0
 37
0.0
 40
594.0
 41
1.722533
 42
50.0
 43
0.0
 44
0.0
 50
0.0
 51
0.0
 71
     0
 72
   100
 73
     1
 74
     1
 75
     0
 76
     0
 77
     0
 78
     0
  0
ENDTAB
  0
TABLE
  2
LTYPE
  5
4
100
AcDbSymbolTable
 70
     9
  0
LTYPE
  5
11
100
AcDbSymbolTableRecord
100
AcDbLinetypeTableRecord
  2
BYBLOCK
 70
    64
  3

 72
    65
 73
     0
 40
0.0
  0
LTYPE
  5
12
100
AcDbSymbolTableRecord
100
AcDbLinetypeTableRecord
  2
BYLAYER
 70
    64
  3

 72
    65
 73
     0
 40
0.0
  0
LTYPE
  5
13
100
AcDbSymbolTableRecord
100
AcDbLinetypeTableRecord
  2
CONTINUOUS
 70
    64
  3
実線
 72
    65
 73
     0
 40
0.0
  0
LTYPE
  5
1D
100
AcDbSymbolTableRecord
100
AcDbLinetypeTableRecord
  2
DASHED
 70
    64
  3
Dashed __ __ __ __ __ __ __ __ __ __ __ __ __ _
 72
    65
 73
     2
 40
19.05
 49
12.7
 74
     0
 49
-6.35
 74
     0
  0
LTYPE
  5
1E
100
AcDbSymbolTableRecord
100
AcDbLinetypeTableRecord
  2
DASHED2
 70
    64
  3
Dashed (.5x) _ _ _ _ _ _ _ _ _ _ _ _ _ _ _ _ _ 
 72
    65
 73
     2
 40
9.525
 49
6.35
 74
     0
 49
-3.175
 74
     0
  0
LTYPE
  5
1F
100
AcDbSymbolTableRecord
100
AcDbLinetypeTableRecord
  2
DASHDOT
 70
    64
  3
Dash dot __ . __ . __ . __ . __ . __ . __ . __
 72
    65
 73
     4
 40
25.4
 49
12.7
 74
     0
 49
-6.35
 74
     0
 49
0.0
 74
     0
 49
-6.35
 74
     0
  0
LTYPE
  5
20
100
AcDbSymbolTableRecord
100
AcDbLinetypeTableRecord
  2
DIVIDE
 70
    64
  3
Divide ____ . . ____ . . ____ . . ____ . . ____
 72
    65
 73
     6
 40
31.75
 49
12.7
 74
     0
 49
-6.35
 74
     0
 49
0.0
 74
     0
 49
-6.35
 74
     0
 49
0.0
 74
     0
 49
-6.35
 74
     0
  0
LTYPE
  5
21
100
AcDbSymbolTableRecord
100
AcDbLinetypeTableRecord
  2
ACAD_ISO06W100
 70
    64
  3
ISO long-dash triple-dot ____ ... ____ ... ____
 72
    65
 73
     8
 40
36.0
 49
24.0
 74
     0
 49
-3.0
 74
     0
 49
0.0
 74
     0
 49
-3.0
 74
     0
 49
0.0
 74
     0
 49
-3.0
 74
     0
 49
0.0
 74
     0
 49
-3.0
 74
     0
  0
LTYPE
  5
22
100
AcDbSymbolTableRecord
100
AcDbLinetypeTableRecord
  2
ACAD_ISO15W100
 70
    64
  3
ISO double-dash triple-dot __ __ . . . __ __ . .
 72
    65
 73
    10
 40
39.0
 49
12.0
 74
     0
 49
-3.0
 74
     0
 49
12.0
 74
     0
 49
-3.0
 74
     0
 49
0.0
 74
     0
 49
-3.0
 74
     0
 49
0.0
 74
     0
 49
-3.0
 74
     0
 49
0.0
 74
     0
 49
-3.0
 74
     0
  0
ENDTAB
  0
TABLE
  2
LAYER
  5
2
100
AcDbSymbolTable
 70
     9
  0
LAYER
  5
14
100
AcDbSymbolTableRecord
100
AcDbLayerTableRecord
  2
0
 70
     0
 62
     7
  6
CONTINUOUS
  0
LAYER
  5
25
100
AcDbSymbolTableRecord
100
AcDbLayerTableRecord
  2
LAY-1
 70
    64
 62
     3
  6
CONTINUOUS
  0
LAYER
  5
26
100
AcDbSymbolTableRecord
100
AcDbLayerTableRecord
  2
LAY-2
 70
    64
 62
     3
  6
CONTINUOUS
  0
LAYER
  5
27
100
AcDbSymbolTableRecord
100
AcDbLayerTableRecord
  2
LAY-3
 70
    64
 62
     3
  6
CONTINUOUS
  0
LAYER
  5
28
100
AcDbSymbolTableRecord
100
AcDbLayerTableRecord
  2
LAY-4
 70
    64
 62
     3
  6
CONTINUOUS
  0
LAYER
  5
29
100
AcDbSymbolTableRecord
100
AcDbLayerTableRecord
  2
LAY-5
 70
    64
 62
     1
  6
DASHDOT
  0
LAYER
  5
2A
100
AcDbSymbolTableRecord
100
AcDbLayerTableRecord
  2
LAY-6
 70
    64
 62
     2
  6
CONTINUOUS
  0
LAYER
  5
2B
100
AcDbSymbolTableRecord
100
AcDbLayerTableRecord
  2
LAY-9
 70
    64
 62
     1
  6
CONTINUOUS
  0
LAYER
  5
2C
100
AcDbSymbolTableRecord
100
AcDbLayerTableRecord
  2
LAY-10
 70
    64
 62
     5
  6
CONTINUOUS
  0
ENDTAB
  0
TABLE
  2
STYLE
  5
3
100
AcDbSymbolTable
 70
     3
  0
STYLE
  5
17
100
AcDbSymbolTableRecord
100
AcDbTextStyleTableRecord
  2
STANDARD
 70
     0
 40
0.0
 41
1.0
 50
0.0
 71
     0
 42
0.0
  3
monotxt
  4
extfont
  0
STYLE
  5
23
100
AcDbSymbolTableRecord
100
AcDbTextStyleTableRecord
  2
EXCADSTD
 70
    64
 40
0.0
 41
1.0
 50
0.0
 71
     0
 42
0.2
  3
monotxt
  4
extfont
  0
STYLE
  5
24
100
AcDbSymbolTableRecord
100
AcDbTextStyleTableRecord
  2
EXCADVERT
 70
    68
 40
0.0
 41
1.0
 50
0.0
 71
     0
 42
0.286885
  3
monotxt
  4
extfont
  0
ENDTAB
  0
TABLE
  2
VIEW
  5
5
100
AcDbSymbolTable
 70
     0
  0
ENDTAB
  0
TABLE
  2
UCS
  5
6
100
AcDbSymbolTable
 70
     0
  0
ENDTAB
  0
TABLE
  2
APPID
  5
8
100
AcDbSymbolTable
 70
     1
  0
APPID
  5
16
100
AcDbSymbolTableRecord
100
AcDbRegAppTableRecord
  2
ACAD
 70
     0
  0
ENDTAB
  0
TABLE
  2
DIMSTYLE
  5
9
100
AcDbSymbolTable
 70
     1
  0
DIMSTYLE
105
18
100
AcDbSymbolTableRecord
100
AcDbDimStyleTableRecord
  2
STANDARD
 70
     0
  3

  4

  5

  6

  7

 40
1.0
 41
0.18
 42
0.0625
 43
0.38
 44
0.18
 45
0.0
 46
0.0
 47
0.0
 48
0.0
 71
     0
 72
     0
 73
     1
 74
     1
 75
     0
 76
     0
 77
     0
 78
     0
140
0.18
141
0.09
142
0.0
143
25.4
144
1.0
145
0.0
146
1.0
147
0.09
170
     0
171
     2
172
     1
173
     0
174
     0
175
     0
176
     0
177
     0
178
     0
270
     2
271
     4
272
     4
273
     2
274
     2
275
     0
280
     0
281
     0
282
     0
283
     1
284
     0
285
     0
286
     0
287
     3
288
     0
340
17
  0
ENDTAB
  0
TABLE
  2
BLOCK_RECORD
  5
1
100
AcDbSymbolTable
 70
    18
  0
BLOCK_RECORD
  5
A
100
AcDbSymbolTableRecord
100
AcDbBlockTableRecord
  2
*MODEL_SPACE
  0
BLOCK_RECORD
  5
B
100
AcDbSymbolTableRecord
100
AcDbBlockTableRecord
  2
*PAPER_SPACE
  0
BLOCK_RECORD
  5
2D
100
AcDbSymbolTableRecord
100
AcDbBlockTableRecord
  2
_EX_NORM
  0
BLOCK_RECORD
  5
2E
100
AcDbSymbolTableRecord
100
AcDbBlockTableRecord
  2
_EX_BNORM
  0
BLOCK_RECORD
  5
2F
100
AcDbSymbolTableRecord
100
AcDbBlockTableRecord
  2
_EX_BCIR
  0
BLOCK_RECORD
  5
30
100
AcDbSymbolTableRecord
100
AcDbBlockTableRecord
  2
_EX_RCIVIL
  0
BLOCK_RECORD
  5
31
100
AcDbSymbolTableRecord
100
AcDbBlockTableRecord
  2
_EX_SLANT
  0
BLOCK_RECORD
  5
32
100
AcDbSymbolTableRecord
100
AcDbBlockTableRecord
  2
_EX_NONE
  0
BLOCK_RECORD
  5
33
100
AcDbSymbolTableRecord
100
AcDbBlockTableRecord
  2
_EX_CIVIL
  0
BLOCK_RECORD
  5
34
100
AcDbSymbolTableRecord
100
AcDbBlockTableRecord
  2
_EX_WCIR
  0
BLOCK_RECORD
  5
35
100
AcDbSymbolTableRecord
100
AcDbBlockTableRecord
  2
_EX_WCIR2
  0
BLOCK_RECORD
  5
36
100
AcDbSymbolTableRecord
100
AcDbBlockTableRecord
  2
_EX_WNORM
  0
BLOCK_RECORD
  5
37
100
AcDbSymbolTableRecord
100
AcDbBlockTableRecord
  2
_EX_NNORM
  0
BLOCK_RECORD
  5
38
100
AcDbSymbolTableRecord
100
AcDbBlockTableRecord
  2
_EX_BBOX
  0
BLOCK_RECORD
  5
39
100
AcDbSymbolTableRecord
100
AcDbBlockTableRecord
  2
_EX_WBOX
  0
BLOCK_RECORD
  5
3A
100
AcDbSymbolTableRecord
100
AcDbBlockTableRecord
  2
_EX_INTEGRAL
  0
BLOCK_RECORD
  5
3B
100
AcDbSymbolTableRecord
100
AcDbBlockTableRecord
  2
SYM-1
  0
BLOCK_RECORD
  5
3C
100
AcDbSymbolTableRecord
100
AcDbBlockTableRecord
  2
SYM-2
  0
BLOCK_RECORD
  5
3D
100
AcDbSymbolTableRecord
100
AcDbBlockTableRecord
  2
SYM-3
  0
BLOCK_RECORD
  5
3E
100
AcDbSymbolTableRecord
100
AcDbBlockTableRecord
  2
SYM-4
  0
ENDTAB
  0
ENDSEC
  0
SECTION
  2
BLOCKS
  0
BLOCK
  5
D
100
AcDbEntity
  8
0
100
AcDbBlockBegin
  2
*MODEL_SPACE
 70
     0
 10
0.0
 20
0.0
 30
0.0
  3
*MODEL_SPACE
  1

  0
ENDBLK
  5
E
100
AcDbEntity
  8
0
100
AcDbBlockEnd
  0
BLOCK
  5
F
100
AcDbEntity
 67
     1
  8
0
100
AcDbBlockBegin
  2
*PAPER_SPACE
 70
     0
 10
0.0
 20
0.0
 30
0.0
  3
*PAPER_SPACE
  1

  0
ENDBLK
  5
10
100
AcDbEntity
 67
     1
  8
0
100
AcDbBlockEnd
  0
BLOCK
  5
3F
100
AcDbEntity
  8
0
100
AcDbBlockBegin
  2
_EX_NORM
 70
     0
 10
0.0
 20
0.0
 30
0.0
  3
_EX_NORM
  1

  0
LINE
  5
40
100
AcDbEntity
  8
0
  6
CONTINUOUS
 62
     0
100
AcDbLine
 10
0.0
 20
0.0
 30
0.0
 11
-1.0
 21
0.0
 31
0.0
  0
LINE
  5
41
100
AcDbEntity
  8
0
  6
CONTINUOUS
 62
     0
100
AcDbLine
 10
0.0
 20
0.0
 30
0.0
 11
-1.0
 21
0.166667
 31
0.0
  0
LINE
  5
42
100
AcDbEntity
  8
0
  6
CONTINUOUS
 62
     0
100
AcDbLine
 10
0.0
 20
0.0
 30
0.0
 11
-1.0
 21
-0.166667
 31
0.0
  0
ENDBLK
  5
43
100
AcDbEntity
  8
0
100
AcDbBlockEnd
  0
BLOCK
  5
44
100
AcDbEntity
  8
0
100
AcDbBlockBegin
  2
_EX_BNORM
 70
     0
 10
0.0
 20
0.0
 30
0.0
  3
_EX_BNORM
  1

  0
LINE
  5
45
100
AcDbEntity
  8
0
  6
CONTINUOUS
 62
     0
100
AcDbLine
 10
0.0
 20
0.0
 30
0.0
 11
-1.0
 21
0.0
 31
0.0
  0
LINE
  5
46
100
AcDbEntity
  8
0
  6
CONTINUOUS
 62
     0
100
AcDbLine
 10
0.0
 20
0.0
 30
0.0
 11
-1.0
 21
0.166667
 31
0.0
  0
LINE
  5
47
100
AcDbEntity
  8
0
  6
CONTINUOUS
 62
     0
100
AcDbLine
 10
0.0
 20
0.0
 30
0.0
 11
-1.0
 21
-0.166667
 31
0.0
  0
LINE
  5
48
100
AcDbEntity
  8
0
  6
CONTINUOUS
 62
     0
100
AcDbLine
 10
0.0
 20
0.0
 30
0.0
 11
-1.0
 21
0.083333
 31
0.0
  0
LINE
  5
49
100
AcDbEntity
  8
0
  6
CONTINUOUS
 62
     0
100
AcDbLine
 10
0.0
 20
0.0
 30
0.0
 11
-1.0
 21
-0.083333
 31
0.0
  0
LINE
  5
4A
100
AcDbEntity
  8
0
  6
CONTINUOUS
 62
     0
100
AcDbLine
 10
-1.0
 20
0.166667
 30
0.0
 11
-1.0
 21
-0.166667
 31
0.0
  0
ENDBLK
  5
4B
100
AcDbEntity
  8
0
100
AcDbBlockEnd
  0
BLOCK
  5
4C
100
AcDbEntity
  8
0
100
AcDbBlockBegin
  2
_EX_BCIR
 70
     0
 10
0.0
 20
0.0
 30
0.0
  3
_EX_BCIR
  1

  0
LINE
  5
4D
100
AcDbEntity
  8
0
  6
CONTINUOUS
 62
     0
100
AcDbLine
 10
0.0
 20
0.0
 30
0.0
 11
-1.0
 21
0.0
 31
0.0
  0
CIRCLE
  5
4E
100
AcDbEntity
  8
0
  6
CONTINUOUS
 62
     0
100
AcDbCircle
 10
0.0
 20
0.0
 30
0.0
 40
0.5
  0
CIRCLE
  5
4F
100
AcDbEntity
  8
0
  6
CONTINUOUS
 62
     0
100
AcDbCircle
 10
0.0
 20
0.0
 30
0.0
 40
0.25
  0
ENDBLK
  5
50
100
AcDbEntity
  8
0
100
AcDbBlockEnd
  0
BLOCK
  5
51
100
AcDbEntity
  8
0
100
AcDbBlockBegin
  2
_EX_RCIVIL
 70
     0
 10
0.0
 20
0.0
 30
0.0
  3
_EX_RCIVIL
  1

  0
LINE
  5
52
100
AcDbEntity
  8
0
  6
CONTINUOUS
 62
     0
100
AcDbLine
 10
0.0
 20
0.0
 30
0.0
 11
-1.0
 21
0.0
 31
0.0
  0
LINE
  5
53
100
AcDbEntity
  8
0
  6
CONTINUOUS
 62
     0
100
AcDbLine
 10
-1.0
 20
-0.25
 30
0.0
 11
0.0
 21
-0.25
 31
0.0
  0
LINE
  5
54
100
AcDbEntity
  8
0
  6
CONTINUOUS
 62
     0
100
AcDbLine
 10
-1.0
 20
-0.125
 30
0.0
 11
0.0
 21
-0.125
 31
0.0
  0
ENDBLK
  5
55
100
AcDbEntity
  8
0
100
AcDbBlockEnd
  0
BLOCK
  5
56
100
AcDbEntity
  8
0
100
AcDbBlockBegin
  2
_EX_SLANT
 70
     0
 10
0.0
 20
0.0
 30
0.0
  3
_EX_SLANT
  1

  0
LINE
  5
57
100
AcDbEntity
  8
0
  6
CONTINUOUS
 62
     0
100
AcDbLine
 10
0.0
 20
0.0
 30
0.0
 11
-1.0
 21
0.0
 31
0.0
  0
LINE
  5
58
100
AcDbEntity
  8
0
  6
CONTINUOUS
 62
     0
100
AcDbLine
 10
0.707107
 20
0.707107
 30
0.0
 11
-0.707107
 21
-0.707107
 31
0.0
  0
ENDBLK
  5
59
100
AcDbEntity
  8
0
100
AcDbBlockEnd
  0
BLOCK
  5
5A
100
AcDbEntity
  8
0
100
AcDbBlockBegin
  2
_EX_NONE
 70
     0
 10
0.0
 20
0.0
 30
0.0
  3
_EX_NONE
  1

  0
LINE
  5
5B
100
AcDbEntity
  8
0
  6
CONTINUOUS
 62
     0
100
AcDbLine
 10
0.0
 20
0.0
 30
0.0
 11
-1.0
 21
0.0
 31
0.0
  0
ENDBLK
  5
5C
100
AcDbEntity
  8
0
100
AcDbBlockEnd
  0
BLOCK
  5
5D
100
AcDbEntity
  8
0
100
AcDbBlockBegin
  2
_EX_CIVIL
 70
     0
 10
0.0
 20
0.0
 30
0.0
  3
_EX_CIVIL
  1

  0
LINE
  5
5E
100
AcDbEntity
  8
0
  6
CONTINUOUS
 62
     0
100
AcDbLine
 10
0.0
 20
0.0
 30
0.0
 11
-1.0
 21
0.0
 31
0.0
  0
LINE
  5
5F
100
AcDbEntity
  8
0
  6
CONTINUOUS
 62
     0
100
AcDbLine
 10
-1.0
 20
0.25
 30
0.0
 11
0.0
 21
0.25
 31
0.0
  0
LINE
  5
60
100
AcDbEntity
  8
0
  6
CONTINUOUS
 62
     0
100
AcDbLine
 10
-1.0
 20
0.125
 30
0.0
 11
0.0
 21
0.125
 31
0.0
  0
ENDBLK
  5
61
100
AcDbEntity
  8
0
100
AcDbBlockEnd
  0
BLOCK
  5
62
100
AcDbEntity
  8
0
100
AcDbBlockBegin
  2
_EX_WCIR
 70
     0
 10
0.0
 20
0.0
 30
0.0
  3
_EX_WCIR
  1

  0
LINE
  5
63
100
AcDbEntity
  8
0
  6
CONTINUOUS
 62
     0
100
AcDbLine
 10
0.0
 20
0.0
 30
0.0
 11
-1.0
 21
0.0
 31
0.0
  0
CIRCLE
  5
64
100
AcDbEntity
  8
0
  6
CONTINUOUS
 62
     0
100
AcDbCircle
 10
0.0
 20
0.0
 30
0.0
 40
0.5
  0
ENDBLK
  5
65
100
AcDbEntity
  8
0
100
AcDbBlockEnd
  0
BLOCK
  5
66
100
AcDbEntity
  8
0
100
AcDbBlockBegin
  2
_EX_WCIR2
 70
     0
 10
0.0
 20
0.0
 30
0.0
  3
_EX_WCIR2
  1

  0
LINE
  5
67
100
AcDbEntity
  8
0
  6
CONTINUOUS
 62
     0
100
AcDbLine
 10
-0.5
 20
0.0
 30
0.0
 11
-1.0
 21
0.0
 31
0.0
  0
CIRCLE
  5
68
100
AcDbEntity
  8
0
  6
CONTINUOUS
 62
     0
100
AcDbCircle
 10
0.0
 20
0.0
 30
0.0
 40
0.5
  0
ENDBLK
  5
69
100
AcDbEntity
  8
0
100
AcDbBlockEnd
  0
BLOCK
  5
6A
100
AcDbEntity
  8
0
100
AcDbBlockBegin
  2
_EX_WNORM
 70
     0
 10
0.0
 20
0.0
 30
0.0
  3
_EX_WNORM
  1

  0
LINE
  5
6B
100
AcDbEntity
  8
0
  6
CONTINUOUS
 62
     0
100
AcDbLine
 10
-1.0
 20
0.0
 30
0.0
 11
-1.0
 21
0.0
 31
0.0
  0
LINE
  5
6C
100
AcDbEntity
  8
0
  6
CONTINUOUS
 62
     0
100
AcDbLine
 10
0.0
 20
0.0
 30
0.0
 11
-1.0
 21
0.166667
 31
0.0
  0
LINE
  5
6D
100
AcDbEntity
  8
0
  6
CONTINUOUS
 62
     0
100
AcDbLine
 10
0.0
 20
0.0
 30
0.0
 11
-1.0
 21
-0.166667
 31
0.0
  0
LINE
  5
6E
100
AcDbEntity
  8
0
  6
CONTINUOUS
 62
     0
100
AcDbLine
 10
-1.0
 20
0.166667
 30
0.0
 11
-1.0
 21
-0.166667
 31
0.0
  0
ENDBLK
  5
6F
100
AcDbEntity
  8
0
100
AcDbBlockEnd
  0
BLOCK
  5
70
100
AcDbEntity
  8
0
100
AcDbBlockBegin
  2
_EX_NNORM
 70
     0
 10
0.0
 20
0.0
 30
0.0
  3
_EX_NNORM
  1

  0
LINE
  5
71
100
AcDbEntity
  8
0
  6
CONTINUOUS
 62
     0
100
AcDbLine
 10
0.0
 20
0.0
 30
0.0
 11
-1.0
 21
0.0
 31
0.0
  0
LINE
  5
72
100
AcDbEntity
  8
0
  6
CONTINUOUS
 62
     0
100
AcDbLine
 10
0.0
 20
0.0
 30
0.0
 11
-1.0
 21
0.166667
 31
0.0
  0
LINE
  5
73
100
AcDbEntity
  8
0
  6
CONTINUOUS
 62
     0
100
AcDbLine
 10
0.0
 20
0.0
 30
0.0
 11
-1.0
 21
-0.166667
 31
0.0
  0
LINE
  5
74
100
AcDbEntity
  8
0
  6
CONTINUOUS
 62
     0
100
AcDbLine
 10
-1.0
 20
0.166667
 30
0.0
 11
-1.0
 21
-0.166667
 31
0.0
  0
ENDBLK
  5
75
100
AcDbEntity
  8
0
100
AcDbBlockEnd
  0
BLOCK
  5
76
100
AcDbEntity
  8
0
100
AcDbBlockBegin
  2
_EX_BBOX
 70
     0
 10
0.0
 20
0.0
 30
0.0
  3
_EX_BBOX
  1

  0
LINE
  5
77
100
AcDbEntity
  8
0
  6
CONTINUOUS
 62
     0
100
AcDbLine
 10
0.0
 20
0.0
 30
0.0
 11
-1.0
 21
0.0
 31
0.0
  0
LINE
  5
78
100
AcDbEntity
  8
0
  6
CONTINUOUS
 62
     0
100
AcDbLine
 10
-0.5
 20
0.5
 30
0.0
 11
0.5
 21
0.5
 31
0.0
  0
LINE
  5
79
100
AcDbEntity
  8
0
  6
CONTINUOUS
 62
     0
100
AcDbLine
 10
0.5
 20
0.5
 30
0.0
 11
0.5
 21
-0.5
 31
0.0
  0
LINE
  5
7A
100
AcDbEntity
  8
0
  6
CONTINUOUS
 62
     0
100
AcDbLine
 10
0.5
 20
-0.5
 30
0.0
 11
-0.5
 21
-0.5
 31
0.0
  0
LINE
  5
7B
100
AcDbEntity
  8
0
  6
CONTINUOUS
 62
     0
100
AcDbLine
 10
-0.5
 20
-0.5
 30
0.0
 11
-0.5
 21
0.5
 31
0.0
  0
LINE
  5
7C
100
AcDbEntity
  8
0
  6
CONTINUOUS
 62
     0
100
AcDbLine
 10
-0.25
 20
0.25
 30
0.0
 11
0.25
 21
0.25
 31
0.0
  0
LINE
  5
7D
100
AcDbEntity
  8
0
  6
CONTINUOUS
 62
     0
100
AcDbLine
 10
0.25
 20
0.25
 30
0.0
 11
0.25
 21
-0.25
 31
0.0
  0
LINE
  5
7E
100
AcDbEntity
  8
0
  6
CONTINUOUS
 62
     0
100
AcDbLine
 10
0.25
 20
-0.25
 30
0.0
 11
-0.25
 21
-0.25
 31
0.0
  0
LINE
  5
7F
100
AcDbEntity
  8
0
  6
CONTINUOUS
 62
     0
100
AcDbLine
 10
-0.25
 20
-0.25
 30
0.0
 11
-0.25
 21
0.25
 31
0.0
  0
ENDBLK
  5
80
100
AcDbEntity
  8
0
100
AcDbBlockEnd
  0
BLOCK
  5
81
100
AcDbEntity
  8
0
100
AcDbBlockBegin
  2
_EX_WBOX
 70
     0
 10
0.0
 20
0.0
 30
0.0
  3
_EX_WBOX
  1

  0
LINE
  5
82
100
AcDbEntity
  8
0
  6
CONTINUOUS
 62
     0
100
AcDbLine
 10
-0.5
 20
0.0
 30
0.0
 11
-1.0
 21
0.0
 31
0.0
  0
LINE
  5
83
100
AcDbEntity
  8
0
  6
CONTINUOUS
 62
     0
100
AcDbLine
 10
-0.5
 20
0.5
 30
0.0
 11
0.5
 21
0.5
 31
0.0
  0
LINE
  5
84
100
AcDbEntity
  8
0
  6
CONTINUOUS
 62
     0
100
AcDbLine
 10
0.5
 20
0.5
 30
0.0
 11
0.5
 21
-0.5
 31
0.0
  0
LINE
  5
85
100
AcDbEntity
  8
0
  6
CONTINUOUS
 62
     0
100
AcDbLine
 10
0.5
 20
-0.5
 30
0.0
 11
-0.5
 21
-0.5
 31
0.0
  0
LINE
  5
86
100
AcDbEntity
  8
0
  6
CONTINUOUS
 62
     0
100
AcDbLine
 10
-0.5
 20
-0.5
 30
0.0
 11
-0.5
 21
0.5
 31
0.0
  0
ENDBLK
  5
87
100
AcDbEntity
  8
0
100
AcDbBlockEnd
  0
BLOCK
  5
88
100
AcDbEntity
  8
0
100
AcDbBlockBegin
  2
_EX_INTEGRAL
 70
     0
 10
0.0
 20
0.0
 30
0.0
  3
_EX_INTEGRAL
  1

  0
LINE
  5
89
100
AcDbEntity
  8
0
  6
CONTINUOUS
 62
     0
100
AcDbLine
 10
0.0
 20
0.0
 30
0.0
 11
-1.0
 21
0.0
 31
0.0
  0
ARC
  5
8A
100
AcDbEntity
  8
0
  6
CONTINUOUS
 62
     0
100
AcDbCircle
 10
0.542115
 20
0.164992
 30
0.0
 40
0.56667
100
AcDbArc
 50
73.07249
 51
196.927513
  0
ARC
  5
8B
100
AcDbEntity
  8
0
  6
CONTINUOUS
 62
     0
100
AcDbCircle
 10
-0.542115
 20
-0.164992
 30
0.0
 40
0.56667
100
AcDbArc
 50
253.072487
 51
16.927513
  0
ENDBLK
  5
8C
100
AcDbEntity
  8
0
100
AcDbBlockEnd
  0
BLOCK
  5
8D
100
AcDbEntity
  8
0
100
AcDbBlockBegin
  2
SYM-1
 70
     0
 10
0.0
 20
0.0
 30
0.0
  3
SYM-1
  1

  0
TEXT
  5
8E
100
AcDbEntity
  8
0
  6
CONTINUOUS
 62
     2
100
AcDbText
 10
-2.828427
 20
-2.828427
 30
0.0
 40
5.656854
  1
３
 41
0.84
  7
EXCADSTD
 72
     5
 11
1.697056
 21
-2.828427
 31
0.0
100
AcDbText
  0
CIRCLE
  5
8F
100
AcDbEntity
  8
0
  6
CONTINUOUS
 62
     1
100
AcDbCircle
 10
0.0
 20
0.0
 30
0.0
 40
4.0
  0
TEXT
  5
90
100
AcDbEntity
  8
0
  6
CONTINUOUS
 62
     2
100
AcDbText
 10
6.6
 20
-3.2
 30
0.0
 40
7.0
  1
ア　ー　ム
 41
0.672
  7
EXCADSTD
 72
     5
 11
34.6
 21
-3.2
 31
0.0
100
AcDbText
  0
LINE
  5
91
100
AcDbEntity
  8
0
  6
CONTINUOUS
 62
     1
100
AcDbLine
 10
4.0
 20
-3.7
 30
0.0
 11
34.9
 21
-3.7
 31
0.0
  0
ENDBLK
  5
92
100
AcDbEntity
  8
0
100
AcDbBlockEnd
  0
BLOCK
  5
93
100
AcDbEntity
  8
0
100
AcDbBlockBegin
  2
SYM-2
 70
     0
 10
0.0
 20
0.0
 30
0.0
  3
SYM-2
  1

  0
TEXT
  5
94
100
AcDbEntity
  8
0
  6
CONTINUOUS
 62
     2
100
AcDbText
 10
-2.828427
 20
-2.828427
 30
0.0
 40
5.656854
  1
４
 41
0.84
  7
EXCADSTD
 72
     5
 11
1.697056
 21
-2.828427
 31
0.0
100
AcDbText
  0
CIRCLE
  5
95
100
AcDbEntity
  8
0
  6
CONTINUOUS
 62
     1
100
AcDbCircle
 10
0.0
 20
0.0
 30
0.0
 40
4.0
  0
TEXT
  5
96
100
AcDbEntity
  8
0
  6
CONTINUOUS
 62
     2
100
AcDbText
 10
6.6
 20
-3.2
 30
0.0
 40
7.0
  1
床面軸座
 41
0.672
  7
EXCADSTD
 72
     5
 11
29.0
 21
-3.2
 31
0.0
100
AcDbText
  0
LINE
  5
97
100
AcDbEntity
  8
0
  6
CONTINUOUS
 62
     1
100
AcDbLine
 10
4.0
 20
-3.7
 30
0.0
 11
29.3
 21
-3.7
 31
0.0
  0
ENDBLK
  5
98
100
AcDbEntity
  8
0
100
AcDbBlockEnd
  0
BLOCK
  5
99
100
AcDbEntity
  8
0
100
AcDbBlockBegin
  2
SYM-3
 70
     0
 10
0.0
 20
0.0
 30
0.0
  3
SYM-3
  1

  0
TEXT
  5
9A
100
AcDbEntity
  8
0
  6
CONTINUOUS
 62
     2
100
AcDbText
 10
-2.828427
 20
-2.828427
 30
0.0
 40
5.656854
  1
２
 41
0.84
  7
EXCADSTD
 72
     5
 11
1.697056
 21
-2.828427
 31
0.0
100
AcDbText
  0
CIRCLE
  5
9B
100
AcDbEntity
  8
0
  6
CONTINUOUS
 62
     1
100
AcDbCircle
 10
0.0
 20
0.0
 30
0.0
 40
4.0
  0
TEXT
  5
9C
100
AcDbEntity
  8
0
  6
CONTINUOUS
 62
     2
100
AcDbText
 10
6.6
 20
-3.2
 30
0.0
 40
7.0
  1
トップピボット（ドア側）
 41
0.672
  7
EXCADSTD
 72
     5
 11
73.799999
 21
-3.2
 31
0.0
100
AcDbText
  0
LINE
  5
9D
100
AcDbEntity
  8
0
  6
CONTINUOUS
 62
     1
100
AcDbLine
 10
4.0
 20
-3.7
 30
0.0
 11
71.0
 21
-3.7
 31
0.0
  0
ENDBLK
  5
9E
100
AcDbEntity
  8
0
100
AcDbBlockEnd
  0
BLOCK
  5
9F
100
AcDbEntity
  8
0
100
AcDbBlockBegin
  2
SYM-4
 70
     0
 10
0.0
 20
0.0
 30
0.0
  3
SYM-4
  1

  0
TEXT
  5
A0
100
AcDbEntity
  8
0
  6
CONTINUOUS
 62
     2
100
AcDbText
 10
-2.828427
 20
-2.828427
 30
0.0
 40
5.656854
  1
１
 41
0.84
  7
EXCADSTD
 72
     5
 11
1.697056
 21
-2.828427
 31
0.0
100
AcDbText
  0
CIRCLE
  5
A1
100
AcDbEntity
  8
0
  6
CONTINUOUS
 62
     1
100
AcDbCircle
 10
0.0
 20
0.0
 30
0.0
 40
4.0
  0
TEXT
  5
A2
100
AcDbEntity
  8
0
  6
CONTINUOUS
 62
     2
100
AcDbText
 10
6.6
 20
-3.2
 30
0.0
 40
7.0
  1
トップピボット（上枠側）
 41
0.672
  7
EXCADSTD
 72
     5
 11
73.799999
 21
-3.2
 31
0.0
100
AcDbText
  0
LINE
  5
A3
100
AcDbEntity
  8
0
  6
CONTINUOUS
 62
     1
100
AcDbLine
 10
4.0
 20
-3.7
 30
0.0
 11
70.1
 21
-3.7
 31
0.0
  0
ENDBLK
  5
A4
100
AcDbEntity
  8
0
100
AcDbBlockEnd
  0
ENDSEC
  0
SECTION
  2
ENTITIES
  0
ARC
  5
A5
100
AcDbEntity
  8
LAY-1
  6
CONTINUOUS
 62
     3
100
AcDbCircle
 10
165.282074
 20
421.946358
 30
0.0
 40
3.0
100
AcDbArc
 50
359.999981
 51
90.00002
  0
LINE
  5
A6
100
AcDbEntity
  8
LAY-1
  6
CONTINUOUS
 62
     3
100
AcDbLine
 10
165.282074
 20
424.946358
 30
0.0
 11
107.282067
 21
424.946354
 31
0.0
  0
ARC
  5
A7
100
AcDbEntity
  8
LAY-1
  6
CONTINUOUS
 62
     3
100
AcDbCircle
 10
165.282059
 20
398.946389
 30
0.0
 40
3.0
100
AcDbArc
 50
269.999982
 51
0.000021
  0
LINE
  5
A8
100
AcDbEntity
  8
LAY-1
  6
CONTINUOUS
 62
     3
100
AcDbLine
 10
168.282059
 20
398.946389
 30
0.0
 11
168.282074
 21
421.946358
 31
0.0
  0
LINE
  5
A9
100
AcDbEntity
  8
LAY-1
  6
CONTINUOUS
 62
     3
100
AcDbLine
 10
107.782059
 20
395.946389
 30
0.0
 11
165.282059
 21
395.946389
 31
0.0
  0
ARC
  5
AA
100
AcDbEntity
  8
LAY-1
  6
CONTINUOUS
 62
     3
100
AcDbCircle
 10
107.282059
 20
395.946389
 30
0.0
 40
29.0
100
AcDbArc
 50
90.00002
 51
180.000001
  0
CIRCLE
  5
AB
100
AcDbEntity
  8
LAY-1
  6
CONTINUOUS
 62
     3
100
AcDbCircle
 10
90.282062
 20
402.946385
 30
0.0
 40
2.5
  0
CIRCLE
  5
AC
100
AcDbEntity
  8
LAY-1
  6
CONTINUOUS
 62
     1
100
AcDbCircle
 10
90.282062
 20
402.946385
 30
0.0
 40
3.0
  0
CIRCLE
  5
AD
100
AcDbEntity
  8
LAY-1
  6
CONTINUOUS
 62
     3
100
AcDbCircle
 10
110.282062
 20
416.946385
 30
0.0
 40
2.5
  0
CIRCLE
  5
AE
100
AcDbEntity
  8
LAY-1
  6
CONTINUOUS
 62
     1
100
AcDbCircle
 10
110.282062
 20
416.946385
 30
0.0
 40
3.0
  0
CIRCLE
  5
AF
100
AcDbEntity
  8
LAY-1
  6
CONTINUOUS
 62
     3
100
AcDbCircle
 10
140.282062
 20
402.946385
 30
0.0
 40
2.5
  0
CIRCLE
  5
B0
100
AcDbEntity
  8
LAY-1
  6
CONTINUOUS
 62
     1
100
AcDbCircle
 10
140.282062
 20
402.946385
 30
0.0
 40
3.0
  0
CIRCLE
  5
B1
100
AcDbEntity
  8
LAY-1
  6
CONTINUOUS
 62
     3
100
AcDbCircle
 10
160.282062
 20
416.946385
 30
0.0
 40
2.5
  0
CIRCLE
  5
B2
100
AcDbEntity
  8
LAY-1
  6
CONTINUOUS
 62
     1
100
AcDbCircle
 10
160.282062
 20
416.946385
 30
0.0
 40
3.0
  0
LINE
  5
B3
100
AcDbEntity
  8
LAY-1
  6
CONTINUOUS
 62
     3
100
AcDbLine
 10
78.282059
 20
395.946389
 30
0.0
 11
78.282059
 21
386.520577
 31
0.0
  0
ARC
  5
B4
100
AcDbEntity
  8
LAY-1
  6
CONTINUOUS
 62
     3
100
AcDbCircle
 10
82.282074
 20
364.946358
 30
0.0
 40
17.0
100
AcDbArc
 50
138.107791
 51
340.00007
  0
LINE
  5
B5
100
AcDbEntity
  8
LAY-1
  6
DASHED2
 62
     3
100
AcDbLine
 10
107.282059
 20
386.946389
 30
0.0
 11
78.282059
 21
386.946389
 31
0.0
  0
LINE
  5
B6
100
AcDbEntity
  8
LAY-1
  6
CONTINUOUS
 62
     3
100
AcDbLine
 10
107.221756
 20
383.762917
 30
0.0
 11
98.256852
 21
359.132027
 31
0.0
  0
LINE
  5
B7
100
AcDbEntity
  8
LAY-1
  6
CONTINUOUS
 62
     3
100
AcDbLine
 10
69.627243
 20
376.297821
 30
0.0
 11
77.898659
 21
385.51899
 31
0.0
  0
ARC
  5
B8
100
AcDbEntity
  8
LAY-1
  6
CONTINUOUS
 62
     3
100
AcDbCircle
 10
76.782059
 20
386.520577
 30
0.0
 40
1.5
100
AcDbArc
 50
318.107771
 51
359.999981
  0
ARC
  5
B9
100
AcDbEntity
  8
LAY-1
  6
CONTINUOUS
 62
     3
100
AcDbCircle
 10
106.282067
 20
384.104927
 30
0.0
 40
1.0
100
AcDbArc
 50
339.999973
 51
359.999981
  0
ARC
  5
BA
100
AcDbEntity
  8
LAY-1
  6
CONTINUOUS
 62
     3
100
AcDbCircle
 10
107.782059
 20
395.446389
 30
0.0
 40
0.5
100
AcDbArc
 50
90.00002
 51
180.000058
  0
ARC
  5
BB
100
AcDbEntity
  8
LAY-1
  6
CONTINUOUS
 62
     3
100
AcDbCircle
 10
82.282067
 20
364.946328
 30
0.0
 40
18.0
100
AcDbArc
 50
160.00005
 51
340.000012
  0
LINE
  5
BC
100
AcDbEntity
  8
LAY-1
  6
CONTINUOUS
 62
     3
100
AcDbLine
 10
109.444588
 20
386.946328
 30
0.0
 11
99.196541
 21
358.789955
 31
0.0
  0
LINE
  5
BD
100
AcDbEntity
  8
LAY-1
  6
CONTINUOUS
 62
     3
100
AcDbLine
 10
71.134179
 20
386.94632
 30
0.0
 11
65.367592
 21
371.102692
 31
0.0
  0
LINE
  5
BE
100
AcDbEntity
  8
LAY-1
  6
CONTINUOUS
 62
     3
100
AcDbLine
 10
71.134179
 20
386.94632
 30
0.0
 11
78.282059
 21
386.946328
 31
0.0
  0
LINE
  5
BF
100
AcDbEntity
  8
LAY-1
  6
CONTINUOUS
 62
     3
100
AcDbLine
 10
107.282067
 20
386.946419
 30
0.0
 11
109.444588
 21
386.946419
 31
0.0
  0
LINE
  5
C0
100
AcDbEntity
  8
LAY-1
  6
CONTINUOUS
 62
     3
100
AcDbLine
 10
71.98552
 20
386.94632
 30
0.0
 11
66.119339
 21
370.829041
 31
0.0
  0
ARC
  5
C1
100
AcDbEntity
  8
LAY-1
  6
CONTINUOUS
 62
     3
100
AcDbCircle
 10
82.282067
 20
364.946328
 30
0.0
 40
17.200001
100
AcDbArc
 50
160.000107
 51
340.000127
  0
LINE
  5
C2
100
AcDbEntity
  8
LAY-1
  6
CONTINUOUS
 62
     3
100
AcDbLine
 10
108.593277
 20
386.946419
 30
0.0
 11
98.444794
 21
359.063607
 31
0.0
  0
CIRCLE
  5
C3
100
AcDbEntity
  8
LAY-1
  6
DASHED2
 62
     3
100
AcDbCircle
 10
82.282067
 20
364.946358
 30
0.0
 40
11.9
  0
LINE
  5
C4
100
AcDbEntity
  8
LAY-1
  6
CONTINUOUS
 62
     3
100
AcDbLine
 10
107.282067
 20
384.104927
 30
0.0
 11
107.282065
 21
386.946389
 31
0.0
  0
LINE
  5
C5
100
AcDbEntity
  8
LAY-1
  6
CONTINUOUS
 62
     3
100
AcDbLine
 10
107.282065
 20
386.946389
 30
0.0
 11
107.282059
 21
395.446389
 31
0.0
  0
CIRCLE
  5
C6
100
AcDbEntity
  8
LAY-1
  6
CONTINUOUS
 62
     3
100
AcDbCircle
 10
82.282069
 20
364.946385
 30
0.0
 40
9.4
  0
CIRCLE
  5
C7
100
AcDbEntity
  8
LAY-1
  6
DASHED2
 62
     3
100
AcDbCircle
 10
82.282069
 20
364.946385
 30
0.0
 40
6.25
  0
LINE
  5
C8
100
AcDbEntity
  8
LAY-1
  6
CONTINUOUS
 62
     3
100
AcDbLine
 10
656.712036
 20
375.147904
 30
0.0
 11
695.712007
 21
375.147904
 31
0.0
  0
LINE
  5
C9
100
AcDbEntity
  8
LAY-1
  6
CONTINUOUS
 62
     3
100
AcDbLine
 10
655.712036
 20
376.147904
 30
0.0
 11
655.712036
 21
390.147904
 31
0.0
  0
LINE
  5
CA
100
AcDbEntity
  8
LAY-1
  6
CONTINUOUS
 62
     3
100
AcDbLine
 10
695.712007
 20
375.147904
 30
0.0
 11
695.712007
 21
390.147904
 31
0.0
  0
LINE
  5
CB
100
AcDbEntity
  8
LAY-1
  6
CONTINUOUS
 62
     3
100
AcDbLine
 10
655.712036
 20
390.147904
 30
0.0
 11
695.712007
 21
390.147904
 31
0.0
  0
ARC
  5
CC
100
AcDbEntity
  8
LAY-1
  6
CONTINUOUS
 62
     3
100
AcDbCircle
 10
656.712036
 20
376.147904
 30
0.0
 40
1.0
100
AcDbArc
 50
180.0
 51
269.999982
  0
LINE
  5
CD
100
AcDbEntity
  8
LAY-1
  6
DASHED2
 62
     3
100
AcDbLine
 10
656.512024
 20
390.147904
 30
0.0
 11
656.512024
 21
376.447922
 31
0.0
  0
LINE
  5
CE
100
AcDbEntity
  8
LAY-1
  6
DASHED2
 62
     3
100
AcDbLine
 10
695.712007
 20
375.947892
 30
0.0
 11
657.012024
 21
375.947922
 31
0.0
  0
ARC
  5
CF
100
AcDbEntity
  8
LAY-1
  6
DASHED2
 62
     3
100
AcDbCircle
 10
657.012024
 20
376.447922
 30
0.0
 40
0.5
100
AcDbArc
 50
180.0
 51
269.999982
  0
ARC
  5
D0
100
AcDbEntity
  8
LAY-1
  6
CONTINUOUS
 62
     3
100
AcDbCircle
 10
732.212036
 20
388.647934
 30
0.0
 40
1.5
100
AcDbArc
 50
359.999981
 51
90.00002
  0
ARC
  5
D1
100
AcDbEntity
  8
LAY-1
  6
CONTINUOUS
 62
     3
100
AcDbCircle
 10
732.212036
 20
381.647934
 30
0.0
 40
1.5
100
AcDbArc
 50
269.999982
 51
0.000021
  0
LINE
  5
D2
100
AcDbEntity
  8
LAY-1
  6
CONTINUOUS
 62
     3
100
AcDbLine
 10
733.712036
 20
381.647934
 30
0.0
 11
733.712036
 21
388.647934
 31
0.0
  0
LINE
  5
D3
100
AcDbEntity
  8
LAY-1
  6
CONTINUOUS
 62
     3
100
AcDbLine
 10
695.712007
 20
380.147934
 30
0.0
 11
732.212036
 21
380.147934
 31
0.0
  0
LINE
  5
D4
100
AcDbEntity
  8
LAY-1
  6
CONTINUOUS
 62
     3
100
AcDbLine
 10
695.712007
 20
390.147934
 30
0.0
 11
732.212036
 21
390.147934
 31
0.0
  0
ARC
  5
D5
100
AcDbEntity
  8
LAY-1
  6
CONTINUOUS
 62
     3
100
AcDbCircle
 10
706.212036
 20
388.647934
 30
0.0
 40
1.5
100
AcDbArc
 50
90.00002
 51
180.0
  0
ARC
  5
D6
100
AcDbEntity
  8
LAY-1
  6
CONTINUOUS
 62
     3
100
AcDbCircle
 10
706.212036
 20
381.647934
 30
0.0
 40
1.5
100
AcDbArc
 50
180.0
 51
269.999982
  0
LINE
  5
D7
100
AcDbEntity
  8
LAY-1
  6
CONTINUOUS
 62
     3
100
AcDbLine
 10
704.712036
 20
381.647934
 30
0.0
 11
704.712036
 21
388.647934
 31
0.0
  0
LINE
  5
D8
100
AcDbEntity
  8
LAY-1
  6
CONTINUOUS
 62
     3
100
AcDbLine
 10
673.712036
 20
394.147904
 30
0.0
 11
679.112036
 21
394.147904
 31
0.0
  0
ARC
  5
D9
100
AcDbEntity
  8
LAY-1
  6
CONTINUOUS
 62
     3
100
AcDbCircle
 10
679.112036
 20
390.147904
 30
0.0
 40
4.0
100
AcDbArc
 50
0.0
 51
90.0
  0
LINE
  5
DA
100
AcDbEntity
  8
LAY-1
  6
CONTINUOUS
 62
     3
100
AcDbLine
 10
673.712036
 20
394.147904
 30
0.0
 11
668.312036
 21
394.147904
 31
0.0
  0
ARC
  5
DB
100
AcDbEntity
  8
LAY-1
  6
CONTINUOUS
 62
     3
100
AcDbCircle
 10
668.312036
 20
390.147904
 30
0.0
 40
4.0
100
AcDbArc
 50
90.0
 51
180.0
  0
LINE
  5
DC
100
AcDbEntity
  8
LAY-1
  6
DASHED2
 62
     3
100
AcDbLine
 10
667.212036
 20
392.947904
 30
0.0
 11
673.712037
 21
392.947904
 31
0.0
  0
LINE
  5
DD
100
AcDbEntity
  8
LAY-1
  6
DASHED2
 62
     3
100
AcDbLine
 10
666.912036
 20
392.647904
 30
0.0
 11
666.912036
 21
390.147904
 31
0.0
  0
ARC
  5
DE
100
AcDbEntity
  8
LAY-1
  6
DASHED2
 62
     3
100
AcDbCircle
 10
667.212036
 20
392.647904
 30
0.0
 40
0.3
100
AcDbArc
 50
90.0
 51
180.0
  0
LINE
  5
DF
100
AcDbEntity
  8
LAY-1
  6
DASHED2
 62
     3
100
AcDbLine
 10
680.212037
 20
392.947904
 30
0.0
 11
673.712037
 21
392.947904
 31
0.0
  0
LINE
  5
E0
100
AcDbEntity
  8
LAY-1
  6
DASHED2
 62
     3
100
AcDbLine
 10
680.512037
 20
392.647904
 30
0.0
 11
680.512037
 21
390.147904
 31
0.0
  0
ARC
  5
E1
100
AcDbEntity
  8
LAY-1
  6
DASHED2
 62
     3
100
AcDbCircle
 10
680.212037
 20
392.647904
 30
0.0
 40
0.3
100
AcDbArc
 50
0.0
 51
90.0
  0
LINE
  5
E2
100
AcDbEntity
  8
LAY-1
  6
DASHED2
 62
     3
100
AcDbLine
 10
731.712067
 20
375.147904
 30
0.0
 11
731.712067
 21
375.547904
 31
0.0
  0
LINE
  5
E3
100
AcDbEntity
  8
LAY-1
  6
DASHED2
 62
     3
100
AcDbLine
 10
731.712067
 20
375.547904
 30
0.0
 11
728.712067
 21
378.547904
 31
0.0
  0
LINE
  5
E4
100
AcDbEntity
  8
LAY-1
  6
DASHED2
 62
     3
100
AcDbLine
 10
728.712067
 20
378.547904
 30
0.0
 11
722.712067
 21
378.547904
 31
0.0
  0
LINE
  5
E5
100
AcDbEntity
  8
LAY-1
  6
DASHED2
 62
     3
100
AcDbLine
 10
719.712067
 20
375.147904
 30
0.0
 11
719.712067
 21
375.547904
 31
0.0
  0
LINE
  5
E6
100
AcDbEntity
  8
LAY-1
  6
DASHED2
 62
     3
100
AcDbLine
 10
719.712067
 20
375.547904
 30
0.0
 11
722.712067
 21
378.547904
 31
0.0
  0
LINE
  5
E7
100
AcDbEntity
  8
LAY-1
  6
DASHED2
 62
     3
100
AcDbLine
 10
731.712067
 20
375.547904
 30
0.0
 11
719.712067
 21
375.547904
 31
0.0
  0
LINE
  5
E8
100
AcDbEntity
  8
LAY-1
  6
CONTINUOUS
 62
     3
100
AcDbLine
 10
731.712067
 20
375.147904
 30
0.0
 11
719.712067
 21
375.147904
 31
0.0
  0
LINE
  5
E9
100
AcDbEntity
  8
LAY-1
  6
CONTINUOUS
 62
     3
100
AcDbLine
 10
728.712067
 20
395.147904
 30
0.0
 11
722.712067
 21
395.147904
 31
0.0
  0
LINE
  5
EA
100
AcDbEntity
  8
LAY-1
  6
DASHED2
 62
     3
100
AcDbLine
 10
717.712067
 20
375.147904
 30
0.0
 11
717.712067
 21
375.547904
 31
0.0
  0
LINE
  5
EB
100
AcDbEntity
  8
LAY-1
  6
DASHED2
 62
     3
100
AcDbLine
 10
717.712067
 20
375.547904
 30
0.0
 11
714.712067
 21
378.547904
 31
0.0
  0
LINE
  5
EC
100
AcDbEntity
  8
LAY-1
  6
DASHED2
 62
     3
100
AcDbLine
 10
714.712067
 20
378.547904
 30
0.0
 11
708.712067
 21
378.547904
 31
0.0
  0
LINE
  5
ED
100
AcDbEntity
  8
LAY-1
  6
DASHED2
 62
     3
100
AcDbLine
 10
705.712067
 20
375.147904
 30
0.0
 11
705.712067
 21
375.547904
 31
0.0
  0
LINE
  5
EE
100
AcDbEntity
  8
LAY-1
  6
DASHED2
 62
     3
100
AcDbLine
 10
705.712067
 20
375.547904
 30
0.0
 11
708.712067
 21
378.547904
 31
0.0
  0
LINE
  5
EF
100
AcDbEntity
  8
LAY-1
  6
DASHED2
 62
     3
100
AcDbLine
 10
717.712067
 20
375.547904
 30
0.0
 11
705.712067
 21
375.547904
 31
0.0
  0
LINE
  5
F0
100
AcDbEntity
  8
LAY-1
  6
CONTINUOUS
 62
     3
100
AcDbLine
 10
717.712067
 20
375.147904
 30
0.0
 11
705.712067
 21
375.147904
 31
0.0
  0
LINE
  5
F1
100
AcDbEntity
  8
LAY-1
  6
CONTINUOUS
 62
     3
100
AcDbLine
 10
714.712067
 20
395.147904
 30
0.0
 11
708.712067
 21
395.147904
 31
0.0
  0
LINE
  5
F2
100
AcDbEntity
  8
LAY-1
  6
DASHED2
 62
     3
100
AcDbLine
 10
708.712067
 20
378.547904
 30
0.0
 11
708.712067
 21
390.147934
 31
0.0
  0
LINE
  5
F3
100
AcDbEntity
  8
LAY-1
  6
CONTINUOUS
 62
     3
100
AcDbLine
 10
708.712067
 20
390.147934
 30
0.0
 11
708.712067
 21
395.147904
 31
0.0
  0
LINE
  5
F4
100
AcDbEntity
  8
LAY-1
  6
DASHED2
 62
     1
100
AcDbLine
 10
709.212067
 20
378.547904
 30
0.0
 11
709.212067
 21
390.147934
 31
0.0
  0
LINE
  5
F5
100
AcDbEntity
  8
LAY-1
  6
CONTINUOUS
 62
     1
100
AcDbLine
 10
709.212067
 20
390.147934
 30
0.0
 11
709.212067
 21
395.147904
 31
0.0
  0
LINE
  5
F6
100
AcDbEntity
  8
LAY-1
  6
DASHED2
 62
     1
100
AcDbLine
 10
714.212067
 20
378.547904
 30
0.0
 11
714.212067
 21
390.147934
 31
0.0
  0
LINE
  5
F7
100
AcDbEntity
  8
LAY-1
  6
CONTINUOUS
 62
     1
100
AcDbLine
 10
714.212067
 20
390.147934
 30
0.0
 11
714.212067
 21
395.147904
 31
0.0
  0
LINE
  5
F8
100
AcDbEntity
  8
LAY-1
  6
DASHED2
 62
     3
100
AcDbLine
 10
714.712067
 20
378.547904
 30
0.0
 11
714.712067
 21
390.147934
 31
0.0
  0
LINE
  5
F9
100
AcDbEntity
  8
LAY-1
  6
CONTINUOUS
 62
     3
100
AcDbLine
 10
714.712067
 20
390.147934
 30
0.0
 11
714.712067
 21
395.147904
 31
0.0
  0
LINE
  5
FA
100
AcDbEntity
  8
LAY-1
  6
DASHED2
 62
     3
100
AcDbLine
 10
722.712067
 20
378.547904
 30
0.0
 11
722.712067
 21
390.147934
 31
0.0
  0
LINE
  5
FB
100
AcDbEntity
  8
LAY-1
  6
CONTINUOUS
 62
     3
100
AcDbLine
 10
722.712067
 20
390.147934
 30
0.0
 11
722.712067
 21
395.147904
 31
0.0
  0
LINE
  5
FC
100
AcDbEntity
  8
LAY-1
  6
DASHED2
 62
     1
100
AcDbLine
 10
723.212067
 20
378.547904
 30
0.0
 11
723.212067
 21
390.147934
 31
0.0
  0
LINE
  5
FD
100
AcDbEntity
  8
LAY-1
  6
CONTINUOUS
 62
     1
100
AcDbLine
 10
723.212067
 20
390.147934
 30
0.0
 11
723.212067
 21
395.147904
 31
0.0
  0
LINE
  5
FE
100
AcDbEntity
  8
LAY-1
  6
DASHED2
 62
     3
100
AcDbLine
 10
728.712067
 20
378.547904
 30
0.0
 11
728.712067
 21
390.147934
 31
0.0
  0
LINE
  5
FF
100
AcDbEntity
  8
LAY-1
  6
CONTINUOUS
 62
     3
100
AcDbLine
 10
728.712067
 20
390.147934
 30
0.0
 11
728.712067
 21
395.147904
 31
0.0
  0
LINE
  5
100
100
AcDbEntity
  8
LAY-1
  6
DASHED2
 62
     1
100
AcDbLine
 10
728.212067
 20
378.547904
 30
0.0
 11
728.212067
 21
390.147934
 31
0.0
  0
LINE
  5
101
100
AcDbEntity
  8
LAY-1
  6
CONTINUOUS
 62
     1
100
AcDbLine
 10
728.212067
 20
390.147934
 30
0.0
 11
728.212067
 21
395.147904
 31
0.0
  0
LINE
  5
102
100
AcDbEntity
  8
LAY-2
  6
CONTINUOUS
 62
     3
100
AcDbLine
 10
78.282082
 20
220.680542
 30
0.0
 11
78.282082
 21
246.209656
 31
0.0
  0
ARC
  5
103
100
AcDbEntity
  8
LAY-2
  6
CONTINUOUS
 62
     3
100
AcDbCircle
 10
88.282082
 20
246.209656
 30
0.0
 40
10.0
100
AcDbArc
 50
90.00002
 51
180.000001
  0
ARC
  5
104
100
AcDbEntity
  8
LAY-2
  6
CONTINUOUS
 62
     3
100
AcDbCircle
 10
165.28209
 20
253.209641
 30
0.0
 40
3.0
100
AcDbArc
 50
359.999981
 51
90.00002
  0
LINE
  5
105
100
AcDbEntity
  8
LAY-2
  6
CONTINUOUS
 62
     3
100
AcDbLine
 10
168.282074
 20
229.209671
 30
0.0
 11
168.28209
 21
253.209641
 31
0.0
  0
ARC
  5
106
100
AcDbEntity
  8
LAY-2
  6
CONTINUOUS
 62
     3
100
AcDbCircle
 10
165.282074
 20
229.209671
 30
0.0
 40
3.0
100
AcDbArc
 50
269.999982
 51
0.000021
  0
LINE
  5
107
100
AcDbEntity
  8
LAY-2
  6
CONTINUOUS
 62
     3
100
AcDbLine
 10
165.28209
 20
256.209641
 30
0.0
 11
88.282082
 21
256.209656
 31
0.0
  0
CIRCLE
  5
108
100
AcDbEntity
  8
LAY-2
  6
CONTINUOUS
 62
     3
100
AcDbCircle
 10
90.28209
 20
234.209626
 30
0.0
 40
6.0
  0
CIRCLE
  5
109
100
AcDbEntity
  8
LAY-2
  6
CONTINUOUS
 62
     3
100
AcDbCircle
 10
90.28209
 20
234.209626
 30
0.0
 40
3.25
  0
CIRCLE
  5
10A
100
AcDbEntity
  8
LAY-2
  6
CONTINUOUS
 62
     3
100
AcDbCircle
 10
110.28209
 20
248.209626
 30
0.0
 40
6.0
  0
CIRCLE
  5
10B
100
AcDbEntity
  8
LAY-2
  6
CONTINUOUS
 62
     3
100
AcDbCircle
 10
110.28209
 20
248.209626
 30
0.0
 40
3.25
  0
CIRCLE
  5
10C
100
AcDbEntity
  8
LAY-2
  6
CONTINUOUS
 62
     3
100
AcDbCircle
 10
160.28209
 20
248.209641
 30
0.0
 40
6.0
  0
CIRCLE
  5
10D
100
AcDbEntity
  8
LAY-2
  6
CONTINUOUS
 62
     3
100
AcDbCircle
 10
160.28209
 20
248.209641
 30
0.0
 40
3.25
  0
CIRCLE
  5
10E
100
AcDbEntity
  8
LAY-2
  6
CONTINUOUS
 62
     3
100
AcDbCircle
 10
140.28209
 20
234.209626
 30
0.0
 40
6.0
  0
CIRCLE
  5
10F
100
AcDbEntity
  8
LAY-2
  6
CONTINUOUS
 62
     3
100
AcDbCircle
 10
140.28209
 20
234.209626
 30
0.0
 40
3.25
  0
LINE
  5
110
100
AcDbEntity
  8
LAY-2
  6
CONTINUOUS
 62
     3
100
AcDbLine
 10
107.782074
 20
226.209656
 30
0.0
 11
165.282074
 21
226.209671
 31
0.0
  0
LINE
  5
111
100
AcDbEntity
  8
LAY-2
  6
DASHED2
 62
     3
100
AcDbLine
 10
78.282082
 20
221.209656
 30
0.0
 11
107.282074
 21
221.209656
 31
0.0
  0
ARC
  5
112
100
AcDbEntity
  8
LAY-2
  6
CONTINUOUS
 62
     3
100
AcDbCircle
 10
82.28209
 20
196.209656
 30
0.0
 40
17.0
100
AcDbArc
 50
145.139874
 51
340.000012
  0
LINE
  5
113
100
AcDbEntity
  8
LAY-2
  6
CONTINUOUS
 62
     3
100
AcDbLine
 10
98.256867
 20
190.395295
 30
0.0
 11
107.221787
 21
215.026245
 31
0.0
  0
LINE
  5
114
100
AcDbEntity
  8
LAY-2
  6
CONTINUOUS
 62
     3
100
AcDbLine
 10
68.332749
 20
205.926422
 30
0.0
 11
78.012902
 21
219.823182
 31
0.0
  0
ARC
  5
115
100
AcDbEntity
  8
LAY-2
  6
CONTINUOUS
 62
     3
100
AcDbCircle
 10
106.282097
 20
215.368225
 30
0.0
 40
1.0
100
AcDbArc
 50
340.00003
 51
359.999981
  0
ARC
  5
116
100
AcDbEntity
  8
LAY-2
  6
CONTINUOUS
 62
     3
100
AcDbCircle
 10
76.782082
 20
220.680542
 30
0.0
 40
1.5
100
AcDbArc
 50
325.139854
 51
359.999981
  0
ARC
  5
117
100
AcDbEntity
  8
LAY-2
  6
CONTINUOUS
 62
     3
100
AcDbCircle
 10
107.782074
 20
225.709656
 30
0.0
 40
0.5
100
AcDbArc
 50
90.00002
 51
180.000116
  0
ARC
  5
118
100
AcDbEntity
  8
LAY-2
  6
CONTINUOUS
 62
     3
100
AcDbCircle
 10
82.28209
 20
196.209656
 30
0.0
 40
18.0
100
AcDbArc
 50
160.00005
 51
340.000012
  0
LINE
  5
119
100
AcDbEntity
  8
LAY-2
  6
CONTINUOUS
 62
     3
100
AcDbLine
 10
110.536515
 20
221.209656
 30
0.0
 11
99.196549
 21
190.053284
 31
0.0
  0
LINE
  5
11A
100
AcDbEntity
  8
LAY-2
  6
CONTINUOUS
 62
     3
100
AcDbLine
 10
72.22612
 20
221.209656
 30
0.0
 11
65.3676
 21
202.366028
 31
0.0
  0
LINE
  5
11B
100
AcDbEntity
  8
LAY-2
  6
CONTINUOUS
 62
     3
100
AcDbLine
 10
72.22612
 20
221.209656
 30
0.0
 11
78.282074
 21
221.209656
 31
0.0
  0
LINE
  5
11C
100
AcDbEntity
  8
LAY-2
  6
CONTINUOUS
 62
     3
100
AcDbLine
 10
110.536515
 20
221.209656
 30
0.0
 11
107.282082
 21
221.209656
 31
0.0
  0
CIRCLE
  5
11D
100
AcDbEntity
  8
LAY-2
  6
CONTINUOUS
 62
     3
100
AcDbCircle
 10
82.28209
 20
196.209656
 30
0.0
 40
7.5
  0
CIRCLE
  5
11E
100
AcDbEntity
  8
LAY-2
  6
CONTINUOUS
 62
     3
100
AcDbCircle
 10
82.28209
 20
196.209656
 30
0.0
 40
6.25
  0
LINE
  5
11F
100
AcDbEntity
  8
LAY-2
  6
CONTINUOUS
 62
     3
100
AcDbLine
 10
73.077469
 20
221.209656
 30
0.0
 11
66.119355
 21
202.092408
 31
0.0
  0
ARC
  5
120
100
AcDbEntity
  8
LAY-2
  6
CONTINUOUS
 62
     3
100
AcDbCircle
 10
82.28209
 20
196.209656
 30
0.0
 40
17.200001
100
AcDbArc
 50
159.999993
 51
340.00007
  0
LINE
  5
121
100
AcDbEntity
  8
LAY-2
  6
CONTINUOUS
 62
     3
100
AcDbLine
 10
109.685166
 20
221.209656
 30
0.0
 11
98.444802
 21
190.326935
 31
0.0
  0
LINE
  5
122
100
AcDbEntity
  8
LAY-2
  6
DASHED2
 62
     3
100
AcDbLine
 10
78.571302
 20
201.238826
 30
0.0
 11
68.940598
 21
206.799073
 31
0.0
  0
LINE
  5
123
100
AcDbEntity
  8
LAY-2
  6
DASHED2
 62
     3
100
AcDbLine
 10
79.033728
 20
201.549192
 30
0.0
 11
69.227433
 21
207.210816
 31
0.0
  0
LINE
  5
124
100
AcDbEntity
  8
LAY-2
  6
DASHED2
 62
     3
100
AcDbLine
 10
76.071305
 20
196.908692
 30
0.0
 11
66.469712
 21
202.452149
 31
0.0
  0
LINE
  5
125
100
AcDbEntity
  8
LAY-2
  6
DASHED2
 62
     3
100
AcDbLine
 10
76.033735
 20
196.35303
 30
0.0
 11
66.370163
 21
201.932251
 31
0.0
  0
LINE
  5
126
100
AcDbEntity
  8
LAY-2
  6
CONTINUOUS
 62
     3
100
AcDbLine
 10
107.282097
 20
215.368225
 30
0.0
 11
107.282084
 21
221.209656
 31
0.0
  0
LINE
  5
127
100
AcDbEntity
  8
LAY-2
  6
CONTINUOUS
 62
     3
100
AcDbLine
 10
107.282084
 20
221.209656
 30
0.0
 11
107.282074
 21
225.709656
 31
0.0
  0
LINE
  5
128
100
AcDbEntity
  8
LAY-2
  6
CONTINUOUS
 62
     3
100
AcDbLine
 10
655.712036
 20
358.147904
 30
0.0
 11
655.712036
 21
372.147904
 31
0.0
  0
ARC
  5
129
100
AcDbEntity
  8
LAY-2
  6
CONTINUOUS
 62
     3
100
AcDbCircle
 10
656.712036
 20
358.147904
 30
0.0
 40
1.0
100
AcDbArc
 50
180.0
 51
269.999982
  0
LINE
  5
12A
100
AcDbEntity
  8
LAY-2
  6
CONTINUOUS
 62
     3
100
AcDbLine
 10
698.712036
 20
357.147904
 30
0.0
 11
698.712036
 21
372.147904
 31
0.0
  0
LINE
  5
12B
100
AcDbEntity
  8
LAY-2
  6
CONTINUOUS
 62
     3
100
AcDbLine
 10
656.712036
 20
357.147904
 30
0.0
 11
698.712036
 21
357.147904
 31
0.0
  0
LINE
  5
12C
100
AcDbEntity
  8
LAY-2
  6
CONTINUOUS
 62
     3
100
AcDbLine
 10
655.712036
 20
372.147904
 30
0.0
 11
698.712036
 21
372.147904
 31
0.0
  0
LINE
  5
12D
100
AcDbEntity
  8
LAY-2
  6
DASHED2
 62
     3
100
AcDbLine
 10
698.712036
 20
357.947892
 30
0.0
 11
657.012024
 21
357.947922
 31
0.0
  0
LINE
  5
12E
100
AcDbEntity
  8
LAY-2
  6
DASHED2
 62
     3
100
AcDbLine
 10
656.512024
 20
358.447922
 30
0.0
 11
656.512024
 21
372.147904
 31
0.0
  0
ARC
  5
12F
100
AcDbEntity
  8
LAY-2
  6
DASHED2
 62
     3
100
AcDbCircle
 10
657.012024
 20
358.447922
 30
0.0
 40
0.5
100
AcDbArc
 50
180.0
 51
269.999982
  0
ARC
  5
130
100
AcDbEntity
  8
LAY-2
  6
CONTINUOUS
 62
     3
100
AcDbCircle
 10
732.212067
 20
370.647904
 30
0.0
 40
1.5
100
AcDbArc
 50
359.999981
 51
90.00002
  0
ARC
  5
131
100
AcDbEntity
  8
LAY-2
  6
CONTINUOUS
 62
     3
100
AcDbCircle
 10
732.212067
 20
361.647904
 30
0.0
 40
1.5
100
AcDbArc
 50
269.999982
 51
0.000021
  0
LINE
  5
132
100
AcDbEntity
  8
LAY-2
  6
CONTINUOUS
 62
     3
100
AcDbLine
 10
698.712036
 20
360.147904
 30
0.0
 11
732.212067
 21
360.147904
 31
0.0
  0
LINE
  5
133
100
AcDbEntity
  8
LAY-2
  6
CONTINUOUS
 62
     3
100
AcDbLine
 10
733.712067
 20
361.647904
 30
0.0
 11
733.712067
 21
370.647904
 31
0.0
  0
LINE
  5
134
100
AcDbEntity
  8
LAY-2
  6
CONTINUOUS
 62
     3
100
AcDbLine
 10
698.712036
 20
372.147904
 30
0.0
 11
732.212098
 21
372.147904
 31
0.0
  0
ARC
  5
135
100
AcDbEntity
  8
LAY-2
  6
CONTINUOUS
 62
     3
100
AcDbCircle
 10
705.212067
 20
370.647904
 30
0.0
 40
1.5
100
AcDbArc
 50
90.00002
 51
180.0
  0
ARC
  5
136
100
AcDbEntity
  8
LAY-2
  6
CONTINUOUS
 62
     3
100
AcDbCircle
 10
705.212067
 20
361.647904
 30
0.0
 40
1.5
100
AcDbArc
 50
180.0
 51
269.999982
  0
LINE
  5
137
100
AcDbEntity
  8
LAY-2
  6
CONTINUOUS
 62
     3
100
AcDbLine
 10
703.712067
 20
361.647904
 30
0.0
 11
703.712067
 21
370.647904
 31
0.0
  0
LINE
  5
138
100
AcDbEntity
  8
LAY-2
  6
CONTINUOUS
 62
     3
100
AcDbLine
 10
667.462037
 20
375.147904
 30
0.0
 11
667.462037
 21
372.147904
 31
0.0
  0
LINE
  5
139
100
AcDbEntity
  8
LAY-2
  6
CONTINUOUS
 62
     3
100
AcDbLine
 10
679.962037
 20
375.147904
 30
0.0
 11
679.962037
 21
372.147904
 31
0.0
  0
LINE
  5
13A
100
AcDbEntity
  8
LAY-2
  6
DASHED2
 62
     3
100
AcDbLine
 10
731.712067
 20
372.147904
 30
0.0
 11
731.712067
 21
371.747904
 31
0.0
  0
LINE
  5
13B
100
AcDbEntity
  8
LAY-2
  6
DASHED2
 62
     3
100
AcDbLine
 10
731.712067
 20
371.747904
 30
0.0
 11
728.712067
 21
368.747904
 31
0.0
  0
LINE
  5
13C
100
AcDbEntity
  8
LAY-2
  6
DASHED2
 62
     3
100
AcDbLine
 10
728.712067
 20
368.747904
 30
0.0
 11
722.712067
 21
368.747904
 31
0.0
  0
LINE
  5
13D
100
AcDbEntity
  8
LAY-2
  6
DASHED2
 62
     3
100
AcDbLine
 10
719.712067
 20
372.147904
 30
0.0
 11
719.712067
 21
371.747904
 31
0.0
  0
LINE
  5
13E
100
AcDbEntity
  8
LAY-2
  6
DASHED2
 62
     3
100
AcDbLine
 10
719.712067
 20
371.747904
 30
0.0
 11
722.712067
 21
368.747904
 31
0.0
  0
LINE
  5
13F
100
AcDbEntity
  8
LAY-2
  6
DASHED2
 62
     3
100
AcDbLine
 10
731.712067
 20
371.747904
 30
0.0
 11
719.712067
 21
371.747904
 31
0.0
  0
LINE
  5
140
100
AcDbEntity
  8
LAY-2
  6
CONTINUOUS
 62
     3
100
AcDbLine
 10
731.712067
 20
372.147904
 30
0.0
 11
719.712067
 21
372.147904
 31
0.0
  0
LINE
  5
141
100
AcDbEntity
  8
LAY-2
  6
DASHED2
 62
     3
100
AcDbLine
 10
728.712067
 20
352.147904
 30
0.0
 11
722.712067
 21
352.147904
 31
0.0
  0
LINE
  5
142
100
AcDbEntity
  8
LAY-2
  6
DASHED2
 62
     3
100
AcDbLine
 10
722.712067
 20
368.747904
 30
0.0
 11
722.712067
 21
352.147904
 31
0.0
  0
LINE
  5
143
100
AcDbEntity
  8
LAY-2
  6
DASHED2
 62
     1
100
AcDbLine
 10
723.212067
 20
368.747904
 30
0.0
 11
723.212067
 21
352.147904
 31
0.0
  0
LINE
  5
144
100
AcDbEntity
  8
LAY-2
  6
DASHED2
 62
     3
100
AcDbLine
 10
728.712067
 20
368.747904
 30
0.0
 11
728.712067
 21
352.147904
 31
0.0
  0
LINE
  5
145
100
AcDbEntity
  8
LAY-2
  6
DASHED2
 62
     1
100
AcDbLine
 10
728.212067
 20
368.747904
 30
0.0
 11
728.212067
 21
352.147904
 31
0.0
  0
LINE
  5
146
100
AcDbEntity
  8
LAY-2
  6
DASHED2
 62
     3
100
AcDbLine
 10
717.712067
 20
372.147904
 30
0.0
 11
717.712067
 21
371.747904
 31
0.0
  0
LINE
  5
147
100
AcDbEntity
  8
LAY-2
  6
DASHED2
 62
     3
100
AcDbLine
 10
717.712067
 20
371.747904
 30
0.0
 11
714.712067
 21
368.747904
 31
0.0
  0
LINE
  5
148
100
AcDbEntity
  8
LAY-2
  6
DASHED2
 62
     3
100
AcDbLine
 10
714.712067
 20
368.747904
 30
0.0
 11
708.712067
 21
368.747904
 31
0.0
  0
LINE
  5
149
100
AcDbEntity
  8
LAY-2
  6
DASHED2
 62
     3
100
AcDbLine
 10
705.712067
 20
372.147904
 30
0.0
 11
705.712067
 21
371.747904
 31
0.0
  0
LINE
  5
14A
100
AcDbEntity
  8
LAY-2
  6
DASHED2
 62
     3
100
AcDbLine
 10
705.712067
 20
371.747904
 30
0.0
 11
708.712067
 21
368.747904
 31
0.0
  0
LINE
  5
14B
100
AcDbEntity
  8
LAY-2
  6
DASHED2
 62
     3
100
AcDbLine
 10
717.712067
 20
371.747904
 30
0.0
 11
705.712067
 21
371.747904
 31
0.0
  0
LINE
  5
14C
100
AcDbEntity
  8
LAY-2
  6
CONTINUOUS
 62
     3
100
AcDbLine
 10
717.712067
 20
372.147904
 30
0.0
 11
705.712067
 21
372.147904
 31
0.0
  0
LINE
  5
14D
100
AcDbEntity
  8
LAY-2
  6
DASHED2
 62
     3
100
AcDbLine
 10
714.712067
 20
352.147904
 30
0.0
 11
708.712067
 21
352.147904
 31
0.0
  0
LINE
  5
14E
100
AcDbEntity
  8
LAY-2
  6
DASHED2
 62
     3
100
AcDbLine
 10
708.712067
 20
368.747904
 30
0.0
 11
708.712067
 21
352.147904
 31
0.0
  0
LINE
  5
14F
100
AcDbEntity
  8
LAY-2
  6
DASHED2
 62
     1
100
AcDbLine
 10
709.212067
 20
368.747904
 30
0.0
 11
709.212067
 21
352.147904
 31
0.0
  0
LINE
  5
150
100
AcDbEntity
  8
LAY-2
  6
DASHED2
 62
     3
100
AcDbLine
 10
714.712067
 20
368.747904
 30
0.0
 11
714.712067
 21
352.147904
 31
0.0
  0
LINE
  5
151
100
AcDbEntity
  8
LAY-2
  6
DASHED2
 62
     1
100
AcDbLine
 10
714.212067
 20
368.747904
 30
0.0
 11
714.212067
 21
352.147904
 31
0.0
  0
LINE
  5
152
100
AcDbEntity
  8
LAY-3
  6
CONTINUOUS
 62
     3
100
AcDbLine
 10
317.282074
 20
389.417275
 30
0.0
 11
317.282074
 21
414.946358
 31
0.0
  0
ARC
  5
153
100
AcDbEntity
  8
LAY-3
  6
CONTINUOUS
 62
     3
100
AcDbCircle
 10
327.282067
 20
414.946358
 30
0.0
 40
10.0
100
AcDbArc
 50
90.00002
 51
180.000001
  0
ARC
  5
154
100
AcDbEntity
  8
LAY-3
  6
CONTINUOUS
 62
     3
100
AcDbCircle
 10
404.282059
 20
421.946328
 30
0.0
 40
3.0
100
AcDbArc
 50
359.999981
 51
90.00002
  0
LINE
  5
155
100
AcDbEntity
  8
LAY-3
  6
CONTINUOUS
 62
     3
100
AcDbLine
 10
407.282059
 20
397.946358
 30
0.0
 11
407.282059
 21
421.946328
 31
0.0
  0
ARC
  5
156
100
AcDbEntity
  8
LAY-3
  6
CONTINUOUS
 62
     3
100
AcDbCircle
 10
404.282059
 20
397.946358
 30
0.0
 40
3.0
100
AcDbArc
 50
269.999982
 51
0.000021
  0
LINE
  5
157
100
AcDbEntity
  8
LAY-3
  6
CONTINUOUS
 62
     3
100
AcDbLine
 10
404.282059
 20
424.946328
 30
0.0
 11
327.282067
 21
424.946358
 31
0.0
  0
CIRCLE
  5
158
100
AcDbEntity
  8
LAY-3
  6
DASHED2
 62
     3
100
AcDbCircle
 10
329.282074
 20
402.946328
 30
0.0
 40
6.0
  0
CIRCLE
  5
159
100
AcDbEntity
  8
LAY-3
  6
CONTINUOUS
 62
     3
100
AcDbCircle
 10
329.282074
 20
402.946328
 30
0.0
 40
3.25
  0
CIRCLE
  5
15A
100
AcDbEntity
  8
LAY-3
  6
DASHED2
 62
     3
100
AcDbCircle
 10
349.282074
 20
416.946328
 30
0.0
 40
6.0
  0
CIRCLE
  5
15B
100
AcDbEntity
  8
LAY-3
  6
CONTINUOUS
 62
     3
100
AcDbCircle
 10
349.282074
 20
416.946328
 30
0.0
 40
3.25
  0
CIRCLE
  5
15C
100
AcDbEntity
  8
LAY-3
  6
DASHED2
 62
     3
100
AcDbCircle
 10
399.282059
 20
416.946328
 30
0.0
 40
6.0
  0
CIRCLE
  5
15D
100
AcDbEntity
  8
LAY-3
  6
CONTINUOUS
 62
     3
100
AcDbCircle
 10
399.282059
 20
416.946328
 30
0.0
 40
3.25
  0
CIRCLE
  5
15E
100
AcDbEntity
  8
LAY-3
  6
DASHED2
 62
     3
100
AcDbCircle
 10
379.282059
 20
402.946328
 30
0.0
 40
6.0
  0
CIRCLE
  5
15F
100
AcDbEntity
  8
LAY-3
  6
CONTINUOUS
 62
     3
100
AcDbCircle
 10
379.282059
 20
402.946328
 30
0.0
 40
3.25
  0
LINE
  5
160
100
AcDbEntity
  8
LAY-3
  6
CONTINUOUS
 62
     3
100
AcDbLine
 10
346.782059
 20
394.946358
 30
0.0
 11
404.282059
 21
394.946358
 31
0.0
  0
LINE
  5
161
100
AcDbEntity
  8
LAY-3
  6
CONTINUOUS
 62
     3
100
AcDbLine
 10
346.282059
 20
389.946389
 30
0.0
 11
346.282059
 21
394.446358
 31
0.0
  0
ARC
  5
162
100
AcDbEntity
  8
LAY-3
  6
DASHED2
 62
     3
100
AcDbCircle
 10
321.282074
 20
364.946358
 30
0.0
 40
17.0
100
AcDbArc
 50
145.139874
 51
340.000012
  0
LINE
  5
163
100
AcDbEntity
  8
LAY-3
  6
DASHED2
 62
     3
100
AcDbLine
 10
337.256852
 20
359.131997
 30
0.0
 11
346.221772
 21
383.762948
 31
0.0
  0
LINE
  5
164
100
AcDbEntity
  8
LAY-3
  6
DASHED2
 62
     3
100
AcDbLine
 10
307.332734
 20
374.663125
 30
0.0
 11
317.012894
 21
388.559914
 31
0.0
  0
ARC
  5
165
100
AcDbEntity
  8
LAY-3
  6
DASHED2
 62
     3
100
AcDbCircle
 10
345.282082
 20
384.104958
 30
0.0
 40
1.0
100
AcDbArc
 50
340.00003
 51
359.999981
  0
ARC
  5
166
100
AcDbEntity
  8
LAY-3
  6
DASHED2
 62
     3
100
AcDbCircle
 10
315.782074
 20
389.417275
 30
0.0
 40
1.5
100
AcDbArc
 50
325.139854
 51
359.999981
  0
ARC
  5
167
100
AcDbEntity
  8
LAY-3
  6
CONTINUOUS
 62
     3
100
AcDbCircle
 10
346.782059
 20
394.446358
 30
0.0
 40
0.5
100
AcDbArc
 50
90.00002
 51
180.000116
  0
ARC
  5
168
100
AcDbEntity
  8
LAY-3
  6
CONTINUOUS
 62
     3
100
AcDbCircle
 10
321.282074
 20
364.946389
 30
0.0
 40
18.0
100
AcDbArc
 50
159.999878
 51
340.000012
  0
LINE
  5
169
100
AcDbEntity
  8
LAY-3
  6
CONTINUOUS
 62
     3
100
AcDbLine
 10
349.536545
 20
389.946358
 30
0.0
 11
338.196518
 21
358.790017
 31
0.0
  0
LINE
  5
16A
100
AcDbEntity
  8
LAY-3
  6
CONTINUOUS
 62
     3
100
AcDbLine
 10
311.226166
 20
389.946389
 30
0.0
 11
304.367646
 21
371.102761
 31
0.0
  0
LINE
  5
16B
100
AcDbEntity
  8
LAY-3
  6
CONTINUOUS
 62
     3
100
AcDbLine
 10
311.226166
 20
389.946389
 30
0.0
 11
349.536545
 21
389.946389
 31
0.0
  0
LINE
  5
16C
100
AcDbEntity
  8
LAY-3
  6
DASHED2
 62
     3
100
AcDbLine
 10
346.282082
 20
384.104958
 30
0.0
 11
346.282082
 21
389.946389
 31
0.0
  0
LINE
  5
16D
100
AcDbEntity
  8
LAY-3
  6
DASHED2
 62
     3
100
AcDbLine
 10
312.0775
 20
389.946389
 30
0.0
 11
305.119385
 21
370.82914
 31
0.0
  0
ARC
  5
16E
100
AcDbEntity
  8
LAY-3
  6
DASHED2
 62
     3
100
AcDbCircle
 10
321.282074
 20
364.946389
 30
0.0
 40
17.200001
100
AcDbArc
 50
159.999993
 51
339.999898
  0
LINE
  5
16F
100
AcDbEntity
  8
LAY-3
  6
DASHED2
 62
     3
100
AcDbLine
 10
348.685219
 20
389.946389
 30
0.0
 11
337.444756
 21
359.063637
 31
0.0
  0
CIRCLE
  5
170
100
AcDbEntity
  8
LAY-3
  6
DASHED2
 62
     3
100
AcDbCircle
 10
321.282067
 20
364.946358
 30
0.0
 40
14.0
  0
CIRCLE
  5
171
100
AcDbEntity
  8
LAY-3
  6
DASHED2
 62
     3
100
AcDbCircle
 10
321.282068
 20
364.946389
 30
0.0
 40
6.0
  0
LINE
  5
172
100
AcDbEntity
  8
LAY-3
  6
CONTINUOUS
 62
     3
100
AcDbLine
 10
655.712067
 20
208.298279
 30
0.0
 11
655.712036
 21
194.298279
 31
0.0
  0
ARC
  5
173
100
AcDbEntity
  8
LAY-3
  6
CONTINUOUS
 62
     3
100
AcDbCircle
 10
656.712067
 20
208.298279
 30
0.0
 40
1.0
100
AcDbArc
 50
89.999963
 51
179.999887
  0
LINE
  5
174
100
AcDbEntity
  8
LAY-3
  6
CONTINUOUS
 62
     3
100
AcDbLine
 10
698.712067
 20
209.298218
 30
0.0
 11
698.712067
 21
194.298218
 31
0.0
  0
LINE
  5
175
100
AcDbEntity
  8
LAY-3
  6
CONTINUOUS
 62
     3
100
AcDbLine
 10
656.712067
 20
209.298279
 30
0.0
 11
698.712067
 21
209.298218
 31
0.0
  0
LINE
  5
176
100
AcDbEntity
  8
LAY-3
  6
CONTINUOUS
 62
     3
100
AcDbLine
 10
655.712036
 20
194.298279
 30
0.0
 11
698.712067
 21
194.298218
 31
0.0
  0
LINE
  5
177
100
AcDbEntity
  8
LAY-3
  6
DASHED2
 62
     3
100
AcDbLine
 10
656.512085
 20
207.998291
 30
0.0
 11
656.512055
 21
194.298279
 31
0.0
  0
LINE
  5
178
100
AcDbEntity
  8
LAY-3
  6
DASHED2
 62
     3
100
AcDbLine
 10
698.712067
 20
208.49823
 30
0.0
 11
657.012085
 21
208.498291
 31
0.0
  0
ARC
  5
179
100
AcDbEntity
  8
LAY-3
  6
DASHED2
 62
     3
100
AcDbCircle
 10
657.012085
 20
207.998291
 30
0.0
 40
0.5
100
AcDbArc
 50
89.999963
 51
179.999887
  0
LINE
  5
17A
100
AcDbEntity
  8
LAY-3
  6
CONTINUOUS
 62
     3
100
AcDbLine
 10
703.712036
 20
204.798157
 30
0.0
 11
703.712098
 21
195.798157
 31
0.0
  0
ARC
  5
17B
100
AcDbEntity
  8
LAY-3
  6
CONTINUOUS
 62
     3
100
AcDbCircle
 10
732.212036
 20
195.798188
 30
0.0
 40
1.5
100
AcDbArc
 50
269.999811
 51
0.000021
  0
ARC
  5
17C
100
AcDbEntity
  8
LAY-3
  6
CONTINUOUS
 62
     3
100
AcDbCircle
 10
732.212098
 20
204.798188
 30
0.0
 40
1.5
100
AcDbArc
 50
359.999809
 51
89.999791
  0
LINE
  5
17D
100
AcDbEntity
  8
LAY-3
  6
CONTINUOUS
 62
     3
100
AcDbLine
 10
698.712067
 20
206.298218
 30
0.0
 11
732.212098
 21
206.298188
 31
0.0
  0
LINE
  5
17E
100
AcDbEntity
  8
LAY-3
  6
CONTINUOUS
 62
     3
100
AcDbLine
 10
733.712098
 20
204.798188
 30
0.0
 11
733.712036
 21
195.798188
 31
0.0
  0
ARC
  5
17F
100
AcDbEntity
  8
LAY-3
  6
CONTINUOUS
 62
     3
100
AcDbCircle
 10
705.212098
 20
195.798157
 30
0.0
 40
1.5
100
AcDbArc
 50
180.0
 51
269.999982
  0
ARC
  5
180
100
AcDbEntity
  8
LAY-3
  6
CONTINUOUS
 62
     3
100
AcDbCircle
 10
705.212036
 20
204.798157
 30
0.0
 40
1.5
100
AcDbArc
 50
90.000249
 51
180.0
  0
LINE
  5
181
100
AcDbEntity
  8
LAY-3
  6
DASHED2
 62
     3
100
AcDbLine
 10
705.712036
 20
194.298249
 30
0.0
 11
705.712036
 21
194.698249
 31
0.0
  0
LINE
  5
182
100
AcDbEntity
  8
LAY-3
  6
DASHED2
 62
     3
100
AcDbLine
 10
705.712036
 20
194.698249
 30
0.0
 11
708.712036
 21
197.698249
 31
0.0
  0
LINE
  5
183
100
AcDbEntity
  8
LAY-3
  6
DASHED2
 62
     3
100
AcDbLine
 10
708.712036
 20
197.698249
 30
0.0
 11
714.712036
 21
197.698249
 31
0.0
  0
LINE
  5
184
100
AcDbEntity
  8
LAY-3
  6
DASHED2
 62
     3
100
AcDbLine
 10
717.712036
 20
194.298249
 30
0.0
 11
717.712036
 21
194.698249
 31
0.0
  0
LINE
  5
185
100
AcDbEntity
  8
LAY-3
  6
DASHED2
 62
     3
100
AcDbLine
 10
717.712036
 20
194.698249
 30
0.0
 11
714.712036
 21
197.698249
 31
0.0
  0
LINE
  5
186
100
AcDbEntity
  8
LAY-3
  6
DASHED2
 62
     3
100
AcDbLine
 10
705.712036
 20
194.698249
 30
0.0
 11
717.712036
 21
194.698249
 31
0.0
  0
LINE
  5
187
100
AcDbEntity
  8
LAY-3
  6
CONTINUOUS
 62
     3
100
AcDbLine
 10
708.712036
 20
214.298249
 30
0.0
 11
714.712036
 21
214.298249
 31
0.0
  0
LINE
  5
188
100
AcDbEntity
  8
LAY-3
  6
DASHED2
 62
     3
100
AcDbLine
 10
719.712036
 20
194.298249
 30
0.0
 11
719.712036
 21
194.698249
 31
0.0
  0
LINE
  5
189
100
AcDbEntity
  8
LAY-3
  6
DASHED2
 62
     3
100
AcDbLine
 10
719.712036
 20
194.698249
 30
0.0
 11
722.712036
 21
197.698249
 31
0.0
  0
LINE
  5
18A
100
AcDbEntity
  8
LAY-3
  6
DASHED2
 62
     3
100
AcDbLine
 10
722.712036
 20
197.698249
 30
0.0
 11
728.712036
 21
197.698249
 31
0.0
  0
LINE
  5
18B
100
AcDbEntity
  8
LAY-3
  6
DASHED2
 62
     3
100
AcDbLine
 10
731.712036
 20
194.298249
 30
0.0
 11
731.712036
 21
194.698249
 31
0.0
  0
LINE
  5
18C
100
AcDbEntity
  8
LAY-3
  6
DASHED2
 62
     3
100
AcDbLine
 10
731.712036
 20
194.698249
 30
0.0
 11
728.712036
 21
197.698249
 31
0.0
  0
LINE
  5
18D
100
AcDbEntity
  8
LAY-3
  6
DASHED2
 62
     3
100
AcDbLine
 10
719.712036
 20
194.698249
 30
0.0
 11
731.712036
 21
194.698249
 31
0.0
  0
LINE
  5
18E
100
AcDbEntity
  8
LAY-3
  6
CONTINUOUS
 62
     3
100
AcDbLine
 10
719.712036
 20
194.298249
 30
0.0
 11
731.712036
 21
194.298249
 31
0.0
  0
LINE
  5
18F
100
AcDbEntity
  8
LAY-3
  6
CONTINUOUS
 62
     3
100
AcDbLine
 10
722.712036
 20
214.298249
 30
0.0
 11
728.712036
 21
214.298249
 31
0.0
  0
LINE
  5
190
100
AcDbEntity
  8
LAY-3
  6
DASHED2
 62
     3
100
AcDbLine
 10
708.712036
 20
197.698249
 30
0.0
 11
708.712036
 21
213.098209
 31
0.0
  0
LINE
  5
191
100
AcDbEntity
  8
LAY-3
  6
CONTINUOUS
 62
     3
100
AcDbLine
 10
708.712036
 20
213.098209
 30
0.0
 11
708.712036
 21
214.298249
 31
0.0
  0
LINE
  5
192
100
AcDbEntity
  8
LAY-3
  6
DASHED2
 62
     1
100
AcDbLine
 10
709.212036
 20
197.698249
 30
0.0
 11
709.212036
 21
213.098209
 31
0.0
  0
LINE
  5
193
100
AcDbEntity
  8
LAY-3
  6
CONTINUOUS
 62
     1
100
AcDbLine
 10
709.212036
 20
213.098209
 30
0.0
 11
709.212036
 21
214.298249
 31
0.0
  0
LINE
  5
194
100
AcDbEntity
  8
LAY-3
  6
DASHED2
 62
     1
100
AcDbLine
 10
714.212036
 20
197.698249
 30
0.0
 11
714.212036
 21
213.098204
 31
0.0
  0
LINE
  5
195
100
AcDbEntity
  8
LAY-3
  6
CONTINUOUS
 62
     1
100
AcDbLine
 10
714.212036
 20
213.098204
 30
0.0
 11
714.212036
 21
214.298249
 31
0.0
  0
LINE
  5
196
100
AcDbEntity
  8
LAY-3
  6
DASHED2
 62
     3
100
AcDbLine
 10
714.712036
 20
197.698249
 30
0.0
 11
714.712036
 21
213.098204
 31
0.0
  0
LINE
  5
197
100
AcDbEntity
  8
LAY-3
  6
CONTINUOUS
 62
     3
100
AcDbLine
 10
714.712036
 20
213.098204
 30
0.0
 11
714.712036
 21
214.298249
 31
0.0
  0
LINE
  5
198
100
AcDbEntity
  8
LAY-3
  6
DASHED2
 62
     3
100
AcDbLine
 10
722.712036
 20
197.698249
 30
0.0
 11
722.712036
 21
213.098197
 31
0.0
  0
LINE
  5
199
100
AcDbEntity
  8
LAY-3
  6
CONTINUOUS
 62
     3
100
AcDbLine
 10
722.712036
 20
213.098197
 30
0.0
 11
722.712036
 21
214.298249
 31
0.0
  0
LINE
  5
19A
100
AcDbEntity
  8
LAY-3
  6
DASHED2
 62
     1
100
AcDbLine
 10
723.212036
 20
197.698249
 30
0.0
 11
723.212036
 21
213.098196
 31
0.0
  0
LINE
  5
19B
100
AcDbEntity
  8
LAY-3
  6
CONTINUOUS
 62
     1
100
AcDbLine
 10
723.212036
 20
213.098196
 30
0.0
 11
723.212036
 21
214.298249
 31
0.0
  0
LINE
  5
19C
100
AcDbEntity
  8
LAY-3
  6
DASHED2
 62
     1
100
AcDbLine
 10
728.212036
 20
197.698249
 30
0.0
 11
728.212036
 21
213.098192
 31
0.0
  0
LINE
  5
19D
100
AcDbEntity
  8
LAY-3
  6
CONTINUOUS
 62
     1
100
AcDbLine
 10
728.212036
 20
213.098192
 30
0.0
 11
728.212036
 21
214.298249
 31
0.0
  0
LINE
  5
19E
100
AcDbEntity
  8
LAY-3
  6
DASHED2
 62
     3
100
AcDbLine
 10
728.712036
 20
197.698249
 30
0.0
 11
728.712036
 21
213.098191
 31
0.0
  0
LINE
  5
19F
100
AcDbEntity
  8
LAY-3
  6
CONTINUOUS
 62
     3
100
AcDbLine
 10
728.712036
 20
213.098191
 30
0.0
 11
728.712036
 21
214.298249
 31
0.0
  0
LINE
  5
1A0
100
AcDbEntity
  8
LAY-3
  6
CONTINUOUS
 62
     3
100
AcDbLine
 10
732.225564
 20
194.298249
 30
0.0
 11
698.656018
 21
194.298249
 31
0.0
  0
ARC
  5
1A1
100
AcDbEntity
  8
LAY-4
  6
CONTINUOUS
 62
     3
100
AcDbCircle
 10
321.282082
 20
196.20964
 30
0.0
 40
18.0
100
AcDbArc
 50
235.242873
 51
90.000002
  0
CIRCLE
  5
1A2
100
AcDbEntity
  8
LAY-4
  6
CONTINUOUS
 62
     3
100
AcDbCircle
 10
321.282082
 20
196.20964
 30
0.0
 40
12.5
  0
CIRCLE
  5
1A3
100
AcDbEntity
  8
LAY-4
  6
CONTINUOUS
 62
     3
100
AcDbCircle
 10
321.282082
 20
196.20964
 30
0.0
 40
6.0
  0
CIRCLE
  5
1A4
100
AcDbEntity
  8
LAY-4
  6
CONTINUOUS
 62
     3
100
AcDbCircle
 10
321.282082
 20
196.20964
 30
0.0
 40
3.25
  0
CIRCLE
  5
1A5
100
AcDbEntity
  8
LAY-4
  6
CONTINUOUS
 62
     3
100
AcDbCircle
 10
321.282082
 20
196.20964
 30
0.0
 40
3.0
  0
CIRCLE
  5
1A6
100
AcDbEntity
  8
LAY-4
  6
CONTINUOUS
 62
     3
100
AcDbCircle
 10
321.282082
 20
196.20964
 30
0.0
 40
2.5
  0
LINE
  5
1A7
100
AcDbEntity
  8
LAY-4
  6
CONTINUOUS
 62
     3
100
AcDbLine
 10
319.032082
 20
195.70964
 30
0.0
 11
319.032082
 21
196.70964
 31
0.0
  0
LINE
  5
1A8
100
AcDbEntity
  8
LAY-4
  6
CONTINUOUS
 62
     3
100
AcDbLine
 10
320.782082
 20
193.95964
 30
0.0
 11
320.782082
 21
194.70964
 31
0.0
  0
LINE
  5
1A9
100
AcDbEntity
  8
LAY-4
  6
CONTINUOUS
 62
     3
100
AcDbLine
 10
319.032082
 20
195.70964
 30
0.0
 11
319.782082
 21
195.70964
 31
0.0
  0
ARC
  5
1AA
100
AcDbEntity
  8
LAY-4
  6
CONTINUOUS
 62
     3
100
AcDbCircle
 10
319.782082
 20
194.70964
 30
0.0
 40
1.0
100
AcDbArc
 50
359.999981
 51
90.00002
  0
LINE
  5
1AB
100
AcDbEntity
  8
LAY-4
  6
CONTINUOUS
 62
     3
100
AcDbLine
 10
321.782082
 20
193.95964
 30
0.0
 11
320.782082
 21
193.95964
 31
0.0
  0
LINE
  5
1AC
100
AcDbEntity
  8
LAY-4
  6
CONTINUOUS
 62
     3
100
AcDbLine
 10
323.532082
 20
195.70964
 30
0.0
 11
322.782082
 21
195.70964
 31
0.0
  0
LINE
  5
1AD
100
AcDbEntity
  8
LAY-4
  6
CONTINUOUS
 62
     3
100
AcDbLine
 10
321.782082
 20
193.95964
 30
0.0
 11
321.782082
 21
194.70964
 31
0.0
  0
ARC
  5
1AE
100
AcDbEntity
  8
LAY-4
  6
CONTINUOUS
 62
     3
100
AcDbCircle
 10
322.782082
 20
194.70964
 30
0.0
 40
1.0
100
AcDbArc
 50
90.00002
 51
180.0
  0
LINE
  5
1AF
100
AcDbEntity
  8
LAY-4
  6
CONTINUOUS
 62
     3
100
AcDbLine
 10
323.532082
 20
196.70964
 30
0.0
 11
323.532082
 21
195.70964
 31
0.0
  0
LINE
  5
1B0
100
AcDbEntity
  8
LAY-4
  6
CONTINUOUS
 62
     3
100
AcDbLine
 10
321.782082
 20
198.45964
 30
0.0
 11
321.782082
 21
197.70964
 31
0.0
  0
LINE
  5
1B1
100
AcDbEntity
  8
LAY-4
  6
CONTINUOUS
 62
     3
100
AcDbLine
 10
323.532082
 20
196.70964
 30
0.0
 11
322.782082
 21
196.70964
 31
0.0
  0
ARC
  5
1B2
100
AcDbEntity
  8
LAY-4
  6
CONTINUOUS
 62
     3
100
AcDbCircle
 10
322.782082
 20
197.70964
 30
0.0
 40
1.0
100
AcDbArc
 50
180.0
 51
269.999982
  0
LINE
  5
1B3
100
AcDbEntity
  8
LAY-4
  6
CONTINUOUS
 62
     3
100
AcDbLine
 10
320.782082
 20
198.45964
 30
0.0
 11
321.782082
 21
198.45964
 31
0.0
  0
LINE
  5
1B4
100
AcDbEntity
  8
LAY-4
  6
CONTINUOUS
 62
     3
100
AcDbLine
 10
319.032082
 20
196.70964
 30
0.0
 11
319.782082
 21
196.70964
 31
0.0
  0
LINE
  5
1B5
100
AcDbEntity
  8
LAY-4
  6
CONTINUOUS
 62
     3
100
AcDbLine
 10
320.782082
 20
198.45964
 30
0.0
 11
320.782082
 21
197.70964
 31
0.0
  0
ARC
  5
1B6
100
AcDbEntity
  8
LAY-4
  6
CONTINUOUS
 62
     3
100
AcDbCircle
 10
319.782082
 20
197.70964
 30
0.0
 40
1.0
100
AcDbArc
 50
269.999982
 51
0.000021
  0
LINE
  5
1B7
100
AcDbEntity
  8
LAY-4
  6
CONTINUOUS
 62
     3
100
AcDbLine
 10
294.782067
 20
218.20964
 30
0.0
 11
294.782067
 21
246.20964
 31
0.0
  0
LINE
  5
1B8
100
AcDbEntity
  8
LAY-4
  6
CONTINUOUS
 62
     3
100
AcDbLine
 10
300.782067
 20
218.20964
 30
0.0
 11
300.782067
 21
246.20964
 31
0.0
  0
LINE
  5
1B9
100
AcDbEntity
  8
LAY-4
  6
CONTINUOUS
 62
     3
100
AcDbLine
 10
294.782067
 20
246.20964
 30
0.0
 11
300.782067
 21
246.20964
 31
0.0
  0
LINE
  5
1BA
100
AcDbEntity
  8
LAY-4
  6
CONTINUOUS
 62
     3
100
AcDbLine
 10
292.278144
 20
190.23259
 30
0.0
 11
294.782067
 21
218.20964
 31
0.0
  0
LINE
  5
1BB
100
AcDbEntity
  8
LAY-4
  6
CONTINUOUS
 62
     3
100
AcDbLine
 10
298.255301
 20
189.70964
 30
0.0
 11
300.804985
 21
218.20964
 31
0.0
  0
LINE
  5
1BC
100
AcDbEntity
  8
LAY-4
  6
CONTINUOUS
 62
     3
100
AcDbLine
 10
298.255317
 20
189.70964
 30
0.0
 11
311.020287
 21
181.421249
 31
0.0
  0
LINE
  5
1BD
100
AcDbEntity
  8
LAY-4
  6
CONTINUOUS
 62
     3
100
AcDbLine
 10
321.282082
 20
214.20964
 30
0.0
 11
300.45504
 21
214.20964
 31
0.0
  0
LINE
  5
1BE
100
AcDbEntity
  8
LAY-4
  6
CONTINUOUS
 62
     3
100
AcDbLine
 10
292.278144
 20
190.23259
 30
0.0
 11
298.255317
 21
189.70964
 31
0.0
  0
LINE
  5
1BF
100
AcDbEntity
  8
LAY-4
  6
CONTINUOUS
 62
     3
100
AcDbLine
 10
299.539063
 20
203.739975
 30
0.0
 11
293.56189
 21
204.262893
 31
0.0
  0
CIRCLE
  5
1C0
100
AcDbEntity
  8
LAY-4
  6
CONTINUOUS
 62
     3
100
AcDbCircle
 10
321.282082
 20
196.20964
 30
0.0
 40
5.0
  0
LINE
  5
1C1
100
AcDbEntity
  8
LAY-4
  6
CONTINUOUS
 62
     3
100
AcDbLine
 10
294.782067
 20
218.20964
 30
0.0
 11
300.782067
 21
218.20964
 31
0.0
  0
LINE
  5
1C2
100
AcDbEntity
  8
LAY-4
  6
DASHED2
 62
     3
100
AcDbLine
 10
303.882082
 20
238.20964
 30
0.0
 11
303.882082
 21
244.20964
 31
0.0
  0
LINE
  5
1C3
100
AcDbEntity
  8
LAY-4
  6
CONTINUOUS
 62
     3
100
AcDbLine
 10
287.282082
 20
238.20964
 30
0.0
 11
287.282082
 21
244.20964
 31
0.0
  0
LINE
  5
1C4
100
AcDbEntity
  8
LAY-4
  6
DASHED2
 62
     3
100
AcDbLine
 10
303.882082
 20
238.20964
 30
0.0
 11
294.782067
 21
238.20964
 31
0.0
  0
LINE
  5
1C5
100
AcDbEntity
  8
LAY-4
  6
CONTINUOUS
 62
     3
100
AcDbLine
 10
294.782067
 20
238.20964
 30
0.0
 11
287.282082
 21
238.20964
 31
0.0
  0
LINE
  5
1C6
100
AcDbEntity
  8
LAY-4
  6
DASHED2
 62
     1
100
AcDbLine
 10
303.882082
 20
238.70964
 30
0.0
 11
294.782067
 21
238.70964
 31
0.0
  0
LINE
  5
1C7
100
AcDbEntity
  8
LAY-4
  6
CONTINUOUS
 62
     1
100
AcDbLine
 10
294.782067
 20
238.70964
 30
0.0
 11
287.282082
 21
238.70964
 31
0.0
  0
LINE
  5
1C8
100
AcDbEntity
  8
LAY-4
  6
DASHED2
 62
     1
100
AcDbLine
 10
303.882082
 20
243.70964
 30
0.0
 11
294.782067
 21
243.70964
 31
0.0
  0
LINE
  5
1C9
100
AcDbEntity
  8
LAY-4
  6
CONTINUOUS
 62
     1
100
AcDbLine
 10
294.782067
 20
243.70964
 30
0.0
 11
287.282082
 21
243.70964
 31
0.0
  0
LINE
  5
1CA
100
AcDbEntity
  8
LAY-4
  6
DASHED2
 62
     3
100
AcDbLine
 10
303.882082
 20
244.20964
 30
0.0
 11
294.782067
 21
244.20964
 31
0.0
  0
LINE
  5
1CB
100
AcDbEntity
  8
LAY-4
  6
CONTINUOUS
 62
     3
100
AcDbLine
 10
294.782067
 20
244.20964
 30
0.0
 11
287.282082
 21
244.20964
 31
0.0
  0
LINE
  5
1CC
100
AcDbEntity
  8
LAY-4
  6
DASHED2
 62
     3
100
AcDbLine
 10
307.282082
 20
235.20964
 30
0.0
 11
306.882082
 21
235.20964
 31
0.0
  0
LINE
  5
1CD
100
AcDbEntity
  8
LAY-4
  6
DASHED2
 62
     3
100
AcDbLine
 10
306.882082
 20
235.20964
 30
0.0
 11
303.882082
 21
238.20964
 31
0.0
  0
LINE
  5
1CE
100
AcDbEntity
  8
LAY-4
  6
DASHED2
 62
     3
100
AcDbLine
 10
307.282082
 20
247.20964
 30
0.0
 11
306.882082
 21
247.20964
 31
0.0
  0
LINE
  5
1CF
100
AcDbEntity
  8
LAY-4
  6
DASHED2
 62
     3
100
AcDbLine
 10
306.882082
 20
247.20964
 30
0.0
 11
303.882082
 21
244.20964
 31
0.0
  0
LINE
  5
1D0
100
AcDbEntity
  8
LAY-4
  6
DASHED2
 62
     3
100
AcDbLine
 10
306.882082
 20
235.20964
 30
0.0
 11
306.882082
 21
247.20964
 31
0.0
  0
LINE
  5
1D1
100
AcDbEntity
  8
LAY-4
  6
CONTINUOUS
 62
     3
100
AcDbLine
 10
307.282082
 20
235.20964
 30
0.0
 11
307.282082
 21
247.20964
 31
0.0
  0
LINE
  5
1D2
100
AcDbEntity
  8
LAY-4
  6
DASHED2
 62
     3
100
AcDbLine
 10
307.282082
 20
222.20964
 30
0.0
 11
306.882082
 21
222.20964
 31
0.0
  0
LINE
  5
1D3
100
AcDbEntity
  8
LAY-4
  6
DASHED2
 62
     3
100
AcDbLine
 10
306.882082
 20
222.20964
 30
0.0
 11
303.882082
 21
225.20964
 31
0.0
  0
LINE
  5
1D4
100
AcDbEntity
  8
LAY-4
  6
DASHED2
 62
     3
100
AcDbLine
 10
303.882082
 20
225.20964
 30
0.0
 11
303.882082
 21
231.20964
 31
0.0
  0
LINE
  5
1D5
100
AcDbEntity
  8
LAY-4
  6
DASHED2
 62
     3
100
AcDbLine
 10
307.282082
 20
234.20964
 30
0.0
 11
306.882082
 21
234.20964
 31
0.0
  0
LINE
  5
1D6
100
AcDbEntity
  8
LAY-4
  6
DASHED2
 62
     3
100
AcDbLine
 10
306.882082
 20
234.20964
 30
0.0
 11
303.882082
 21
231.20964
 31
0.0
  0
LINE
  5
1D7
100
AcDbEntity
  8
LAY-4
  6
DASHED2
 62
     3
100
AcDbLine
 10
306.882082
 20
222.20964
 30
0.0
 11
306.882082
 21
234.20964
 31
0.0
  0
LINE
  5
1D8
100
AcDbEntity
  8
LAY-4
  6
CONTINUOUS
 62
     3
100
AcDbLine
 10
307.282082
 20
222.20964
 30
0.0
 11
307.282082
 21
234.20964
 31
0.0
  0
LINE
  5
1D9
100
AcDbEntity
  8
LAY-4
  6
CONTINUOUS
 62
     3
100
AcDbLine
 10
287.282082
 20
225.20964
 30
0.0
 11
287.282082
 21
231.20964
 31
0.0
  0
LINE
  5
1DA
100
AcDbEntity
  8
LAY-4
  6
DASHED2
 62
     3
100
AcDbLine
 10
303.882082
 20
225.20964
 30
0.0
 11
294.782067
 21
225.20964
 31
0.0
  0
LINE
  5
1DB
100
AcDbEntity
  8
LAY-4
  6
CONTINUOUS
 62
     3
100
AcDbLine
 10
294.782067
 20
225.20964
 30
0.0
 11
287.282082
 21
225.20964
 31
0.0
  0
LINE
  5
1DC
100
AcDbEntity
  8
LAY-4
  6
DASHED2
 62
     1
100
AcDbLine
 10
303.882082
 20
225.70964
 30
0.0
 11
294.782067
 21
225.70964
 31
0.0
  0
LINE
  5
1DD
100
AcDbEntity
  8
LAY-4
  6
CONTINUOUS
 62
     1
100
AcDbLine
 10
294.782067
 20
225.70964
 30
0.0
 11
287.282082
 21
225.70964
 31
0.0
  0
LINE
  5
1DE
100
AcDbEntity
  8
LAY-4
  6
DASHED2
 62
     1
100
AcDbLine
 10
303.882082
 20
230.70964
 30
0.0
 11
294.782067
 21
230.70964
 31
0.0
  0
LINE
  5
1DF
100
AcDbEntity
  8
LAY-4
  6
CONTINUOUS
 62
     1
100
AcDbLine
 10
294.782067
 20
230.70964
 30
0.0
 11
287.282082
 21
230.70964
 31
0.0
  0
LINE
  5
1E0
100
AcDbEntity
  8
LAY-4
  6
DASHED2
 62
     3
100
AcDbLine
 10
303.882082
 20
231.20964
 30
0.0
 11
294.782067
 21
231.20964
 31
0.0
  0
LINE
  5
1E1
100
AcDbEntity
  8
LAY-4
  6
CONTINUOUS
 62
     3
100
AcDbLine
 10
294.782067
 20
231.20964
 30
0.0
 11
287.282082
 21
231.20964
 31
0.0
  0
LINE
  5
1E2
100
AcDbEntity
  8
LAY-4
  6
DASHED2
 62
     3
100
AcDbLine
 10
672.153473
 20
209.298249
 30
0.0
 11
671.101564
 21
204.798249
 31
0.0
  0
LINE
  5
1E3
100
AcDbEntity
  8
LAY-4
  6
CONTINUOUS
 62
     3
100
AcDbLine
 10
661.212067
 20
194.298279
 30
0.0
 11
661.212067
 21
190.298249
 31
0.0
  0
LINE
  5
1E4
100
AcDbEntity
  8
LAY-4
  6
CONTINUOUS
 62
     3
100
AcDbLine
 10
686.212067
 20
194.298249
 30
0.0
 11
686.212067
 21
190.298249
 31
0.0
  0
LINE
  5
1E5
100
AcDbEntity
  8
LAY-4
  6
DASHED2
 62
     3
100
AcDbLine
 10
661.212067
 20
194.798249
 30
0.0
 11
686.212067
 21
194.798249
 31
0.0
  0
LINE
  5
1E6
100
AcDbEntity
  8
LAY-4
  6
DASHED2
 62
     3
100
AcDbLine
 10
667.712067
 20
194.798249
 30
0.0
 11
667.712067
 21
201.798249
 31
0.0
  0
LINE
  5
1E7
100
AcDbEntity
  8
LAY-4
  6
DASHED2
 62
     3
100
AcDbLine
 10
679.712067
 20
194.798249
 30
0.0
 11
679.712067
 21
201.798249
 31
0.0
  0
LINE
  5
1E8
100
AcDbEntity
  8
LAY-4
  6
DASHED2
 62
     3
100
AcDbLine
 10
667.712067
 20
201.798249
 30
0.0
 11
679.712067
 21
201.798249
 31
0.0
  0
LINE
  5
1E9
100
AcDbEntity
  8
LAY-4
  6
DASHED2
 62
     3
100
AcDbLine
 10
668.712067
 20
204.798249
 30
0.0
 11
678.712067
 21
204.798249
 31
0.0
  0
LINE
  5
1EA
100
AcDbEntity
  8
LAY-4
  6
DASHED2
 62
     3
100
AcDbLine
 10
668.712067
 20
204.798249
 30
0.0
 11
667.712067
 21
201.798249
 31
0.0
  0
LINE
  5
1EB
100
AcDbEntity
  8
LAY-4
  6
DASHED2
 62
     3
100
AcDbLine
 10
678.712067
 20
204.798249
 30
0.0
 11
679.712067
 21
201.798249
 31
0.0
  0
LINE
  5
1EC
100
AcDbEntity
  8
LAY-4
  6
DASHED
 62
     3
100
AcDbLine
 10
661.212067
 20
194.298279
 30
0.0
 11
661.212067
 21
194.798249
 31
0.0
  0
LINE
  5
1ED
100
AcDbEntity
  8
LAY-4
  6
DASHED
 62
     3
100
AcDbLine
 10
686.212067
 20
194.298249
 30
0.0
 11
686.212067
 21
194.798249
 31
0.0
  0
LINE
  5
1EE
100
AcDbEntity
  8
LAY-4
  6
DASHED2
 62
     3
100
AcDbLine
 10
670.712067
 20
184.298249
 30
0.0
 11
670.712067
 21
208.498261
 31
0.0
  0
LINE
  5
1EF
100
AcDbEntity
  8
LAY-4
  6
DASHED2
 62
     1
100
AcDbLine
 10
671.212067
 20
184.298249
 30
0.0
 11
671.212067
 21
208.498261
 31
0.0
  0
LINE
  5
1F0
100
AcDbEntity
  8
LAY-4
  6
DASHED2
 62
     1
100
AcDbLine
 10
676.212067
 20
184.298249
 30
0.0
 11
676.212067
 21
208.498261
 31
0.0
  0
LINE
  5
1F1
100
AcDbEntity
  8
LAY-4
  6
DASHED2
 62
     3
100
AcDbLine
 10
676.712067
 20
184.298249
 30
0.0
 11
676.712067
 21
208.498261
 31
0.0
  0
LINE
  5
1F2
100
AcDbEntity
  8
LAY-4
  6
CONTINUOUS
 62
     3
100
AcDbLine
 10
655.712067
 20
184.298249
 30
0.0
 11
691.712007
 21
184.298249
 31
0.0
  0
LINE
  5
1F3
100
AcDbEntity
  8
LAY-4
  6
CONTINUOUS
 62
     3
100
AcDbLine
 10
691.712036
 20
190.298249
 30
0.0
 11
655.712067
 21
190.298249
 31
0.0
  0
LINE
  5
1F4
100
AcDbEntity
  8
LAY-4
  6
CONTINUOUS
 62
     3
100
AcDbLine
 10
655.712067
 20
190.298249
 30
0.0
 11
655.712067
 21
184.298249
 31
0.0
  0
LINE
  5
1F5
100
AcDbEntity
  8
LAY-4
  6
CONTINUOUS
 62
     3
100
AcDbLine
 10
691.712036
 20
193.298249
 30
0.0
 11
691.712067
 21
184.298249
 31
0.0
  0
ARC
  5
1F6
100
AcDbEntity
  8
LAY-4
  6
CONTINUOUS
 62
     3
100
AcDbCircle
 10
692.712036
 20
193.298249
 30
0.0
 40
1.0
100
AcDbArc
 50
90.00002
 51
180.000058
  0
LINE
  5
1F7
100
AcDbEntity
  8
LAY-4
  6
DASHED2
 62
     3
100
AcDbLine
 10
723.712067
 20
239.298249
 30
0.0
 11
723.712067
 21
206.298196
 31
0.0
  0
LINE
  5
1F8
100
AcDbEntity
  8
LAY-4
  6
DASHED2
 62
     3
100
AcDbLine
 10
695.712067
 20
244.298249
 30
0.0
 11
718.712067
 21
244.298249
 31
0.0
  0
ARC
  5
1F9
100
AcDbEntity
  8
LAY-4
  6
DASHED2
 62
     3
100
AcDbCircle
 10
718.712067
 20
239.298249
 30
0.0
 40
5.0
100
AcDbArc
 50
359.999981
 51
90.00002
  0
LINE
  5
1FA
100
AcDbEntity
  8
LAY-4
  6
CONTINUOUS
 62
     3
100
AcDbLine
 10
672.153504
 20
209.298279
 30
0.0
 11
680.420567
 21
244.663987
 31
0.0
  0
LINE
  5
1FB
100
AcDbEntity
  8
LAY-4
  6
CONTINUOUS
 62
     3
100
AcDbLine
 10
686.263063
 20
249.298249
 30
0.0
 11
695.712067
 21
249.298249
 31
0.0
  0
LINE
  5
1FC
100
AcDbEntity
  8
LAY-4
  6
CONTINUOUS
 62
     3
100
AcDbLine
 10
695.712007
 20
249.298249
 30
0.0
 11
695.712007
 21
244.298249
 31
0.0
  0
ARC
  5
1FD
100
AcDbEntity
  8
LAY-4
  6
CONTINUOUS
 62
     3
100
AcDbCircle
 10
686.263063
 20
243.298249
 30
0.0
 40
6.0
100
AcDbArc
 50
90.0
 51
166.842835
  0
LINE
  5
1FE
100
AcDbEntity
  8
LAY-4
  6
CONTINUOUS
 62
     3
100
AcDbLine
 10
695.712067
 20
244.298249
 30
0.0
 11
695.712067
 21
249.298249
 31
0.0
  0
CIRCLE
  5
1FF
100
AcDbEntity
  8
LAY-4
  6
DASHED2
 62
     1
100
AcDbCircle
 10
705.712007
 20
234.298249
 30
0.0
 40
3.0
  0
CIRCLE
  5
200
100
AcDbEntity
  8
LAY-4
  6
DASHED2
 62
     3
100
AcDbCircle
 10
705.712007
 20
234.298249
 30
0.0
 40
2.5
  0
CIRCLE
  5
201
100
AcDbEntity
  8
LAY-4
  6
DASHED2
 62
     1
100
AcDbCircle
 10
718.712007
 20
234.298249
 30
0.0
 40
3.0
  0
CIRCLE
  5
202
100
AcDbEntity
  8
LAY-4
  6
DASHED2
 62
     3
100
AcDbCircle
 10
718.712007
 20
234.298249
 30
0.0
 40
2.5
  0
CIRCLE
  5
203
100
AcDbEntity
  8
LAY-4
  6
DASHED2
 62
     1
100
AcDbCircle
 10
705.712007
 20
204.298249
 30
0.0
 40
3.0
  0
CIRCLE
  5
204
100
AcDbEntity
  8
LAY-4
  6
DASHED2
 62
     3
100
AcDbCircle
 10
705.712007
 20
204.298249
 30
0.0
 40
2.5
  0
CIRCLE
  5
205
100
AcDbEntity
  8
LAY-4
  6
DASHED2
 62
     1
100
AcDbCircle
 10
718.712007
 20
204.298249
 30
0.0
 40
3.0
  0
CIRCLE
  5
206
100
AcDbEntity
  8
LAY-4
  6
DASHED2
 62
     3
100
AcDbCircle
 10
718.712007
 20
204.298249
 30
0.0
 40
2.5
  0
LINE
  5
207
100
AcDbEntity
  8
LAY-4
  6
CONTINUOUS
 62
     3
100
AcDbLine
 10
465.912067
 20
184.298249
 30
0.0
 11
501.912006
 21
184.298249
 31
0.0
  0
LINE
  5
208
100
AcDbEntity
  8
LAY-4
  6
CONTINUOUS
 62
     3
100
AcDbLine
 10
501.912036
 20
190.298249
 30
0.0
 11
465.912067
 21
190.298249
 31
0.0
  0
LINE
  5
209
100
AcDbEntity
  8
LAY-4
  6
CONTINUOUS
 62
     3
100
AcDbLine
 10
465.912067
 20
190.298249
 30
0.0
 11
465.912067
 21
184.298249
 31
0.0
  0
LINE
  5
20A
100
AcDbEntity
  8
LAY-4
  6
CONTINUOUS
 62
     3
100
AcDbLine
 10
482.353504
 20
209.298279
 30
0.0
 11
490.620567
 21
244.663987
 31
0.0
  0
LINE
  5
20B
100
AcDbEntity
  8
LAY-4
  6
CONTINUOUS
 62
     3
100
AcDbLine
 10
496.463063
 20
249.298249
 30
0.0
 11
505.912067
 21
249.298249
 31
0.0
  0
LINE
  5
20C
100
AcDbEntity
  8
LAY-4
  6
CONTINUOUS
 62
     3
100
AcDbLine
 10
505.912006
 20
249.298249
 30
0.0
 11
505.912006
 21
244.298249
 31
0.0
  0
ARC
  5
20D
100
AcDbEntity
  8
LAY-4
  6
CONTINUOUS
 62
     3
100
AcDbCircle
 10
496.463063
 20
243.298249
 30
0.0
 40
6.0
100
AcDbArc
 50
90.0
 51
166.842835
  0
LINE
  5
20E
100
AcDbEntity
  8
LAY-4
  6
CONTINUOUS
 62
     3
100
AcDbLine
 10
505.912067
 20
244.298249
 30
0.0
 11
505.912067
 21
249.298249
 31
0.0
  0
LINE
  5
20F
100
AcDbEntity
  8
LAY-4
  6
CONTINUOUS
 62
     3
100
AcDbLine
 10
528.912067
 20
194.298249
 30
0.0
 11
502.912036
 21
194.298249
 31
0.0
  0
LINE
  5
210
100
AcDbEntity
  8
LAY-4
  6
CONTINUOUS
 62
     3
100
AcDbLine
 10
505.912067
 20
244.298249
 30
0.0
 11
528.912067
 21
244.298249
 31
0.0
  0
ARC
  5
211
100
AcDbEntity
  8
LAY-4
  6
CONTINUOUS
 62
     3
100
AcDbCircle
 10
528.912067
 20
239.298249
 30
0.0
 40
5.0
100
AcDbArc
 50
359.999981
 51
90.00002
  0
CIRCLE
  5
212
100
AcDbEntity
  8
LAY-4
  6
CONTINUOUS
 62
     1
100
AcDbCircle
 10
515.912006
 20
234.298249
 30
0.0
 40
3.0
  0
CIRCLE
  5
213
100
AcDbEntity
  8
LAY-4
  6
CONTINUOUS
 62
     3
100
AcDbCircle
 10
515.912006
 20
234.298249
 30
0.0
 40
2.5
  0
CIRCLE
  5
214
100
AcDbEntity
  8
LAY-4
  6
CONTINUOUS
 62
     1
100
AcDbCircle
 10
528.912006
 20
234.298249
 30
0.0
 40
3.0
  0
CIRCLE
  5
215
100
AcDbEntity
  8
LAY-4
  6
CONTINUOUS
 62
     3
100
AcDbCircle
 10
528.912006
 20
234.298249
 30
0.0
 40
2.5
  0
CIRCLE
  5
216
100
AcDbEntity
  8
LAY-4
  6
CONTINUOUS
 62
     1
100
AcDbCircle
 10
515.912006
 20
204.298249
 30
0.0
 40
3.0
  0
CIRCLE
  5
217
100
AcDbEntity
  8
LAY-4
  6
CONTINUOUS
 62
     3
100
AcDbCircle
 10
515.912006
 20
204.298249
 30
0.0
 40
2.5
  0
CIRCLE
  5
218
100
AcDbEntity
  8
LAY-4
  6
CONTINUOUS
 62
     1
100
AcDbCircle
 10
528.912006
 20
204.298249
 30
0.0
 40
3.0
  0
CIRCLE
  5
219
100
AcDbEntity
  8
LAY-4
  6
CONTINUOUS
 62
     3
100
AcDbCircle
 10
528.912006
 20
204.298249
 30
0.0
 40
2.5
  0
ARC
  5
21A
100
AcDbEntity
  8
LAY-4
  6
CONTINUOUS
 62
     3
100
AcDbCircle
 10
528.912067
 20
199.298249
 30
0.0
 40
5.0
100
AcDbArc
 50
270.0
 51
0.0
  0
LINE
  5
21B
100
AcDbEntity
  8
LAY-4
  6
CONTINUOUS
 62
     3
100
AcDbLine
 10
533.912067
 20
239.298249
 30
0.0
 11
533.912067
 21
199.298249
 31
0.0
  0
LINE
  5
21C
100
AcDbEntity
  8
LAY-4
  6
CONTINUOUS
 62
     3
100
AcDbLine
 10
505.912067
 20
241.2
 30
0.0
 11
505.912067
 21
196.1
 31
0.0
  0
LINE
  5
21D
100
AcDbEntity
  8
LAY-4
  6
CONTINUOUS
 62
     3
100
AcDbLine
 10
482.353473
 20
209.298249
 30
0.0
 11
481.301563
 21
204.798249
 31
0.0
  0
LINE
  5
21E
100
AcDbEntity
  8
LAY-4
  6
CONTINUOUS
 62
     3
100
AcDbLine
 10
471.412067
 20
194.298279
 30
0.0
 11
471.412067
 21
190.298249
 31
0.0
  0
LINE
  5
21F
100
AcDbEntity
  8
LAY-4
  6
CONTINUOUS
 62
     3
100
AcDbLine
 10
496.412067
 20
194.298249
 30
0.0
 11
496.412067
 21
190.298249
 31
0.0
  0
LINE
  5
220
100
AcDbEntity
  8
LAY-4
  6
CONTINUOUS
 62
     3
100
AcDbLine
 10
471.412067
 20
194.798249
 30
0.0
 11
496.412067
 21
194.798249
 31
0.0
  0
LINE
  5
221
100
AcDbEntity
  8
LAY-4
  6
CONTINUOUS
 62
     3
100
AcDbLine
 10
477.912067
 20
194.798249
 30
0.0
 11
477.912067
 21
201.798249
 31
0.0
  0
LINE
  5
222
100
AcDbEntity
  8
LAY-4
  6
CONTINUOUS
 62
     3
100
AcDbLine
 10
489.912067
 20
194.798249
 30
0.0
 11
489.912067
 21
201.798249
 31
0.0
  0
LINE
  5
223
100
AcDbEntity
  8
LAY-4
  6
CONTINUOUS
 62
     3
100
AcDbLine
 10
477.912067
 20
201.798249
 30
0.0
 11
489.912067
 21
201.798249
 31
0.0
  0
LINE
  5
224
100
AcDbEntity
  8
LAY-4
  6
CONTINUOUS
 62
     3
100
AcDbLine
 10
478.912067
 20
204.798249
 30
0.0
 11
488.912067
 21
204.798249
 31
0.0
  0
LINE
  5
225
100
AcDbEntity
  8
LAY-4
  6
CONTINUOUS
 62
     3
100
AcDbLine
 10
478.912067
 20
204.798249
 30
0.0
 11
477.912067
 21
201.798249
 31
0.0
  0
LINE
  5
226
100
AcDbEntity
  8
LAY-4
  6
CONTINUOUS
 62
     3
100
AcDbLine
 10
488.912067
 20
204.798249
 30
0.0
 11
489.912067
 21
201.798249
 31
0.0
  0
LINE
  5
227
100
AcDbEntity
  8
LAY-4
  6
CONTINUOUS
 62
     3
100
AcDbLine
 10
471.412067
 20
194.298279
 30
0.0
 11
471.412067
 21
194.798249
 31
0.0
  0
LINE
  5
228
100
AcDbEntity
  8
LAY-4
  6
CONTINUOUS
 62
     3
100
AcDbLine
 10
496.412067
 20
194.298249
 30
0.0
 11
496.412067
 21
194.798249
 31
0.0
  0
LINE
  5
229
100
AcDbEntity
  8
LAY-4
  6
CONTINUOUS
 62
     3
100
AcDbLine
 10
501.912036
 20
193.298249
 30
0.0
 11
501.912067
 21
184.298249
 31
0.0
  0
ARC
  5
22A
100
AcDbEntity
  8
LAY-4
  6
CONTINUOUS
 62
     3
100
AcDbCircle
 10
502.912036
 20
193.298249
 30
0.0
 40
1.0
100
AcDbArc
 50
90.00002
 51
180.000058
  0
LINE
  5
22B
100
AcDbEntity
  8
LAY-4
  6
CONTINUOUS
 62
     3
100
AcDbLine
 10
480.912067
 20
209.298249
 30
0.0
 11
486.912067
 21
209.298249
 31
0.0
  0
LINE
  5
22C
100
AcDbEntity
  8
LAY-4
  6
CONTINUOUS
 62
     3
100
AcDbLine
 10
486.912067
 20
204.798249
 30
0.0
 11
486.912067
 21
209.298249
 31
0.0
  0
LINE
  5
22D
100
AcDbEntity
  8
LAY-4
  6
CONTINUOUS
 62
     3
100
AcDbLine
 10
480.912067
 20
204.798249
 30
0.0
 11
480.912067
 21
209.298249
 31
0.0
  0
LINE
  5
22E
100
AcDbEntity
  8
LAY-4
  6
CONTINUOUS
 62
     1
100
AcDbLine
 10
481.412067
 20
204.798249
 30
0.0
 11
481.412067
 21
209.298249
 31
0.0
  0
LINE
  5
22F
100
AcDbEntity
  8
LAY-4
  6
CONTINUOUS
 62
     1
100
AcDbLine
 10
486.412067
 20
204.798249
 30
0.0
 11
486.412067
 21
209.298249
 31
0.0
  0
LINE
  5
230
100
AcDbEntity
  8
LAY-4
  6
DASHED2
 62
     3
100
AcDbLine
 10
486.912067
 20
184.298249
 30
0.0
 11
486.912067
 21
204.798249
 31
0.0
  0
LINE
  5
231
100
AcDbEntity
  8
LAY-4
  6
DASHED2
 62
     1
100
AcDbLine
 10
486.412067
 20
184.298249
 30
0.0
 11
486.412067
 21
204.798249
 31
0.0
  0
LINE
  5
232
100
AcDbEntity
  8
LAY-4
  6
DASHED2
 62
     1
100
AcDbLine
 10
481.412067
 20
184.298249
 30
0.0
 11
481.412067
 21
204.798249
 31
0.0
  0
LINE
  5
233
100
AcDbEntity
  8
LAY-4
  6
DASHED2
 62
     3
100
AcDbLine
 10
480.912067
 20
184.298249
 30
0.0
 11
480.912067
 21
204.798249
 31
0.0
  0
LINE
  5
234
100
AcDbEntity
  8
LAY-5
  6
DASHDOT
 62
     1
100
AcDbLine
 10
346.310669
 20
364.946389
 30
0.0
 11
299.528321
 21
364.946389
 31
0.0
  0
LINE
  5
235
100
AcDbEntity
  8
LAY-5
  6
DASHDOT
 62
     1
100
AcDbLine
 10
329.28207
 20
411.899989
 30
0.0
 11
329.282074
 21
394.946358
 31
0.0
  0
LINE
  5
236
100
AcDbEntity
  8
LAY-5
  6
DASHDOT
 62
     1
100
AcDbLine
 10
321.282074
 20
402.946358
 30
0.0
 11
337.496979
 21
402.946358
 31
0.0
  0
LINE
  5
237
100
AcDbEntity
  8
LAY-5
  6
DASHDOT
 62
     1
100
AcDbLine
 10
379.282044
 20
411.9
 30
0.0
 11
379.282044
 21
394.946358
 31
0.0
  0
LINE
  5
238
100
AcDbEntity
  8
LAY-5
  6
DASHDOT
 62
     1
100
AcDbLine
 10
388.2
 20
402.946358
 30
0.0
 11
371.282044
 21
402.946358
 31
0.0
  0
LINE
  5
239
100
AcDbEntity
  8
LAY-5
  6
DASHDOT
 62
     1
100
AcDbLine
 10
349.282044
 20
425.699981
 30
0.0
 11
349.282051
 21
408.946358
 31
0.0
  0
LINE
  5
23A
100
AcDbEntity
  8
LAY-5
  6
DASHDOT
 62
     1
100
AcDbLine
 10
341.282051
 20
416.946358
 30
0.0
 11
357.496949
 21
416.946358
 31
0.0
  0
LINE
  5
23B
100
AcDbEntity
  8
LAY-5
  6
DASHDOT
 62
     1
100
AcDbLine
 10
399.282059
 20
425.7
 30
0.0
 11
399.282059
 21
408.946389
 31
0.0
  0
LINE
  5
23C
100
AcDbEntity
  8
LAY-5
  6
DASHDOT
 62
     1
100
AcDbLine
 10
407.1
 20
416.946389
 30
0.0
 11
391.282059
 21
416.946389
 31
0.0
  0
LINE
  5
23D
100
AcDbEntity
  8
LAY-5
  6
DASHDOT
 62
     1
100
AcDbLine
 10
321.282056
 20
410.199999
 30
0.0
 11
321.282074
 21
342.946419
 31
0.0
  0
LINE
  5
23E
100
AcDbEntity
  8
LAY-5
  6
DASHDOT
 62
     1
100
AcDbLine
 10
321.28209
 20
175.764328
 30
0.0
 11
321.282074
 21
216.78212
 31
0.0
  0
LINE
  5
23F
100
AcDbEntity
  8
LAY-5
  6
DASHDOT
 62
     1
100
AcDbLine
 10
288.498696
 20
196.20964
 30
0.0
 11
341.640557
 21
196.20964
 31
0.0
  0
LINE
  5
240
100
AcDbEntity
  8
LAY-5
  6
DASHDOT
 62
     1
100
AcDbLine
 10
284.680331
 20
241.20964
 30
0.0
 11
309.114907
 21
241.20964
 31
0.0
  0
LINE
  5
241
100
AcDbEntity
  8
LAY-5
  6
DASHDOT
 62
     1
100
AcDbLine
 10
82.282059
 20
413.209725
 30
0.0
 11
82.282074
 21
342.946411
 31
0.0
  0
LINE
  5
242
100
AcDbEntity
  8
LAY-5
  6
DASHDOT
 62
     1
100
AcDbLine
 10
107.310662
 20
196.209656
 30
0.0
 11
60.528351
 21
196.209656
 31
0.0
  0
LINE
  5
243
100
AcDbEntity
  8
LAY-5
  6
DASHDOT
 62
     1
100
AcDbLine
 10
67.506516
 20
204.740265
 30
0.0
 11
78.513665
 21
198.385346
 31
0.0
  0
LINE
  5
244
100
AcDbEntity
  8
LAY-5
  6
DASHDOT
 62
     1
100
AcDbLine
 10
82.282085
 20
239.4
 30
0.0
 11
82.282097
 21
174.209687
 31
0.0
  0
LINE
  5
245
100
AcDbEntity
  8
LAY-5
  6
DASHDOT
 62
     1
100
AcDbLine
 10
99.260842
 20
234.209626
 30
0.0
 11
82.36039
 21
234.209626
 31
0.0
  0
LINE
  5
246
100
AcDbEntity
  8
LAY-5
  6
DASHDOT
 62
     1
100
AcDbLine
 10
90.28209
 20
242.5
 30
0.0
 11
90.28209
 21
226.209626
 31
0.0
  0
LINE
  5
247
100
AcDbEntity
  8
LAY-5
  6
DASHDOT
 62
     1
100
AcDbLine
 10
119.260849
 20
248.209656
 30
0.0
 11
102.360405
 21
248.209656
 31
0.0
  0
LINE
  5
248
100
AcDbEntity
  8
LAY-5
  6
DASHDOT
 62
     1
100
AcDbLine
 10
110.282105
 20
255.4
 30
0.0
 11
110.282105
 21
241.114685
 31
0.0
  0
LINE
  5
249
100
AcDbEntity
  8
LAY-5
  6
DASHDOT
 62
     1
100
AcDbLine
 10
167.599997
 20
248.209608
 30
0.0
 11
151.6736
 21
248.209595
 31
0.0
  0
LINE
  5
24A
100
AcDbEntity
  8
LAY-5
  6
DASHDOT
 62
     1
100
AcDbLine
 10
160.28209
 20
255.4
 30
0.0
 11
160.28209
 21
241.11464
 31
0.0
  0
LINE
  5
24B
100
AcDbEntity
  8
LAY-5
  6
DASHDOT
 62
     1
100
AcDbLine
 10
140.282059
 20
242.5
 30
0.0
 11
140.282059
 21
226.209565
 31
0.0
  0
LINE
  5
24C
100
AcDbEntity
  8
LAY-5
  6
DASHDOT
 62
     1
100
AcDbLine
 10
148.200001
 20
234.209571
 30
0.0
 11
131.673569
 21
234.209565
 31
0.0
  0
LINE
  5
24D
100
AcDbEntity
  8
LAY-5
  6
DASHDOT
 62
     1
100
AcDbLine
 10
90.282059
 20
399.29
 30
0.0
 11
90.282064
 21
406.590001
 31
0.0
  0
LINE
  5
24E
100
AcDbEntity
  8
LAY-5
  6
DASHDOT
 62
     1
100
AcDbLine
 10
86.41
 20
402.946385
 30
0.0
 11
94.19
 21
402.946385
 31
0.0
  0
LINE
  5
24F
100
AcDbEntity
  8
LAY-5
  6
DASHDOT
 62
     1
100
AcDbLine
 10
110.282059
 20
413.29
 30
0.0
 11
110.282064
 21
420.590001
 31
0.0
  0
LINE
  5
250
100
AcDbEntity
  8
LAY-5
  6
DASHDOT
 62
     1
100
AcDbLine
 10
106.41
 20
416.946385
 30
0.0
 11
114.19
 21
416.946385
 31
0.0
  0
LINE
  5
251
100
AcDbEntity
  8
LAY-5
  6
DASHDOT
 62
     1
100
AcDbLine
 10
140.282059
 20
399.29
 30
0.0
 11
140.282064
 21
406.590001
 31
0.0
  0
LINE
  5
252
100
AcDbEntity
  8
LAY-5
  6
DASHDOT
 62
     1
100
AcDbLine
 10
136.41
 20
402.946385
 30
0.0
 11
144.19
 21
402.946385
 31
0.0
  0
LINE
  5
253
100
AcDbEntity
  8
LAY-5
  6
DASHDOT
 62
     1
100
AcDbLine
 10
160.282059
 20
413.29
 30
0.0
 11
160.282064
 21
420.590001
 31
0.0
  0
LINE
  5
254
100
AcDbEntity
  8
LAY-5
  6
DASHDOT
 62
     1
100
AcDbLine
 10
156.41
 20
416.946385
 30
0.0
 11
164.19
 21
416.946385
 31
0.0
  0
LINE
  5
255
100
AcDbEntity
  8
LAY-5
  6
DASHDOT
 62
     1
100
AcDbLine
 10
284.680331
 20
228.20964
 30
0.0
 11
309.114907
 21
228.20964
 31
0.0
  0
LINE
  5
256
100
AcDbEntity
  8
LAY-5
  6
DASHDOT
 62
     1
100
AcDbLine
 10
114.38864
 20
364.94639
 30
0.0
 11
60.528328
 21
364.946381
 31
0.0
  0
LINE
  5
257
100
AcDbEntity
  8
LAY-5
  6
DASHDOT
 62
     1
100
AcDbLine
 10
673.712036
 20
354.67302
 30
0.0
 11
673.712036
 21
393.083298
 31
0.0
  0
LINE
  5
258
100
AcDbEntity
  8
LAY-5
  6
DASHDOT
 62
     1
100
AcDbLine
 10
711.712067
 20
349.83046
 30
0.0
 11
711.712067
 21
373.07
 31
0.0
  0
LINE
  5
259
100
AcDbEntity
  8
LAY-5
  6
DASHDOT
 62
     1
100
AcDbLine
 10
725.712067
 20
349.83046
 30
0.0
 11
725.712067
 21
373.07
 31
0.0
  0
LINE
  5
25A
100
AcDbEntity
  8
LAY-5
  6
DASHDOT
 62
     1
100
AcDbLine
 10
673.712067
 20
217.071137
 30
0.0
 11
673.712067
 21
180.78656
 31
0.0
  0
LINE
  5
25B
100
AcDbEntity
  8
LAY-5
  6
DASHDOT
 62
     1
100
AcDbLine
 10
711.712036
 20
216.9
 30
0.0
 11
711.712036
 21
192.465424
 31
0.0
  0
LINE
  5
25C
100
AcDbEntity
  8
LAY-5
  6
DASHDOT
 62
     1
100
AcDbLine
 10
725.712036
 20
216.9
 30
0.0
 11
725.712036
 21
192.465424
 31
0.0
  0
LINE
  5
25D
100
AcDbEntity
  8
LAY-5
  6
DASHDOT
 62
     1
100
AcDbLine
 10
725.712067
 20
397.465348
 30
0.0
 11
725.712067
 21
374.28
 31
0.0
  0
LINE
  5
25E
100
AcDbEntity
  8
LAY-5
  6
DASHDOT
 62
     1
100
AcDbLine
 10
711.712067
 20
397.465348
 30
0.0
 11
711.712067
 21
374.28
 31
0.0
  0
LINE
  5
25F
100
AcDbEntity
  8
LAY-5
  6
DASHDOT
 62
     1
100
AcDbLine
 10
705.712007
 20
238.13
 30
0.0
 11
705.712007
 21
230.3
 31
0.0
  0
LINE
  5
260
100
AcDbEntity
  8
LAY-5
  6
DASHDOT
 62
     1
100
AcDbLine
 10
718.712007
 20
238.13
 30
0.0
 11
718.712007
 21
230.3
 31
0.0
  0
LINE
  5
261
100
AcDbEntity
  8
LAY-5
  6
DASHDOT
 62
     1
100
AcDbLine
 10
701.816019
 20
234.298249
 30
0.0
 11
709.556019
 21
234.298249
 31
0.0
  0
LINE
  5
262
100
AcDbEntity
  8
LAY-5
  6
DASHDOT
 62
     1
100
AcDbLine
 10
714.846019
 20
234.298249
 30
0.0
 11
722.766019
 21
234.298249
 31
0.0
  0
LINE
  5
263
100
AcDbEntity
  8
LAY-5
  6
DASHDOT
 62
     1
100
AcDbLine
 10
705.712007
 20
208.13
 30
0.0
 11
705.712007
 21
200.3
 31
0.0
  0
LINE
  5
264
100
AcDbEntity
  8
LAY-5
  6
DASHDOT
 62
     1
100
AcDbLine
 10
718.712007
 20
208.13
 30
0.0
 11
718.712007
 21
200.3
 31
0.0
  0
LINE
  5
265
100
AcDbEntity
  8
LAY-5
  6
DASHDOT
 62
     1
100
AcDbLine
 10
701.816019
 20
204.298249
 30
0.0
 11
709.556019
 21
204.298249
 31
0.0
  0
LINE
  5
266
100
AcDbEntity
  8
LAY-5
  6
DASHDOT
 62
     1
100
AcDbLine
 10
714.846019
 20
204.298249
 30
0.0
 11
722.766019
 21
204.298249
 31
0.0
  0
LINE
  5
267
100
AcDbEntity
  8
LAY-5
  6
DASHDOT
 62
     1
100
AcDbLine
 10
515.912006
 20
238.13
 30
0.0
 11
515.912006
 21
230.3
 31
0.0
  0
LINE
  5
268
100
AcDbEntity
  8
LAY-5
  6
DASHDOT
 62
     1
100
AcDbLine
 10
528.912006
 20
238.13
 30
0.0
 11
528.912006
 21
230.3
 31
0.0
  0
LINE
  5
269
100
AcDbEntity
  8
LAY-5
  6
DASHDOT
 62
     1
100
AcDbLine
 10
512.016018
 20
234.298249
 30
0.0
 11
519.756018
 21
234.298249
 31
0.0
  0
LINE
  5
26A
100
AcDbEntity
  8
LAY-5
  6
DASHDOT
 62
     1
100
AcDbLine
 10
525.046018
 20
234.298249
 30
0.0
 11
532.966019
 21
234.298249
 31
0.0
  0
LINE
  5
26B
100
AcDbEntity
  8
LAY-5
  6
DASHDOT
 62
     1
100
AcDbLine
 10
515.912006
 20
208.13
 30
0.0
 11
515.912006
 21
200.3
 31
0.0
  0
LINE
  5
26C
100
AcDbEntity
  8
LAY-5
  6
DASHDOT
 62
     1
100
AcDbLine
 10
528.912006
 20
208.13
 30
0.0
 11
528.912006
 21
200.3
 31
0.0
  0
LINE
  5
26D
100
AcDbEntity
  8
LAY-5
  6
DASHDOT
 62
     1
100
AcDbLine
 10
512.016018
 20
204.298249
 30
0.0
 11
519.756018
 21
204.298249
 31
0.0
  0
LINE
  5
26E
100
AcDbEntity
  8
LAY-5
  6
DASHDOT
 62
     1
100
AcDbLine
 10
525.046018
 20
204.298249
 30
0.0
 11
532.966019
 21
204.298249
 31
0.0
  0
LINE
  5
26F
100
AcDbEntity
  8
LAY-5
  6
DASHDOT
 62
     1
100
AcDbLine
 10
483.912067
 20
225.8
 30
0.0
 11
483.912067
 21
180.78656
 31
0.0
  0
TEXT
  5
270
100
AcDbEntity
  8
LAY-6
  6
CONTINUOUS
 62
     2
100
AcDbText
 10
55.541686
 20
350.079341
 30
0.0
 40
5.0
  1
Ｒ
 50
30.0
 41
0.672
  7
EXCADSTD
 72
     5
 11
58.312967
 21
351.679341
 31
0.0
100
AcDbText
  0
TEXT
  5
271
100
AcDbEntity
  8
LAY-6
  6
CONTINUOUS
 62
     2
100
AcDbText
 10
59.005788
 20
352.079341
 30
0.0
 40
5.0
  1
１８
 50
30.0
 41
0.672
  7
EXCADSTD
 72
     5
 11
65.356179
 21
355.745741
 31
0.0
100
AcDbText
  0
LINE
  5
272
100
AcDbEntity
  8
LAY-6
  6
CONTINUOUS
 62
     1
100
AcDbLine
 10
66.69361
 20
355.946328
 30
0.0
 11
82.282067
 21
364.946328
 31
0.0
  0
LINE
  5
273
100
AcDbEntity
  8
LAY-6
  6
CONTINUOUS
 62
     1
100
AcDbLine
 10
69.041686
 20
357.879341
 30
0.0
 11
66.69361
 21
355.946328
 31
0.0
  0
LINE
  5
274
100
AcDbEntity
  8
LAY-6
  6
CONTINUOUS
 62
     1
100
AcDbLine
 10
66.69361
 20
355.946328
 30
0.0
 11
69.541686
 21
357.013315
 31
0.0
  0
TEXT
  5
275
100
AcDbEntity
  8
LAY-6
  6
CONTINUOUS
 62
     2
100
AcDbText
 10
108.359374
 20
375.897164
 30
0.0
 40
5.0
  1
７０
 50
305.000036
 41
0.672
  7
EXCADSTD
 72
     5
 11
112.565299
 21
369.890489
 31
0.0
100
AcDbText
  0
TEXT
  5
276
100
AcDbEntity
  8
LAY-6
  6
CONTINUOUS
 62
     2
100
AcDbText
 10
112.94799
 20
369.343951
 30
0.0
 40
5.0
  1
ﾟ
 50
305.000036
 41
0.4
  7
EXCADSTD
 72
     5
 11
113.69364
 21
368.279054
 31
0.0
100
AcDbText
  0
ARC
  5
277
100
AcDbEntity
  8
LAY-6
  6
CONTINUOUS
 62
     1
100
AcDbCircle
 10
101.437277
 20
364.946378
 30
0.0
 40
11.451363
100
AcDbArc
 50
0.000062
 51
70.00001
  0
LINE
  5
278
100
AcDbEntity
  8
LAY-6
  6
CONTINUOUS
 62
     1
100
AcDbLine
 10
112.388639
 20
367.94639
 30
0.0
 11
112.88864
 21
364.94639
 31
0.0
  0
LINE
  5
279
100
AcDbEntity
  8
LAY-6
  6
CONTINUOUS
 62
     1
100
AcDbLine
 10
112.88864
 20
364.94639
 30
0.0
 11
113.388639
 21
367.94639
 31
0.0
  0
LINE
  5
27A
100
AcDbEntity
  8
LAY-6
  6
CONTINUOUS
 62
     1
100
AcDbLine
 10
108.34396
 20
375.150929
 30
0.0
 11
105.353872
 21
375.70714
 31
0.0
  0
LINE
  5
27B
100
AcDbEntity
  8
LAY-6
  6
CONTINUOUS
 62
     1
100
AcDbLine
 10
105.353872
 20
375.70714
 30
0.0
 11
108.001941
 21
374.211236
 31
0.0
  0
TEXT
  5
27C
100
AcDbEntity
  8
LAY-6
  6
CONTINUOUS
 62
     2
100
AcDbText
 10
294.541685
 20
350.079345
 30
0.0
 40
5.0
  1
Ｒ
 50
30.0
 41
0.672
  7
EXCADSTD
 72
     5
 11
297.312966
 21
351.679345
 31
0.0
100
AcDbText
  0
TEXT
  5
27D
100
AcDbEntity
  8
LAY-6
  6
CONTINUOUS
 62
     2
100
AcDbText
 10
298.005786
 20
352.079345
 30
0.0
 40
5.0
  1
１８
 50
30.0
 41
0.672
  7
EXCADSTD
 72
     5
 11
304.356177
 21
355.745745
 31
0.0
100
AcDbText
  0
LINE
  5
27E
100
AcDbEntity
  8
LAY-6
  6
CONTINUOUS
 62
     1
100
AcDbLine
 10
305.693608
 20
355.946332
 30
0.0
 11
321.282066
 21
364.946332
 31
0.0
  0
LINE
  5
27F
100
AcDbEntity
  8
LAY-6
  6
CONTINUOUS
 62
     1
100
AcDbLine
 10
308.041685
 20
357.879345
 30
0.0
 11
305.693608
 21
355.946332
 31
0.0
  0
LINE
  5
280
100
AcDbEntity
  8
LAY-6
  6
CONTINUOUS
 62
     1
100
AcDbLine
 10
305.693608
 20
355.946332
 30
0.0
 11
308.541685
 21
357.01332
 31
0.0
  0
LINE
  5
281
100
AcDbEntity
  8
LAY-6
  6
CONTINUOUS
 62
     1
100
AcDbLine
 10
340.43729
 20
364.946392
 30
0.0
 11
353.388639
 21
364.946394
 31
0.0
  0
LINE
  5
282
100
AcDbEntity
  8
LAY-6
  6
CONTINUOUS
 62
     1
100
AcDbLine
 10
340.43729
 20
364.946392
 30
0.0
 11
344.866899
 21
377.116683
 31
0.0
  0
TEXT
  5
283
100
AcDbEntity
  8
LAY-6
  6
CONTINUOUS
 62
     2
100
AcDbText
 10
347.359373
 20
375.897169
 30
0.0
 40
5.0
  1
７０
 50
305.000036
 41
0.672
  7
EXCADSTD
 72
     5
 11
351.565298
 21
369.890493
 31
0.0
100
AcDbText
  0
TEXT
  5
284
100
AcDbEntity
  8
LAY-6
  6
CONTINUOUS
 62
     2
100
AcDbText
 10
351.947988
 20
369.343955
 30
0.0
 40
5.0
  1
ﾟ
 50
305.000036
 41
0.4
  7
EXCADSTD
 72
     5
 11
352.693638
 21
368.279058
 31
0.0
100
AcDbText
  0
ARC
  5
285
100
AcDbEntity
  8
LAY-6
  6
CONTINUOUS
 62
     1
100
AcDbCircle
 10
340.437276
 20
364.946382
 30
0.0
 40
11.451363
100
AcDbArc
 50
0.000062
 51
70.00001
  0
LINE
  5
286
100
AcDbEntity
  8
LAY-6
  6
CONTINUOUS
 62
     1
100
AcDbLine
 10
351.388638
 20
367.946394
 30
0.0
 11
351.888639
 21
364.946394
 31
0.0
  0
LINE
  5
287
100
AcDbEntity
  8
LAY-6
  6
CONTINUOUS
 62
     1
100
AcDbLine
 10
351.888639
 20
364.946394
 30
0.0
 11
352.388638
 21
367.946394
 31
0.0
  0
LINE
  5
288
100
AcDbEntity
  8
LAY-6
  6
CONTINUOUS
 62
     1
100
AcDbLine
 10
347.343959
 20
375.150933
 30
0.0
 11
344.353871
 21
375.707144
 31
0.0
  0
LINE
  5
289
100
AcDbEntity
  8
LAY-6
  6
CONTINUOUS
 62
     1
100
AcDbLine
 10
344.353871
 20
375.707144
 30
0.0
 11
347.00194
 21
374.21124
 31
0.0
  0
TEXT
  5
28A
100
AcDbEntity
  8
LAY-6
  6
CONTINUOUS
 62
     2
100
AcDbText
 10
55.54171
 20
181.342612
 30
0.0
 40
5.0
  1
Ｒ
 50
30.0
 41
0.672
  7
EXCADSTD
 72
     5
 11
58.312991
 21
182.942612
 31
0.0
100
AcDbText
  0
TEXT
  5
28B
100
AcDbEntity
  8
LAY-6
  6
CONTINUOUS
 62
     2
100
AcDbText
 10
59.005811
 20
183.342612
 30
0.0
 40
5.0
  1
１８
 50
30.0
 41
0.672
  7
EXCADSTD
 72
     5
 11
65.356202
 21
187.009012
 31
0.0
100
AcDbText
  0
LINE
  5
28C
100
AcDbEntity
  8
LAY-6
  6
CONTINUOUS
 62
     1
100
AcDbLine
 10
66.693634
 20
187.209599
 30
0.0
 11
82.282091
 21
196.209599
 31
0.0
  0
LINE
  5
28D
100
AcDbEntity
  8
LAY-6
  6
CONTINUOUS
 62
     1
100
AcDbLine
 10
69.04171
 20
189.142612
 30
0.0
 11
66.693634
 21
187.209599
 31
0.0
  0
LINE
  5
28E
100
AcDbEntity
  8
LAY-6
  6
CONTINUOUS
 62
     1
100
AcDbLine
 10
66.693634
 20
187.209599
 30
0.0
 11
69.54171
 21
188.276587
 31
0.0
  0
LINE
  5
28F
100
AcDbEntity
  8
LAY-6
  6
CONTINUOUS
 62
     1
100
AcDbLine
 10
101.437316
 20
196.209659
 30
0.0
 11
114.388664
 21
196.209661
 31
0.0
  0
LINE
  5
290
100
AcDbEntity
  8
LAY-6
  6
CONTINUOUS
 62
     1
100
AcDbLine
 10
101.437316
 20
196.209659
 30
0.0
 11
105.866924
 21
208.37995
 31
0.0
  0
TEXT
  5
291
100
AcDbEntity
  8
LAY-6
  6
CONTINUOUS
 62
     2
100
AcDbText
 10
108.359398
 20
207.160436
 30
0.0
 40
5.0
  1
７０
 50
305.000036
 41
0.672
  7
EXCADSTD
 72
     5
 11
112.565323
 21
201.15376
 31
0.0
100
AcDbText
  0
TEXT
  5
292
100
AcDbEntity
  8
LAY-6
  6
CONTINUOUS
 62
     2
100
AcDbText
 10
112.948013
 20
200.607222
 30
0.0
 40
5.0
  1
ﾟ
 50
305.000036
 41
0.4
  7
EXCADSTD
 72
     5
 11
113.693663
 21
199.542325
 31
0.0
100
AcDbText
  0
ARC
  5
293
100
AcDbEntity
  8
LAY-6
  6
CONTINUOUS
 62
     1
100
AcDbCircle
 10
101.437301
 20
196.209649
 30
0.0
 40
11.451363
100
AcDbArc
 50
0.000062
 51
70.00001
  0
LINE
  5
294
100
AcDbEntity
  8
LAY-6
  6
CONTINUOUS
 62
     1
100
AcDbLine
 10
112.388663
 20
199.209661
 30
0.0
 11
112.888664
 21
196.209661
 31
0.0
  0
LINE
  5
295
100
AcDbEntity
  8
LAY-6
  6
CONTINUOUS
 62
     1
100
AcDbLine
 10
112.888664
 20
196.209661
 30
0.0
 11
113.388663
 21
199.209661
 31
0.0
  0
LINE
  5
296
100
AcDbEntity
  8
LAY-6
  6
CONTINUOUS
 62
     1
100
AcDbLine
 10
108.343984
 20
206.4142
 30
0.0
 11
105.353896
 21
206.970411
 31
0.0
  0
LINE
  5
297
100
AcDbEntity
  8
LAY-6
  6
CONTINUOUS
 62
     1
100
AcDbLine
 10
105.353896
 20
206.970411
 30
0.0
 11
108.001965
 21
205.474507
 31
0.0
  0
TEXT
  5
298
100
AcDbEntity
  8
LAY-6
  6
CONTINUOUS
 62
     2
100
AcDbText
 10
337.130158
 20
205.442653
 30
0.0
 40
5.0
  1
Ｒ
 50
30.0
 41
0.672
  7
EXCADSTD
 72
     5
 11
339.90144
 21
207.042653
 31
0.0
100
AcDbText
  0
TEXT
  5
299
100
AcDbEntity
  8
LAY-6
  6
CONTINUOUS
 62
     2
100
AcDbText
 10
340.59426
 20
207.442653
 30
0.0
 40
5.0
  1
１８
 50
30.0
 41
0.672
  7
EXCADSTD
 72
     5
 11
346.944651
 21
211.109053
 31
0.0
100
AcDbText
  0
LINE
  5
29A
100
AcDbEntity
  8
LAY-6
  6
CONTINUOUS
 62
     1
100
AcDbLine
 10
336.870539
 20
205.20964
 30
0.0
 11
321.282082
 21
196.20964
 31
0.0
  0
LINE
  5
29B
100
AcDbEntity
  8
LAY-6
  6
CONTINUOUS
 62
     1
100
AcDbLine
 10
334.522463
 20
203.276627
 30
0.0
 11
336.870539
 21
205.20964
 31
0.0
  0
LINE
  5
29C
100
AcDbEntity
  8
LAY-6
  6
CONTINUOUS
 62
     1
100
AcDbLine
 10
336.870539
 20
205.20964
 30
0.0
 11
334.022463
 21
204.142653
 31
0.0
  0
TEXT
  5
29D
100
AcDbEntity
  8
LAY-6
  6
CONTINUOUS
 62
     2
100
AcDbText
 10
88.782059
 20
391.7
 30
0.0
 40
5.0
  1
２９
 41
0.672
  7
EXCADSTD
 72
     5
 11
96.114859
 21
391.7
 31
0.0
100
AcDbText
  0
LINE
  5
29E
100
AcDbEntity
  8
LAY-6
  6
CONTINUOUS
 62
     1
100
AcDbLine
 10
78.282059
 20
391.2
 30
0.0
 11
107.282059
 21
391.2
 31
0.0
  0
LINE
  5
29F
100
AcDbEntity
  8
LAY-6
  6
CONTINUOUS
 62
     1
100
AcDbLine
 10
81.282059
 20
391.7
 30
0.0
 11
78.282059
 21
391.2
 31
0.0
  0
LINE
  5
2A0
100
AcDbEntity
  8
LAY-6
  6
CONTINUOUS
 62
     1
100
AcDbLine
 10
78.282059
 20
391.2
 30
0.0
 11
81.282059
 21
390.7
 31
0.0
  0
LINE
  5
2A1
100
AcDbEntity
  8
LAY-6
  6
CONTINUOUS
 62
     1
100
AcDbLine
 10
104.282059
 20
390.7
 30
0.0
 11
107.282059
 21
391.2
 31
0.0
  0
LINE
  5
2A2
100
AcDbEntity
  8
LAY-6
  6
CONTINUOUS
 62
     1
100
AcDbLine
 10
107.282059
 20
391.2
 30
0.0
 11
104.282059
 21
391.7
 31
0.0
  0
TEXT
  5
2A3
100
AcDbEntity
  8
LAY-6
  6
CONTINUOUS
 62
     2
100
AcDbText
 10
91.752648
 20
409.338081
 30
0.0
 40
5.0
  1
Ｒ
 50
320.624542
 41
0.672
  7
EXCADSTD
 72
     5
 11
94.226266
 21
407.308002
 31
0.0
100
AcDbText
  0
TEXT
  5
2A4
100
AcDbEntity
  8
LAY-6
  6
CONTINUOUS
 62
     2
100
AcDbText
 10
94.84467
 20
406.800483
 30
0.0
 40
5.0
  1
２９
 50
320.624542
 41
0.672
  7
EXCADSTD
 72
     5
 11
100.512964
 21
402.148558
 31
0.0
100
AcDbText
  0
LINE
  5
2A5
100
AcDbEntity
  8
LAY-6
  6
CONTINUOUS
 62
     1
100
AcDbLine
 10
84.864903
 20
414.343973
 30
0.0
 11
107.282059
 21
395.946389
 31
0.0
  0
LINE
  5
2A6
100
AcDbEntity
  8
LAY-6
  6
CONTINUOUS
 62
     1
100
AcDbLine
 10
87.501119
 20
412.827278
 30
0.0
 11
84.864903
 21
414.343973
 31
0.0
  0
LINE
  5
2A7
100
AcDbEntity
  8
LAY-6
  6
CONTINUOUS
 62
     1
100
AcDbLine
 10
84.864903
 20
414.343973
 30
0.0
 11
86.866719
 21
412.054272
 31
0.0
  0
LINE
  5
2A8
100
AcDbEntity
  8
LAY-6
  6
CONTINUOUS
 62
     1
100
AcDbLine
 10
78.282059
 20
395.946389
 30
0.0
 11
78.282059
 21
419.6
 31
0.0
  0
LINE
  5
2A9
100
AcDbEntity
  8
LAY-6
  6
CONTINUOUS
 62
     1
100
AcDbLine
 10
82.282059
 20
413.209725
 30
0.0
 11
82.282059
 21
419.6
 31
0.0
  0
TEXT
  5
2AA
100
AcDbEntity
  8
LAY-6
  6
CONTINUOUS
 62
     2
100
AcDbText
 10
78.282059
 20
418.6
 30
0.0
 40
5.0
  1
４
 41
0.672
  7
EXCADSTD
 72
     5
 11
81.482059
 21
418.6
 31
0.0
100
AcDbText
  0
LINE
  5
2AB
100
AcDbEntity
  8
LAY-6
  6
CONTINUOUS
 62
     1
100
AcDbLine
 10
73.282059
 20
418.1
 30
0.0
 11
78.282059
 21
418.1
 31
0.0
  0
LINE
  5
2AC
100
AcDbEntity
  8
LAY-6
  6
CONTINUOUS
 62
     1
100
AcDbLine
 10
82.282059
 20
418.1
 30
0.0
 11
87.282059
 21
418.1
 31
0.0
  0
LINE
  5
2AD
100
AcDbEntity
  8
LAY-6
  6
CONTINUOUS
 62
     1
100
AcDbLine
 10
75.282059
 20
417.6
 30
0.0
 11
78.282059
 21
418.1
 31
0.0
  0
LINE
  5
2AE
100
AcDbEntity
  8
LAY-6
  6
CONTINUOUS
 62
     1
100
AcDbLine
 10
78.282059
 20
418.1
 30
0.0
 11
75.282059
 21
418.6
 31
0.0
  0
LINE
  5
2AF
100
AcDbEntity
  8
LAY-6
  6
CONTINUOUS
 62
     1
100
AcDbLine
 10
85.282059
 20
418.6
 30
0.0
 11
82.282059
 21
418.1
 31
0.0
  0
LINE
  5
2B0
100
AcDbEntity
  8
LAY-6
  6
CONTINUOUS
 62
     1
100
AcDbLine
 10
82.282059
 20
418.1
 30
0.0
 11
85.282059
 21
417.6
 31
0.0
  0
LINE
  5
2B1
100
AcDbEntity
  8
LAY-6
  6
CONTINUOUS
 62
     1
100
AcDbLine
 10
68.282069
 20
431.946385
 30
0.0
 11
68.282069
 21
443.5
 31
0.0
  0
LINE
  5
2B2
100
AcDbEntity
  8
LAY-6
  6
CONTINUOUS
 62
     1
100
AcDbLine
 10
78.282059
 20
419.6
 30
0.0
 11
78.282059
 21
443.5
 31
0.0
  0
TEXT
  5
2B3
100
AcDbEntity
  8
LAY-6
  6
CONTINUOUS
 62
     2
100
AcDbText
 10
69.282064
 20
442.5
 30
0.0
 40
5.0
  1
１０
 41
0.672
  7
EXCADSTD
 72
     5
 11
76.614864
 21
442.5
 31
0.0
100
AcDbText
  0
LINE
  5
2B4
100
AcDbEntity
  8
LAY-6
  6
CONTINUOUS
 62
     1
100
AcDbLine
 10
68.282069
 20
442.0
 30
0.0
 11
78.282059
 21
442.0
 31
0.0
  0
LINE
  5
2B5
100
AcDbEntity
  8
LAY-6
  6
CONTINUOUS
 62
     1
100
AcDbLine
 10
71.282069
 20
442.5
 30
0.0
 11
68.282069
 21
442.0
 31
0.0
  0
LINE
  5
2B6
100
AcDbEntity
  8
LAY-6
  6
CONTINUOUS
 62
     1
100
AcDbLine
 10
68.282069
 20
442.0
 30
0.0
 11
71.282069
 21
441.5
 31
0.0
  0
LINE
  5
2B7
100
AcDbEntity
  8
LAY-6
  6
CONTINUOUS
 62
     1
100
AcDbLine
 10
75.282059
 20
441.5
 30
0.0
 11
78.282059
 21
442.0
 31
0.0
  0
LINE
  5
2B8
100
AcDbEntity
  8
LAY-6
  6
CONTINUOUS
 62
     1
100
AcDbLine
 10
78.282059
 20
442.0
 30
0.0
 11
75.282059
 21
442.5
 31
0.0
  0
LINE
  5
2B9
100
AcDbEntity
  8
LAY-6
  6
CONTINUOUS
 62
     1
100
AcDbLine
 10
168.282074
 20
421.946358
 30
0.0
 11
168.282074
 21
443.5
 31
0.0
  0
TEXT
  5
2BA
100
AcDbEntity
  8
LAY-6
  6
CONTINUOUS
 62
     2
100
AcDbText
 10
119.282067
 20
442.5
 30
0.0
 40
5.0
  1
９０
 41
0.672
  7
EXCADSTD
 72
     5
 11
126.614867
 21
442.5
 31
0.0
100
AcDbText
  0
LINE
  5
2BB
100
AcDbEntity
  8
LAY-6
  6
CONTINUOUS
 62
     1
100
AcDbLine
 10
78.282059
 20
442.0
 30
0.0
 11
168.282074
 21
442.0
 31
0.0
  0
LINE
  5
2BC
100
AcDbEntity
  8
LAY-6
  6
CONTINUOUS
 62
     1
100
AcDbLine
 10
81.282059
 20
442.5
 30
0.0
 11
78.282059
 21
442.0
 31
0.0
  0
LINE
  5
2BD
100
AcDbEntity
  8
LAY-6
  6
CONTINUOUS
 62
     1
100
AcDbLine
 10
78.282059
 20
442.0
 30
0.0
 11
81.282059
 21
441.5
 31
0.0
  0
LINE
  5
2BE
100
AcDbEntity
  8
LAY-6
  6
CONTINUOUS
 62
     1
100
AcDbLine
 10
165.282074
 20
441.5
 30
0.0
 11
168.282074
 21
442.0
 31
0.0
  0
LINE
  5
2BF
100
AcDbEntity
  8
LAY-6
  6
CONTINUOUS
 62
     1
100
AcDbLine
 10
168.282074
 20
442.0
 30
0.0
 11
165.282074
 21
442.5
 31
0.0
  0
LINE
  5
2C0
100
AcDbEntity
  8
LAY-6
  6
CONTINUOUS
 62
     1
100
AcDbLine
 10
68.282069
 20
441.8
 30
0.0
 11
68.282069
 21
451.7
 31
0.0
  0
LINE
  5
2C1
100
AcDbEntity
  8
LAY-6
  6
CONTINUOUS
 62
     1
100
AcDbLine
 10
82.282059
 20
413.209725
 30
0.0
 11
82.282059
 21
451.7
 31
0.0
  0
TEXT
  5
2C2
100
AcDbEntity
  8
LAY-6
  6
CONTINUOUS
 62
     2
100
AcDbText
 10
71.282064
 20
450.7
 30
0.0
 40
5.0
  1
１４
 41
0.672
  7
EXCADSTD
 72
     5
 11
78.614864
 21
450.7
 31
0.0
100
AcDbText
  0
LINE
  5
2C3
100
AcDbEntity
  8
LAY-6
  6
CONTINUOUS
 62
     1
100
AcDbLine
 10
68.282069
 20
450.2
 30
0.0
 11
82.282059
 21
450.2
 31
0.0
  0
LINE
  5
2C4
100
AcDbEntity
  8
LAY-6
  6
CONTINUOUS
 62
     1
100
AcDbLine
 10
71.282069
 20
450.7
 30
0.0
 11
68.282069
 21
450.2
 31
0.0
  0
LINE
  5
2C5
100
AcDbEntity
  8
LAY-6
  6
CONTINUOUS
 62
     1
100
AcDbLine
 10
68.282069
 20
450.2
 30
0.0
 11
71.282069
 21
449.7
 31
0.0
  0
LINE
  5
2C6
100
AcDbEntity
  8
LAY-6
  6
CONTINUOUS
 62
     1
100
AcDbLine
 10
79.282059
 20
449.7
 30
0.0
 11
82.282059
 21
450.2
 31
0.0
  0
LINE
  5
2C7
100
AcDbEntity
  8
LAY-6
  6
CONTINUOUS
 62
     1
100
AcDbLine
 10
82.282059
 20
450.2
 30
0.0
 11
79.282059
 21
450.7
 31
0.0
  0
LINE
  5
2C8
100
AcDbEntity
  8
LAY-6
  6
CONTINUOUS
 62
     1
100
AcDbLine
 10
114.38864
 20
364.94639
 30
0.0
 11
184.7
 21
364.94639
 31
0.0
  0
LINE
  5
2C9
100
AcDbEntity
  8
LAY-6
  6
CONTINUOUS
 62
     1
100
AcDbLine
 10
222.7
 20
386.946385
 30
0.0
 11
181.7
 21
386.946385
 31
0.0
  0
TEXT
  5
2CA
100
AcDbEntity
  8
LAY-6
  6
CONTINUOUS
 62
     2
100
AcDbText
 10
182.7
 20
371.946387
 30
0.0
 40
5.0
  1
２２
 50
90.0
 41
0.672
  7
EXCADSTD
 72
     5
 11
182.7
 21
379.279187
 31
0.0
100
AcDbText
  0
LINE
  5
2CB
100
AcDbEntity
  8
LAY-6
  6
CONTINUOUS
 62
     1
100
AcDbLine
 10
183.2
 20
364.94639
 30
0.0
 11
183.2
 21
386.946385
 31
0.0
  0
LINE
  5
2CC
100
AcDbEntity
  8
LAY-6
  6
CONTINUOUS
 62
     1
100
AcDbLine
 10
182.7
 20
367.94639
 30
0.0
 11
183.2
 21
364.94639
 31
0.0
  0
LINE
  5
2CD
100
AcDbEntity
  8
LAY-6
  6
CONTINUOUS
 62
     1
100
AcDbLine
 10
183.2
 20
364.94639
 30
0.0
 11
183.7
 21
367.94639
 31
0.0
  0
LINE
  5
2CE
100
AcDbEntity
  8
LAY-6
  6
CONTINUOUS
 62
     1
100
AcDbLine
 10
183.7
 20
383.946385
 30
0.0
 11
183.2
 21
386.946385
 31
0.0
  0
LINE
  5
2CF
100
AcDbEntity
  8
LAY-6
  6
CONTINUOUS
 62
     1
100
AcDbLine
 10
183.2
 20
386.946385
 30
0.0
 11
182.7
 21
383.946385
 31
0.0
  0
LINE
  5
2D0
100
AcDbEntity
  8
LAY-6
  6
CONTINUOUS
 62
     1
100
AcDbLine
 10
165.282059
 20
395.946389
 30
0.0
 11
184.7
 21
395.946389
 31
0.0
  0
TEXT
  5
2D1
100
AcDbEntity
  8
LAY-6
  6
CONTINUOUS
 62
     2
100
AcDbText
 10
182.7
 20
389.446387
 30
0.0
 40
5.0
  1
９
 50
90.0
 41
0.672
  7
EXCADSTD
 72
     5
 11
182.7
 21
392.646387
 31
0.0
100
AcDbText
  0
LINE
  5
2D2
100
AcDbEntity
  8
LAY-6
  6
CONTINUOUS
 62
     1
100
AcDbLine
 10
183.2
 20
386.946385
 30
0.0
 11
183.2
 21
395.946389
 31
0.0
  0
LINE
  5
2D3
100
AcDbEntity
  8
LAY-6
  6
CONTINUOUS
 62
     1
100
AcDbLine
 10
182.7
 20
389.946385
 30
0.0
 11
183.2
 21
386.946385
 31
0.0
  0
LINE
  5
2D4
100
AcDbEntity
  8
LAY-6
  6
CONTINUOUS
 62
     1
100
AcDbLine
 10
183.2
 20
386.946385
 30
0.0
 11
183.7
 21
389.946385
 31
0.0
  0
LINE
  5
2D5
100
AcDbEntity
  8
LAY-6
  6
CONTINUOUS
 62
     1
100
AcDbLine
 10
183.7
 20
392.946389
 30
0.0
 11
183.2
 21
395.946389
 31
0.0
  0
LINE
  5
2D6
100
AcDbEntity
  8
LAY-6
  6
CONTINUOUS
 62
     1
100
AcDbLine
 10
183.2
 20
395.946389
 30
0.0
 11
182.7
 21
392.946389
 31
0.0
  0
LINE
  5
2D7
100
AcDbEntity
  8
LAY-6
  6
CONTINUOUS
 62
     1
100
AcDbLine
 10
165.282074
 20
424.946358
 30
0.0
 11
184.7
 21
424.946358
 31
0.0
  0
TEXT
  5
2D8
100
AcDbEntity
  8
LAY-6
  6
CONTINUOUS
 62
     2
100
AcDbText
 10
182.7
 20
406.446373
 30
0.0
 40
5.0
  1
２９
 50
90.0
 41
0.672
  7
EXCADSTD
 72
     5
 11
182.7
 21
413.779174
 31
0.0
100
AcDbText
  0
LINE
  5
2D9
100
AcDbEntity
  8
LAY-6
  6
CONTINUOUS
 62
     1
100
AcDbLine
 10
183.2
 20
395.946389
 30
0.0
 11
183.2
 21
424.946358
 31
0.0
  0
LINE
  5
2DA
100
AcDbEntity
  8
LAY-6
  6
CONTINUOUS
 62
     1
100
AcDbLine
 10
182.7
 20
398.946389
 30
0.0
 11
183.2
 21
395.946389
 31
0.0
  0
LINE
  5
2DB
100
AcDbEntity
  8
LAY-6
  6
CONTINUOUS
 62
     1
100
AcDbLine
 10
183.2
 20
395.946389
 30
0.0
 11
183.7
 21
398.946389
 31
0.0
  0
LINE
  5
2DC
100
AcDbEntity
  8
LAY-6
  6
CONTINUOUS
 62
     1
100
AcDbLine
 10
183.7
 20
421.946358
 30
0.0
 11
183.2
 21
424.946358
 31
0.0
  0
LINE
  5
2DD
100
AcDbEntity
  8
LAY-6
  6
CONTINUOUS
 62
     1
100
AcDbLine
 10
183.2
 20
424.946358
 30
0.0
 11
182.7
 21
421.946358
 31
0.0
  0
LINE
  5
2DE
100
AcDbEntity
  8
LAY-6
  6
CONTINUOUS
 62
     1
100
AcDbLine
 10
78.282082
 20
220.680542
 30
0.0
 11
78.282082
 21
224.2
 31
0.0
  0
LINE
  5
2DF
100
AcDbEntity
  8
LAY-6
  6
CONTINUOUS
 62
     1
100
AcDbLine
 10
107.282074
 20
225.709656
 30
0.0
 11
107.282074
 21
221.2
 31
0.0
  0
TEXT
  5
2E0
100
AcDbEntity
  8
LAY-6
  6
CONTINUOUS
 62
     2
100
AcDbText
 10
91.882078
 20
223.3
 30
0.0
 40
5.0
  1
２９
 41
0.672
  7
EXCADSTD
 72
     5
 11
99.214878
 21
223.3
 31
0.0
100
AcDbText
  0
LINE
  5
2E1
100
AcDbEntity
  8
LAY-6
  6
CONTINUOUS
 62
     1
100
AcDbLine
 10
78.282082
 20
222.7
 30
0.0
 11
107.282074
 21
222.7
 31
0.0
  0
LINE
  5
2E2
100
AcDbEntity
  8
LAY-6
  6
CONTINUOUS
 62
     1
100
AcDbLine
 10
81.282082
 20
223.2
 30
0.0
 11
78.282082
 21
222.7
 31
0.0
  0
LINE
  5
2E3
100
AcDbEntity
  8
LAY-6
  6
CONTINUOUS
 62
     1
100
AcDbLine
 10
78.282082
 20
222.7
 30
0.0
 11
81.282082
 21
222.2
 31
0.0
  0
LINE
  5
2E4
100
AcDbEntity
  8
LAY-6
  6
CONTINUOUS
 62
     1
100
AcDbLine
 10
104.282074
 20
222.2
 30
0.0
 11
107.282074
 21
222.7
 31
0.0
  0
LINE
  5
2E5
100
AcDbEntity
  8
LAY-6
  6
CONTINUOUS
 62
     1
100
AcDbLine
 10
107.282074
 20
222.7
 30
0.0
 11
104.282074
 21
223.2
 31
0.0
  0
LINE
  5
2E6
100
AcDbEntity
  8
LAY-6
  6
CONTINUOUS
 62
     1
100
AcDbLine
 10
165.282074
 20
226.209671
 30
0.0
 11
151.3
 21
226.209671
 31
0.0
  0
LINE
  5
2E7
100
AcDbEntity
  8
LAY-6
  6
CONTINUOUS
 62
     1
100
AcDbLine
 10
148.200001
 20
234.209571
 30
0.0
 11
154.3
 21
234.209571
 31
0.0
  0
TEXT
  5
2E8
100
AcDbEntity
  8
LAY-6
  6
CONTINUOUS
 62
     2
100
AcDbText
 10
152.3
 20
228.209621
 30
0.0
 40
5.0
  1
８
 50
90.0
 41
0.672
  7
EXCADSTD
 72
     5
 11
152.3
 21
231.409621
 31
0.0
100
AcDbText
  0
LINE
  5
2E9
100
AcDbEntity
  8
LAY-6
  6
CONTINUOUS
 62
     1
100
AcDbLine
 10
152.8
 20
226.209671
 30
0.0
 11
152.8
 21
234.209571
 31
0.0
  0
LINE
  5
2EA
100
AcDbEntity
  8
LAY-6
  6
CONTINUOUS
 62
     1
100
AcDbLine
 10
152.3
 20
229.209671
 30
0.0
 11
152.8
 21
226.209671
 31
0.0
  0
LINE
  5
2EB
100
AcDbEntity
  8
LAY-6
  6
CONTINUOUS
 62
     1
100
AcDbLine
 10
152.8
 20
226.209671
 30
0.0
 11
153.3
 21
229.209671
 31
0.0
  0
LINE
  5
2EC
100
AcDbEntity
  8
LAY-6
  6
CONTINUOUS
 62
     1
100
AcDbLine
 10
153.3
 20
231.209571
 30
0.0
 11
152.8
 21
234.209571
 31
0.0
  0
LINE
  5
2ED
100
AcDbEntity
  8
LAY-6
  6
CONTINUOUS
 62
     1
100
AcDbLine
 10
152.8
 20
234.209571
 30
0.0
 11
152.3
 21
231.209571
 31
0.0
  0
LINE
  5
2EE
100
AcDbEntity
  8
LAY-6
  6
CONTINUOUS
 62
     1
100
AcDbLine
 10
151.6736
 20
248.209595
 30
0.0
 11
154.3
 21
248.209595
 31
0.0
  0
TEXT
  5
2EF
100
AcDbEntity
  8
LAY-6
  6
CONTINUOUS
 62
     2
100
AcDbText
 10
152.3
 20
237.209583
 30
0.0
 40
5.0
  1
１４
 50
90.0
 41
0.672
  7
EXCADSTD
 72
     5
 11
152.3
 21
244.542383
 31
0.0
100
AcDbText
  0
LINE
  5
2F0
100
AcDbEntity
  8
LAY-6
  6
CONTINUOUS
 62
     1
100
AcDbLine
 10
152.8
 20
234.209571
 30
0.0
 11
152.8
 21
248.209595
 31
0.0
  0
LINE
  5
2F1
100
AcDbEntity
  8
LAY-6
  6
CONTINUOUS
 62
     1
100
AcDbLine
 10
152.3
 20
237.209571
 30
0.0
 11
152.8
 21
234.209571
 31
0.0
  0
LINE
  5
2F2
100
AcDbEntity
  8
LAY-6
  6
CONTINUOUS
 62
     1
100
AcDbLine
 10
152.8
 20
234.209571
 30
0.0
 11
153.3
 21
237.209571
 31
0.0
  0
LINE
  5
2F3
100
AcDbEntity
  8
LAY-6
  6
CONTINUOUS
 62
     1
100
AcDbLine
 10
153.3
 20
245.209595
 30
0.0
 11
152.8
 21
248.209595
 31
0.0
  0
LINE
  5
2F4
100
AcDbEntity
  8
LAY-6
  6
CONTINUOUS
 62
     1
100
AcDbLine
 10
152.8
 20
248.209595
 30
0.0
 11
152.3
 21
245.209595
 31
0.0
  0
LINE
  5
2F5
100
AcDbEntity
  8
LAY-6
  6
CONTINUOUS
 62
     1
100
AcDbLine
 10
71.282093
 20
222.809656
 30
0.0
 11
71.282093
 21
242.3
 31
0.0
  0
LINE
  5
2F6
100
AcDbEntity
  8
LAY-6
  6
CONTINUOUS
 62
     1
100
AcDbLine
 10
82.282085
 20
239.4
 30
0.0
 11
82.282085
 21
242.3
 31
0.0
  0
TEXT
  5
2F7
100
AcDbEntity
  8
LAY-6
  6
CONTINUOUS
 62
     2
100
AcDbText
 10
62.882089
 20
241.3
 30
0.0
 40
5.0
  1
１１
 41
0.672
  7
EXCADSTD
 72
     5
 11
70.214889
 21
241.3
 31
0.0
100
AcDbText
  0
LINE
  5
2F8
100
AcDbEntity
  8
LAY-6
  6
CONTINUOUS
 62
     1
100
AcDbLine
 10
71.282093
 20
240.8
 30
0.0
 11
82.282085
 21
240.8
 31
0.0
  0
LINE
  5
2F9
100
AcDbEntity
  8
LAY-6
  6
CONTINUOUS
 62
     1
100
AcDbLine
 10
74.282093
 20
241.3
 30
0.0
 11
71.282093
 21
240.8
 31
0.0
  0
LINE
  5
2FA
100
AcDbEntity
  8
LAY-6
  6
CONTINUOUS
 62
     1
100
AcDbLine
 10
71.282093
 20
240.8
 30
0.0
 11
74.282093
 21
240.3
 31
0.0
  0
LINE
  5
2FB
100
AcDbEntity
  8
LAY-6
  6
CONTINUOUS
 62
     1
100
AcDbLine
 10
79.282085
 20
240.3
 30
0.0
 11
82.282085
 21
240.8
 31
0.0
  0
LINE
  5
2FC
100
AcDbEntity
  8
LAY-6
  6
CONTINUOUS
 62
     1
100
AcDbLine
 10
82.282085
 20
240.8
 30
0.0
 11
79.282085
 21
241.3
 31
0.0
  0
LINE
  5
2FD
100
AcDbEntity
  8
LAY-6
  6
CONTINUOUS
 62
     1
100
AcDbLine
 10
78.282082
 20
246.209656
 30
0.0
 11
78.282082
 21
269.5
 31
0.0
  0
LINE
  5
2FE
100
AcDbEntity
  8
LAY-6
  6
CONTINUOUS
 62
     1
100
AcDbLine
 10
90.28209
 20
242.5
 30
0.0
 11
90.28209
 21
269.5
 31
0.0
  0
TEXT
  5
2FF
100
AcDbEntity
  8
LAY-6
  6
CONTINUOUS
 62
     2
100
AcDbText
 10
80.282086
 20
268.5
 30
0.0
 40
5.0
  1
１２
 41
0.672
  7
EXCADSTD
 72
     5
 11
87.614886
 21
268.5
 31
0.0
100
AcDbText
  0
LINE
  5
300
100
AcDbEntity
  8
LAY-6
  6
CONTINUOUS
 62
     1
100
AcDbLine
 10
78.282082
 20
268.0
 30
0.0
 11
90.28209
 21
268.0
 31
0.0
  0
LINE
  5
301
100
AcDbEntity
  8
LAY-6
  6
CONTINUOUS
 62
     1
100
AcDbLine
 10
81.282082
 20
268.5
 30
0.0
 11
78.282082
 21
268.0
 31
0.0
  0
LINE
  5
302
100
AcDbEntity
  8
LAY-6
  6
CONTINUOUS
 62
     1
100
AcDbLine
 10
78.282082
 20
268.0
 30
0.0
 11
81.282082
 21
267.5
 31
0.0
  0
LINE
  5
303
100
AcDbEntity
  8
LAY-6
  6
CONTINUOUS
 62
     1
100
AcDbLine
 10
87.28209
 20
267.5
 30
0.0
 11
90.28209
 21
268.0
 31
0.0
  0
LINE
  5
304
100
AcDbEntity
  8
LAY-6
  6
CONTINUOUS
 62
     1
100
AcDbLine
 10
90.28209
 20
268.0
 30
0.0
 11
87.28209
 21
268.5
 31
0.0
  0
LINE
  5
305
100
AcDbEntity
  8
LAY-6
  6
CONTINUOUS
 62
     1
100
AcDbLine
 10
110.282105
 20
255.4
 30
0.0
 11
110.282105
 21
269.5
 31
0.0
  0
TEXT
  5
306
100
AcDbEntity
  8
LAY-6
  6
CONTINUOUS
 62
     2
100
AcDbText
 10
96.282097
 20
268.5
 30
0.0
 40
5.0
  1
２０
 41
0.672
  7
EXCADSTD
 72
     5
 11
103.614897
 21
268.5
 31
0.0
100
AcDbText
  0
LINE
  5
307
100
AcDbEntity
  8
LAY-6
  6
CONTINUOUS
 62
     1
100
AcDbLine
 10
90.28209
 20
268.0
 30
0.0
 11
110.282105
 21
268.0
 31
0.0
  0
LINE
  5
308
100
AcDbEntity
  8
LAY-6
  6
CONTINUOUS
 62
     1
100
AcDbLine
 10
93.28209
 20
268.5
 30
0.0
 11
90.28209
 21
268.0
 31
0.0
  0
LINE
  5
309
100
AcDbEntity
  8
LAY-6
  6
CONTINUOUS
 62
     1
100
AcDbLine
 10
90.28209
 20
268.0
 30
0.0
 11
93.28209
 21
267.5
 31
0.0
  0
LINE
  5
30A
100
AcDbEntity
  8
LAY-6
  6
CONTINUOUS
 62
     1
100
AcDbLine
 10
107.282105
 20
267.5
 30
0.0
 11
110.282105
 21
268.0
 31
0.0
  0
LINE
  5
30B
100
AcDbEntity
  8
LAY-6
  6
CONTINUOUS
 62
     1
100
AcDbLine
 10
110.282105
 20
268.0
 30
0.0
 11
107.282105
 21
268.5
 31
0.0
  0
LINE
  5
30C
100
AcDbEntity
  8
LAY-6
  6
CONTINUOUS
 62
     1
100
AcDbLine
 10
140.282059
 20
242.5
 30
0.0
 11
140.282059
 21
269.5
 31
0.0
  0
TEXT
  5
30D
100
AcDbEntity
  8
LAY-6
  6
CONTINUOUS
 62
     2
100
AcDbText
 10
121.282082
 20
268.5
 30
0.0
 40
5.0
  1
３０
 41
0.672
  7
EXCADSTD
 72
     5
 11
128.614882
 21
268.5
 31
0.0
100
AcDbText
  0
LINE
  5
30E
100
AcDbEntity
  8
LAY-6
  6
CONTINUOUS
 62
     1
100
AcDbLine
 10
110.282105
 20
268.0
 30
0.0
 11
140.282059
 21
268.0
 31
0.0
  0
LINE
  5
30F
100
AcDbEntity
  8
LAY-6
  6
CONTINUOUS
 62
     1
100
AcDbLine
 10
113.282105
 20
268.5
 30
0.0
 11
110.282105
 21
268.0
 31
0.0
  0
LINE
  5
310
100
AcDbEntity
  8
LAY-6
  6
CONTINUOUS
 62
     1
100
AcDbLine
 10
110.282105
 20
268.0
 30
0.0
 11
113.282105
 21
267.5
 31
0.0
  0
LINE
  5
311
100
AcDbEntity
  8
LAY-6
  6
CONTINUOUS
 62
     1
100
AcDbLine
 10
137.282059
 20
267.5
 30
0.0
 11
140.282059
 21
268.0
 31
0.0
  0
LINE
  5
312
100
AcDbEntity
  8
LAY-6
  6
CONTINUOUS
 62
     1
100
AcDbLine
 10
140.282059
 20
268.0
 30
0.0
 11
137.282059
 21
268.5
 31
0.0
  0
LINE
  5
313
100
AcDbEntity
  8
LAY-6
  6
CONTINUOUS
 62
     1
100
AcDbLine
 10
160.28209
 20
255.4
 30
0.0
 11
160.28209
 21
269.5
 31
0.0
  0
TEXT
  5
314
100
AcDbEntity
  8
LAY-6
  6
CONTINUOUS
 62
     2
100
AcDbText
 10
146.282075
 20
268.5
 30
0.0
 40
5.0
  1
２０
 41
0.672
  7
EXCADSTD
 72
     5
 11
153.614875
 21
268.5
 31
0.0
100
AcDbText
  0
LINE
  5
315
100
AcDbEntity
  8
LAY-6
  6
CONTINUOUS
 62
     1
100
AcDbLine
 10
140.282059
 20
268.0
 30
0.0
 11
160.28209
 21
268.0
 31
0.0
  0
LINE
  5
316
100
AcDbEntity
  8
LAY-6
  6
CONTINUOUS
 62
     1
100
AcDbLine
 10
143.282059
 20
268.5
 30
0.0
 11
140.282059
 21
268.0
 31
0.0
  0
LINE
  5
317
100
AcDbEntity
  8
LAY-6
  6
CONTINUOUS
 62
     1
100
AcDbLine
 10
140.282059
 20
268.0
 30
0.0
 11
143.282059
 21
267.5
 31
0.0
  0
LINE
  5
318
100
AcDbEntity
  8
LAY-6
  6
CONTINUOUS
 62
     1
100
AcDbLine
 10
157.28209
 20
267.5
 30
0.0
 11
160.28209
 21
268.0
 31
0.0
  0
LINE
  5
319
100
AcDbEntity
  8
LAY-6
  6
CONTINUOUS
 62
     1
100
AcDbLine
 10
160.28209
 20
268.0
 30
0.0
 11
157.28209
 21
268.5
 31
0.0
  0
LINE
  5
31A
100
AcDbEntity
  8
LAY-6
  6
CONTINUOUS
 62
     1
100
AcDbLine
 10
160.28209
 20
269.5
 30
0.0
 11
160.28209
 21
266.5
 31
0.0
  0
LINE
  5
31B
100
AcDbEntity
  8
LAY-6
  6
CONTINUOUS
 62
     1
100
AcDbLine
 10
168.28209
 20
253.209641
 30
0.0
 11
168.28209
 21
269.5
 31
0.0
  0
LINE
  5
31C
100
AcDbEntity
  8
LAY-6
  6
CONTINUOUS
 62
     1
100
AcDbLine
 10
71.282093
 20
259.609656
 30
0.0
 11
71.282093
 21
278.8
 31
0.0
  0
LINE
  5
31D
100
AcDbEntity
  8
LAY-6
  6
CONTINUOUS
 62
     1
100
AcDbLine
 10
78.282082
 20
269.5
 30
0.0
 11
78.282082
 21
278.8
 31
0.0
  0
TEXT
  5
31E
100
AcDbEntity
  8
LAY-6
  6
CONTINUOUS
 62
     2
100
AcDbText
 10
72.782088
 20
277.8
 30
0.0
 40
5.0
  1
７
 41
0.672
  7
EXCADSTD
 72
     5
 11
75.982088
 21
277.8
 31
0.0
100
AcDbText
  0
LINE
  5
31F
100
AcDbEntity
  8
LAY-6
  6
CONTINUOUS
 62
     1
100
AcDbLine
 10
71.282093
 20
277.3
 30
0.0
 11
78.282082
 21
277.3
 31
0.0
  0
LINE
  5
320
100
AcDbEntity
  8
LAY-6
  6
CONTINUOUS
 62
     1
100
AcDbLine
 10
74.282093
 20
277.8
 30
0.0
 11
71.282093
 21
277.3
 31
0.0
  0
LINE
  5
321
100
AcDbEntity
  8
LAY-6
  6
CONTINUOUS
 62
     1
100
AcDbLine
 10
71.282093
 20
277.3
 30
0.0
 11
74.282093
 21
276.8
 31
0.0
  0
LINE
  5
322
100
AcDbEntity
  8
LAY-6
  6
CONTINUOUS
 62
     1
100
AcDbLine
 10
75.282082
 20
276.8
 30
0.0
 11
78.282082
 21
277.3
 31
0.0
  0
LINE
  5
323
100
AcDbEntity
  8
LAY-6
  6
CONTINUOUS
 62
     1
100
AcDbLine
 10
78.282082
 20
277.3
 30
0.0
 11
75.282082
 21
277.8
 31
0.0
  0
LINE
  5
324
100
AcDbEntity
  8
LAY-6
  6
CONTINUOUS
 62
     1
100
AcDbLine
 10
168.28209
 20
269.5
 30
0.0
 11
168.28209
 21
278.8
 31
0.0
  0
TEXT
  5
325
100
AcDbEntity
  8
LAY-6
  6
CONTINUOUS
 62
     2
100
AcDbText
 10
119.282086
 20
277.8
 30
0.0
 40
5.0
  1
９０
 41
0.672
  7
EXCADSTD
 72
     5
 11
126.614886
 21
277.8
 31
0.0
100
AcDbText
  0
LINE
  5
326
100
AcDbEntity
  8
LAY-6
  6
CONTINUOUS
 62
     1
100
AcDbLine
 10
78.282082
 20
277.3
 30
0.0
 11
168.28209
 21
277.3
 31
0.0
  0
LINE
  5
327
100
AcDbEntity
  8
LAY-6
  6
CONTINUOUS
 62
     1
100
AcDbLine
 10
81.282082
 20
277.8
 30
0.0
 11
78.282082
 21
277.3
 31
0.0
  0
LINE
  5
328
100
AcDbEntity
  8
LAY-6
  6
CONTINUOUS
 62
     1
100
AcDbLine
 10
78.282082
 20
277.3
 30
0.0
 11
81.282082
 21
276.8
 31
0.0
  0
LINE
  5
329
100
AcDbEntity
  8
LAY-6
  6
CONTINUOUS
 62
     1
100
AcDbLine
 10
165.28209
 20
276.8
 30
0.0
 11
168.28209
 21
277.3
 31
0.0
  0
LINE
  5
32A
100
AcDbEntity
  8
LAY-6
  6
CONTINUOUS
 62
     1
100
AcDbLine
 10
168.28209
 20
277.3
 30
0.0
 11
165.28209
 21
277.8
 31
0.0
  0
LINE
  5
32B
100
AcDbEntity
  8
LAY-6
  6
CONTINUOUS
 62
     1
100
AcDbLine
 10
114.388664
 20
196.209661
 30
0.0
 11
181.5
 21
196.209661
 31
0.0
  0
LINE
  5
32C
100
AcDbEntity
  8
LAY-6
  6
CONTINUOUS
 62
     1
100
AcDbLine
 10
217.6
 20
221.209656
 30
0.0
 11
178.5
 21
221.209656
 31
0.0
  0
TEXT
  5
32D
100
AcDbEntity
  8
LAY-6
  6
CONTINUOUS
 62
     2
100
AcDbText
 10
179.5
 20
204.709659
 30
0.0
 40
5.0
  1
２５
 50
90.0
 41
0.672
  7
EXCADSTD
 72
     5
 11
179.5
 21
212.042459
 31
0.0
100
AcDbText
  0
LINE
  5
32E
100
AcDbEntity
  8
LAY-6
  6
CONTINUOUS
 62
     1
100
AcDbLine
 10
180.0
 20
196.209661
 30
0.0
 11
180.0
 21
221.209656
 31
0.0
  0
LINE
  5
32F
100
AcDbEntity
  8
LAY-6
  6
CONTINUOUS
 62
     1
100
AcDbLine
 10
179.5
 20
199.209661
 30
0.0
 11
180.0
 21
196.209661
 31
0.0
  0
LINE
  5
330
100
AcDbEntity
  8
LAY-6
  6
CONTINUOUS
 62
     1
100
AcDbLine
 10
180.0
 20
196.209661
 30
0.0
 11
180.5
 21
199.209661
 31
0.0
  0
LINE
  5
331
100
AcDbEntity
  8
LAY-6
  6
CONTINUOUS
 62
     1
100
AcDbLine
 10
180.5
 20
218.209656
 30
0.0
 11
180.0
 21
221.209656
 31
0.0
  0
LINE
  5
332
100
AcDbEntity
  8
LAY-6
  6
CONTINUOUS
 62
     1
100
AcDbLine
 10
180.0
 20
221.209656
 30
0.0
 11
179.5
 21
218.209656
 31
0.0
  0
LINE
  5
333
100
AcDbEntity
  8
LAY-6
  6
CONTINUOUS
 62
     1
100
AcDbLine
 10
165.282074
 20
226.209671
 30
0.0
 11
181.5
 21
226.209671
 31
0.0
  0
TEXT
  5
334
100
AcDbEntity
  8
LAY-6
  6
CONTINUOUS
 62
     2
100
AcDbText
 10
179.6
 20
222.409663
 30
0.0
 40
5.0
  1
５
 50
90.0
 41
0.672
  7
EXCADSTD
 72
     5
 11
179.6
 21
225.609663
 31
0.0
100
AcDbText
  0
LINE
  5
335
100
AcDbEntity
  8
LAY-6
  6
CONTINUOUS
 62
     1
100
AcDbLine
 10
165.28209
 20
256.209641
 30
0.0
 11
181.5
 21
256.209641
 31
0.0
  0
TEXT
  5
336
100
AcDbEntity
  8
LAY-6
  6
CONTINUOUS
 62
     2
100
AcDbText
 10
179.5
 20
237.209656
 30
0.0
 40
5.0
  1
３０
 50
90.0
 41
0.672
  7
EXCADSTD
 72
     5
 11
179.5
 21
244.542456
 31
0.0
100
AcDbText
  0
LINE
  5
337
100
AcDbEntity
  8
LAY-6
  6
CONTINUOUS
 62
     1
100
AcDbLine
 10
180.0
 20
226.209671
 30
0.0
 11
180.0
 21
256.209641
 31
0.0
  0
LINE
  5
338
100
AcDbEntity
  8
LAY-6
  6
CONTINUOUS
 62
     1
100
AcDbLine
 10
179.5
 20
229.209671
 30
0.0
 11
180.0
 21
226.209671
 31
0.0
  0
LINE
  5
339
100
AcDbEntity
  8
LAY-6
  6
CONTINUOUS
 62
     1
100
AcDbLine
 10
180.0
 20
226.209671
 30
0.0
 11
180.5
 21
229.209671
 31
0.0
  0
LINE
  5
33A
100
AcDbEntity
  8
LAY-6
  6
CONTINUOUS
 62
     1
100
AcDbLine
 10
180.5
 20
253.209641
 30
0.0
 11
180.0
 21
256.209641
 31
0.0
  0
LINE
  5
33B
100
AcDbEntity
  8
LAY-6
  6
CONTINUOUS
 62
     1
100
AcDbLine
 10
180.0
 20
256.209641
 30
0.0
 11
179.5
 21
253.209641
 31
0.0
  0
LINE
  5
33C
100
AcDbEntity
  8
LAY-6
  6
CONTINUOUS
 62
     1
100
AcDbLine
 10
317.282074
 20
389.417275
 30
0.0
 11
317.282074
 21
393.0
 31
0.0
  0
LINE
  5
33D
100
AcDbEntity
  8
LAY-6
  6
CONTINUOUS
 62
     1
100
AcDbLine
 10
346.282059
 20
394.446358
 30
0.0
 11
346.282059
 21
390.0
 31
0.0
  0
TEXT
  5
33E
100
AcDbEntity
  8
LAY-6
  6
CONTINUOUS
 62
     2
100
AcDbText
 10
332.382067
 20
392.4
 30
0.0
 40
5.0
  1
２９
 41
0.672
  7
EXCADSTD
 72
     5
 11
339.714867
 21
392.4
 31
0.0
100
AcDbText
  0
LINE
  5
33F
100
AcDbEntity
  8
LAY-6
  6
CONTINUOUS
 62
     1
100
AcDbLine
 10
317.282074
 20
391.5
 30
0.0
 11
346.282059
 21
391.5
 31
0.0
  0
LINE
  5
340
100
AcDbEntity
  8
LAY-6
  6
CONTINUOUS
 62
     1
100
AcDbLine
 10
320.282074
 20
392.0
 30
0.0
 11
317.282074
 21
391.5
 31
0.0
  0
LINE
  5
341
100
AcDbEntity
  8
LAY-6
  6
CONTINUOUS
 62
     1
100
AcDbLine
 10
317.282074
 20
391.5
 30
0.0
 11
320.282074
 21
391.0
 31
0.0
  0
LINE
  5
342
100
AcDbEntity
  8
LAY-6
  6
CONTINUOUS
 62
     1
100
AcDbLine
 10
343.282059
 20
391.0
 30
0.0
 11
346.282059
 21
391.5
 31
0.0
  0
LINE
  5
343
100
AcDbEntity
  8
LAY-6
  6
CONTINUOUS
 62
     1
100
AcDbLine
 10
346.282059
 20
391.5
 30
0.0
 11
343.282059
 21
392.0
 31
0.0
  0
LINE
  5
344
100
AcDbEntity
  8
LAY-6
  6
CONTINUOUS
 62
     1
100
AcDbLine
 10
310.282068
 20
391.546389
 30
0.0
 11
310.282068
 21
409.8
 31
0.0
  0
TEXT
  5
345
100
AcDbEntity
  8
LAY-6
  6
CONTINUOUS
 62
     2
100
AcDbText
 10
301.982059
 20
408.2
 30
0.0
 40
5.0
  1
１１
 41
0.672
  7
EXCADSTD
 72
     5
 11
309.314859
 21
408.2
 31
0.0
100
AcDbText
  0
LINE
  5
346
100
AcDbEntity
  8
LAY-6
  6
CONTINUOUS
 62
     1
100
AcDbLine
 10
310.282068
 20
408.3
 30
0.0
 11
321.282051
 21
408.3
 31
0.0
  0
LINE
  5
347
100
AcDbEntity
  8
LAY-6
  6
CONTINUOUS
 62
     1
100
AcDbLine
 10
313.282068
 20
408.8
 30
0.0
 11
310.282068
 21
408.3
 31
0.0
  0
LINE
  5
348
100
AcDbEntity
  8
LAY-6
  6
CONTINUOUS
 62
     1
100
AcDbLine
 10
310.282068
 20
408.3
 30
0.0
 11
313.282068
 21
407.8
 31
0.0
  0
LINE
  5
349
100
AcDbEntity
  8
LAY-6
  6
CONTINUOUS
 62
     1
100
AcDbLine
 10
318.282051
 20
407.8
 30
0.0
 11
321.282051
 21
408.3
 31
0.0
  0
LINE
  5
34A
100
AcDbEntity
  8
LAY-6
  6
CONTINUOUS
 62
     1
100
AcDbLine
 10
321.282051
 20
408.3
 30
0.0
 11
318.282051
 21
408.8
 31
0.0
  0
LINE
  5
34B
100
AcDbEntity
  8
LAY-6
  6
CONTINUOUS
 62
     1
100
AcDbLine
 10
317.282067
 20
414.946358
 30
0.0
 11
317.282067
 21
437.2
 31
0.0
  0
LINE
  5
34C
100
AcDbEntity
  8
LAY-6
  6
CONTINUOUS
 62
     1
100
AcDbLine
 10
329.28207
 20
411.899989
 30
0.0
 11
329.28207
 21
437.2
 31
0.0
  0
TEXT
  5
34D
100
AcDbEntity
  8
LAY-6
  6
CONTINUOUS
 62
     2
100
AcDbText
 10
319.282069
 20
436.2
 30
0.0
 40
5.0
  1
１２
 41
0.672
  7
EXCADSTD
 72
     5
 11
326.614869
 21
436.2
 31
0.0
100
AcDbText
  0
LINE
  5
34E
100
AcDbEntity
  8
LAY-6
  6
CONTINUOUS
 62
     1
100
AcDbLine
 10
317.282067
 20
435.7
 30
0.0
 11
329.28207
 21
435.7
 31
0.0
  0
LINE
  5
34F
100
AcDbEntity
  8
LAY-6
  6
CONTINUOUS
 62
     1
100
AcDbLine
 10
320.282067
 20
436.2
 30
0.0
 11
317.282067
 21
435.7
 31
0.0
  0
LINE
  5
350
100
AcDbEntity
  8
LAY-6
  6
CONTINUOUS
 62
     1
100
AcDbLine
 10
317.282067
 20
435.7
 30
0.0
 11
320.282067
 21
435.2
 31
0.0
  0
LINE
  5
351
100
AcDbEntity
  8
LAY-6
  6
CONTINUOUS
 62
     1
100
AcDbLine
 10
326.28207
 20
435.2
 30
0.0
 11
329.28207
 21
435.7
 31
0.0
  0
LINE
  5
352
100
AcDbEntity
  8
LAY-6
  6
CONTINUOUS
 62
     1
100
AcDbLine
 10
329.28207
 20
435.7
 30
0.0
 11
326.28207
 21
436.2
 31
0.0
  0
LINE
  5
353
100
AcDbEntity
  8
LAY-6
  6
CONTINUOUS
 62
     1
100
AcDbLine
 10
349.282044
 20
425.699981
 30
0.0
 11
349.282044
 21
437.2
 31
0.0
  0
TEXT
  5
354
100
AcDbEntity
  8
LAY-6
  6
CONTINUOUS
 62
     2
100
AcDbText
 10
335.282057
 20
436.2
 30
0.0
 40
5.0
  1
２０
 41
0.672
  7
EXCADSTD
 72
     5
 11
342.614857
 21
436.2
 31
0.0
100
AcDbText
  0
LINE
  5
355
100
AcDbEntity
  8
LAY-6
  6
CONTINUOUS
 62
     1
100
AcDbLine
 10
329.28207
 20
435.7
 30
0.0
 11
349.282044
 21
435.7
 31
0.0
  0
LINE
  5
356
100
AcDbEntity
  8
LAY-6
  6
CONTINUOUS
 62
     1
100
AcDbLine
 10
332.28207
 20
436.2
 30
0.0
 11
329.28207
 21
435.7
 31
0.0
  0
LINE
  5
357
100
AcDbEntity
  8
LAY-6
  6
CONTINUOUS
 62
     1
100
AcDbLine
 10
329.28207
 20
435.7
 30
0.0
 11
332.28207
 21
435.2
 31
0.0
  0
LINE
  5
358
100
AcDbEntity
  8
LAY-6
  6
CONTINUOUS
 62
     1
100
AcDbLine
 10
346.282044
 20
435.2
 30
0.0
 11
349.282044
 21
435.7
 31
0.0
  0
LINE
  5
359
100
AcDbEntity
  8
LAY-6
  6
CONTINUOUS
 62
     1
100
AcDbLine
 10
349.282044
 20
435.7
 30
0.0
 11
346.282044
 21
436.2
 31
0.0
  0
LINE
  5
35A
100
AcDbEntity
  8
LAY-6
  6
CONTINUOUS
 62
     1
100
AcDbLine
 10
379.282044
 20
411.9
 30
0.0
 11
379.282044
 21
437.2
 31
0.0
  0
TEXT
  5
35B
100
AcDbEntity
  8
LAY-6
  6
CONTINUOUS
 62
     2
100
AcDbText
 10
360.282044
 20
436.2
 30
0.0
 40
5.0
  1
３０
 41
0.672
  7
EXCADSTD
 72
     5
 11
367.614844
 21
436.2
 31
0.0
100
AcDbText
  0
LINE
  5
35C
100
AcDbEntity
  8
LAY-6
  6
CONTINUOUS
 62
     1
100
AcDbLine
 10
349.282044
 20
435.7
 30
0.0
 11
379.282044
 21
435.7
 31
0.0
  0
LINE
  5
35D
100
AcDbEntity
  8
LAY-6
  6
CONTINUOUS
 62
     1
100
AcDbLine
 10
352.282044
 20
436.2
 30
0.0
 11
349.282044
 21
435.7
 31
0.0
  0
LINE
  5
35E
100
AcDbEntity
  8
LAY-6
  6
CONTINUOUS
 62
     1
100
AcDbLine
 10
349.282044
 20
435.7
 30
0.0
 11
352.282044
 21
435.2
 31
0.0
  0
LINE
  5
35F
100
AcDbEntity
  8
LAY-6
  6
CONTINUOUS
 62
     1
100
AcDbLine
 10
376.282044
 20
435.2
 30
0.0
 11
379.282044
 21
435.7
 31
0.0
  0
LINE
  5
360
100
AcDbEntity
  8
LAY-6
  6
CONTINUOUS
 62
     1
100
AcDbLine
 10
379.282044
 20
435.7
 30
0.0
 11
376.282044
 21
436.2
 31
0.0
  0
LINE
  5
361
100
AcDbEntity
  8
LAY-6
  6
CONTINUOUS
 62
     1
100
AcDbLine
 10
399.282059
 20
425.7
 30
0.0
 11
399.282059
 21
437.2
 31
0.0
  0
TEXT
  5
362
100
AcDbEntity
  8
LAY-6
  6
CONTINUOUS
 62
     2
100
AcDbText
 10
385.282052
 20
436.2
 30
0.0
 40
5.0
  1
２０
 41
0.672
  7
EXCADSTD
 72
     5
 11
392.614852
 21
436.2
 31
0.0
100
AcDbText
  0
LINE
  5
363
100
AcDbEntity
  8
LAY-6
  6
CONTINUOUS
 62
     1
100
AcDbLine
 10
379.282044
 20
435.7
 30
0.0
 11
399.282059
 21
435.7
 31
0.0
  0
LINE
  5
364
100
AcDbEntity
  8
LAY-6
  6
CONTINUOUS
 62
     1
100
AcDbLine
 10
382.282044
 20
436.2
 30
0.0
 11
379.282044
 21
435.7
 31
0.0
  0
LINE
  5
365
100
AcDbEntity
  8
LAY-6
  6
CONTINUOUS
 62
     1
100
AcDbLine
 10
379.282044
 20
435.7
 30
0.0
 11
382.282044
 21
435.2
 31
0.0
  0
LINE
  5
366
100
AcDbEntity
  8
LAY-6
  6
CONTINUOUS
 62
     1
100
AcDbLine
 10
396.282059
 20
435.2
 30
0.0
 11
399.282059
 21
435.7
 31
0.0
  0
LINE
  5
367
100
AcDbEntity
  8
LAY-6
  6
CONTINUOUS
 62
     1
100
AcDbLine
 10
399.282059
 20
435.7
 30
0.0
 11
396.282059
 21
436.2
 31
0.0
  0
LINE
  5
368
100
AcDbEntity
  8
LAY-6
  6
CONTINUOUS
 62
     1
100
AcDbLine
 10
321.282051
 20
409.8
 30
0.0
 11
321.282051
 21
406.8
 31
0.0
  0
LINE
  5
369
100
AcDbEntity
  8
LAY-6
  6
CONTINUOUS
 62
     1
100
AcDbLine
 10
310.282068
 20
428.346389
 30
0.0
 11
310.282068
 21
446.9
 31
0.0
  0
LINE
  5
36A
100
AcDbEntity
  8
LAY-6
  6
CONTINUOUS
 62
     1
100
AcDbLine
 10
317.282067
 20
437.2
 30
0.0
 11
317.282067
 21
446.9
 31
0.0
  0
TEXT
  5
36B
100
AcDbEntity
  8
LAY-6
  6
CONTINUOUS
 62
     2
100
AcDbText
 10
311.782067
 20
445.9
 30
0.0
 40
5.0
  1
７
 41
0.672
  7
EXCADSTD
 72
     5
 11
314.982067
 21
445.9
 31
0.0
100
AcDbText
  0
LINE
  5
36C
100
AcDbEntity
  8
LAY-6
  6
CONTINUOUS
 62
     1
100
AcDbLine
 10
310.282068
 20
445.4
 30
0.0
 11
317.282067
 21
445.4
 31
0.0
  0
LINE
  5
36D
100
AcDbEntity
  8
LAY-6
  6
CONTINUOUS
 62
     1
100
AcDbLine
 10
313.282068
 20
445.9
 30
0.0
 11
310.282068
 21
445.4
 31
0.0
  0
LINE
  5
36E
100
AcDbEntity
  8
LAY-6
  6
CONTINUOUS
 62
     1
100
AcDbLine
 10
310.282068
 20
445.4
 30
0.0
 11
313.282068
 21
444.9
 31
0.0
  0
LINE
  5
36F
100
AcDbEntity
  8
LAY-6
  6
CONTINUOUS
 62
     1
100
AcDbLine
 10
314.282067
 20
444.9
 30
0.0
 11
317.282067
 21
445.4
 31
0.0
  0
LINE
  5
370
100
AcDbEntity
  8
LAY-6
  6
CONTINUOUS
 62
     1
100
AcDbLine
 10
317.282067
 20
445.4
 30
0.0
 11
314.282067
 21
445.9
 31
0.0
  0
LINE
  5
371
100
AcDbEntity
  8
LAY-6
  6
CONTINUOUS
 62
     1
100
AcDbLine
 10
407.282059
 20
421.946327
 30
0.0
 11
407.282059
 21
446.9
 31
0.0
  0
TEXT
  5
372
100
AcDbEntity
  8
LAY-6
  6
CONTINUOUS
 62
     2
100
AcDbText
 10
358.282063
 20
445.9
 30
0.0
 40
5.0
  1
９０
 41
0.672
  7
EXCADSTD
 72
     5
 11
365.614863
 21
445.9
 31
0.0
100
AcDbText
  0
LINE
  5
373
100
AcDbEntity
  8
LAY-6
  6
CONTINUOUS
 62
     1
100
AcDbLine
 10
317.282067
 20
445.4
 30
0.0
 11
407.282059
 21
445.4
 31
0.0
  0
LINE
  5
374
100
AcDbEntity
  8
LAY-6
  6
CONTINUOUS
 62
     1
100
AcDbLine
 10
320.282067
 20
445.9
 30
0.0
 11
317.282067
 21
445.4
 31
0.0
  0
LINE
  5
375
100
AcDbEntity
  8
LAY-6
  6
CONTINUOUS
 62
     1
100
AcDbLine
 10
317.282067
 20
445.4
 30
0.0
 11
320.282067
 21
444.9
 31
0.0
  0
LINE
  5
376
100
AcDbEntity
  8
LAY-6
  6
CONTINUOUS
 62
     1
100
AcDbLine
 10
404.282059
 20
444.9
 30
0.0
 11
407.282059
 21
445.4
 31
0.0
  0
LINE
  5
377
100
AcDbEntity
  8
LAY-6
  6
CONTINUOUS
 62
     1
100
AcDbLine
 10
407.282059
 20
445.4
 30
0.0
 11
404.282059
 21
445.9
 31
0.0
  0
LINE
  5
378
100
AcDbEntity
  8
LAY-6
  6
CONTINUOUS
 62
     1
100
AcDbLine
 10
404.282059
 20
394.946358
 30
0.0
 11
390.2
 21
394.946358
 31
0.0
  0
LINE
  5
379
100
AcDbEntity
  8
LAY-6
  6
CONTINUOUS
 62
     1
100
AcDbLine
 10
388.2
 20
402.946358
 30
0.0
 11
393.2
 21
402.946358
 31
0.0
  0
TEXT
  5
37A
100
AcDbEntity
  8
LAY-6
  6
CONTINUOUS
 62
     2
100
AcDbText
 10
391.2
 20
396.946358
 30
0.0
 40
5.0
  1
８
 50
90.0
 41
0.672
  7
EXCADSTD
 72
     5
 11
391.2
 21
400.146358
 31
0.0
100
AcDbText
  0
LINE
  5
37B
100
AcDbEntity
  8
LAY-6
  6
CONTINUOUS
 62
     1
100
AcDbLine
 10
391.7
 20
394.946358
 30
0.0
 11
391.7
 21
402.946358
 31
0.0
  0
LINE
  5
37C
100
AcDbEntity
  8
LAY-6
  6
CONTINUOUS
 62
     1
100
AcDbLine
 10
391.2
 20
397.946358
 30
0.0
 11
391.7
 21
394.946358
 31
0.0
  0
LINE
  5
37D
100
AcDbEntity
  8
LAY-6
  6
CONTINUOUS
 62
     1
100
AcDbLine
 10
391.7
 20
394.946358
 30
0.0
 11
392.2
 21
397.946358
 31
0.0
  0
LINE
  5
37E
100
AcDbEntity
  8
LAY-6
  6
CONTINUOUS
 62
     1
100
AcDbLine
 10
392.2
 20
399.946358
 30
0.0
 11
391.7
 21
402.946358
 31
0.0
  0
LINE
  5
37F
100
AcDbEntity
  8
LAY-6
  6
CONTINUOUS
 62
     1
100
AcDbLine
 10
391.7
 20
402.946358
 30
0.0
 11
391.2
 21
399.946358
 31
0.0
  0
LINE
  5
380
100
AcDbEntity
  8
LAY-6
  6
CONTINUOUS
 62
     1
100
AcDbLine
 10
391.282059
 20
416.946389
 30
0.0
 11
393.2
 21
416.946389
 31
0.0
  0
TEXT
  5
381
100
AcDbEntity
  8
LAY-6
  6
CONTINUOUS
 62
     2
100
AcDbText
 10
391.2
 20
405.946373
 30
0.0
 40
5.0
  1
１４
 50
90.0
 41
0.672
  7
EXCADSTD
 72
     5
 11
391.2
 21
413.279174
 31
0.0
100
AcDbText
  0
LINE
  5
382
100
AcDbEntity
  8
LAY-6
  6
CONTINUOUS
 62
     1
100
AcDbLine
 10
391.7
 20
402.946358
 30
0.0
 11
391.7
 21
416.946389
 31
0.0
  0
LINE
  5
383
100
AcDbEntity
  8
LAY-6
  6
CONTINUOUS
 62
     1
100
AcDbLine
 10
391.2
 20
405.946358
 30
0.0
 11
391.7
 21
402.946358
 31
0.0
  0
LINE
  5
384
100
AcDbEntity
  8
LAY-6
  6
CONTINUOUS
 62
     1
100
AcDbLine
 10
391.7
 20
402.946358
 30
0.0
 11
392.2
 21
405.946358
 31
0.0
  0
LINE
  5
385
100
AcDbEntity
  8
LAY-6
  6
CONTINUOUS
 62
     1
100
AcDbLine
 10
392.2
 20
413.946389
 30
0.0
 11
391.7
 21
416.946389
 31
0.0
  0
LINE
  5
386
100
AcDbEntity
  8
LAY-6
  6
CONTINUOUS
 62
     1
100
AcDbLine
 10
391.7
 20
416.946389
 30
0.0
 11
391.2
 21
413.946389
 31
0.0
  0
LINE
  5
387
100
AcDbEntity
  8
LAY-6
  6
CONTINUOUS
 62
     1
100
AcDbLine
 10
353.388639
 20
364.946394
 30
0.0
 11
419.6
 21
364.946394
 31
0.0
  0
LINE
  5
388
100
AcDbEntity
  8
LAY-6
  6
CONTINUOUS
 62
     1
100
AcDbLine
 10
450.5
 20
389.946389
 30
0.0
 11
416.6
 21
389.946389
 31
0.0
  0
TEXT
  5
389
100
AcDbEntity
  8
LAY-6
  6
CONTINUOUS
 62
     2
100
AcDbText
 10
417.6
 20
373.446392
 30
0.0
 40
5.0
  1
２５
 50
90.0
 41
0.672
  7
EXCADSTD
 72
     5
 11
417.6
 21
380.779192
 31
0.0
100
AcDbText
  0
LINE
  5
38A
100
AcDbEntity
  8
LAY-6
  6
CONTINUOUS
 62
     1
100
AcDbLine
 10
418.1
 20
364.946394
 30
0.0
 11
418.1
 21
389.946389
 31
0.0
  0
LINE
  5
38B
100
AcDbEntity
  8
LAY-6
  6
CONTINUOUS
 62
     1
100
AcDbLine
 10
417.6
 20
367.946394
 30
0.0
 11
418.1
 21
364.946394
 31
0.0
  0
LINE
  5
38C
100
AcDbEntity
  8
LAY-6
  6
CONTINUOUS
 62
     1
100
AcDbLine
 10
418.1
 20
364.946394
 30
0.0
 11
418.6
 21
367.946394
 31
0.0
  0
LINE
  5
38D
100
AcDbEntity
  8
LAY-6
  6
CONTINUOUS
 62
     1
100
AcDbLine
 10
418.6
 20
386.946389
 30
0.0
 11
418.1
 21
389.946389
 31
0.0
  0
LINE
  5
38E
100
AcDbEntity
  8
LAY-6
  6
CONTINUOUS
 62
     1
100
AcDbLine
 10
418.1
 20
389.946389
 30
0.0
 11
417.6
 21
386.946389
 31
0.0
  0
LINE
  5
38F
100
AcDbEntity
  8
LAY-6
  6
CONTINUOUS
 62
     1
100
AcDbLine
 10
404.282059
 20
394.946358
 30
0.0
 11
419.6
 21
394.946358
 31
0.0
  0
TEXT
  5
390
100
AcDbEntity
  8
LAY-6
  6
CONTINUOUS
 62
     2
100
AcDbText
 10
417.6
 20
391.346374
 30
0.0
 40
5.0
  1
５
 50
90.0
 41
0.672
  7
EXCADSTD
 72
     5
 11
417.6
 21
394.546374
 31
0.0
100
AcDbText
  0
LINE
  5
391
100
AcDbEntity
  8
LAY-6
  6
CONTINUOUS
 62
     1
100
AcDbLine
 10
404.282058
 20
424.946328
 30
0.0
 11
419.6
 21
424.946328
 31
0.0
  0
TEXT
  5
392
100
AcDbEntity
  8
LAY-6
  6
CONTINUOUS
 62
     2
100
AcDbText
 10
417.6
 20
405.946343
 30
0.0
 40
5.0
  1
３０
 50
90.0
 41
0.672
  7
EXCADSTD
 72
     5
 11
417.6
 21
413.279143
 31
0.0
100
AcDbText
  0
LINE
  5
393
100
AcDbEntity
  8
LAY-6
  6
CONTINUOUS
 62
     1
100
AcDbLine
 10
418.1
 20
394.946358
 30
0.0
 11
418.1
 21
424.946328
 31
0.0
  0
LINE
  5
394
100
AcDbEntity
  8
LAY-6
  6
CONTINUOUS
 62
     1
100
AcDbLine
 10
417.6
 20
397.946358
 30
0.0
 11
418.1
 21
394.946358
 31
0.0
  0
LINE
  5
395
100
AcDbEntity
  8
LAY-6
  6
CONTINUOUS
 62
     1
100
AcDbLine
 10
418.1
 20
394.946358
 30
0.0
 11
418.6
 21
397.946358
 31
0.0
  0
LINE
  5
396
100
AcDbEntity
  8
LAY-6
  6
CONTINUOUS
 62
     1
100
AcDbLine
 10
418.6
 20
421.946328
 30
0.0
 11
418.1
 21
424.946328
 31
0.0
  0
LINE
  5
397
100
AcDbEntity
  8
LAY-6
  6
CONTINUOUS
 62
     1
100
AcDbLine
 10
418.1
 20
424.946328
 30
0.0
 11
417.6
 21
421.946328
 31
0.0
  0
LINE
  5
398
100
AcDbEntity
  8
LAY-6
  6
CONTINUOUS
 62
     1
100
AcDbLine
 10
307.282082
 20
220.50964
 30
0.0
 11
307.282082
 21
170.093
 31
0.0
  0
LINE
  5
399
100
AcDbEntity
  8
LAY-6
  6
CONTINUOUS
 62
     1
100
AcDbLine
 10
292.278144
 20
190.23259
 30
0.0
 11
292.278144
 21
170.093
 31
0.0
  0
TEXT
  5
39A
100
AcDbEntity
  8
LAY-6
  6
CONTINUOUS
 62
     2
100
AcDbText
 10
295.780113
 20
172.093
 30
0.0
 40
5.0
  1
１５
 41
0.672
  7
EXCADSTD
 72
     5
 11
303.112913
 21
172.093
 31
0.0
100
AcDbText
  0
LINE
  5
39B
100
AcDbEntity
  8
LAY-6
  6
CONTINUOUS
 62
     1
100
AcDbLine
 10
307.282082
 20
171.593
 30
0.0
 11
292.278144
 21
171.593
 31
0.0
  0
LINE
  5
39C
100
AcDbEntity
  8
LAY-6
  6
CONTINUOUS
 62
     1
100
AcDbLine
 10
304.282082
 20
171.093
 30
0.0
 11
307.282082
 21
171.593
 31
0.0
  0
LINE
  5
39D
100
AcDbEntity
  8
LAY-6
  6
CONTINUOUS
 62
     1
100
AcDbLine
 10
307.282082
 20
171.593
 30
0.0
 11
304.282082
 21
172.093
 31
0.0
  0
LINE
  5
39E
100
AcDbEntity
  8
LAY-6
  6
CONTINUOUS
 62
     1
100
AcDbLine
 10
295.278144
 20
172.093
 30
0.0
 11
292.278144
 21
171.593
 31
0.0
  0
LINE
  5
39F
100
AcDbEntity
  8
LAY-6
  6
CONTINUOUS
 62
     1
100
AcDbLine
 10
292.278144
 20
171.593
 30
0.0
 11
295.278144
 21
171.093
 31
0.0
  0
LINE
  5
3A0
100
AcDbEntity
  8
LAY-6
  6
CONTINUOUS
 62
     1
100
AcDbLine
 10
300.782067
 20
246.20964
 30
0.0
 11
300.782067
 21
254.893
 31
0.0
  0
LINE
  5
3A1
100
AcDbEntity
  8
LAY-6
  6
CONTINUOUS
 62
     1
100
AcDbLine
 10
307.282082
 20
263.20964
 30
0.0
 11
307.282082
 21
251.893
 31
0.0
  0
TEXT
  5
3A2
100
AcDbEntity
  8
LAY-6
  6
CONTINUOUS
 62
     2
100
AcDbText
 10
284.232075
 20
253.693
 30
0.0
 40
5.0
  1
６.５
 41
0.595556
  7
EXCADSTD
 72
     5
 11
294.232075
 21
253.693
 31
0.0
100
AcDbText
  0
LINE
  5
3A3
100
AcDbEntity
  8
LAY-6
  6
CONTINUOUS
 62
     1
100
AcDbLine
 10
295.782067
 20
253.393
 30
0.0
 11
300.782067
 21
253.393
 31
0.0
  0
LINE
  5
3A4
100
AcDbEntity
  8
LAY-6
  6
CONTINUOUS
 62
     1
100
AcDbLine
 10
307.282082
 20
253.393
 30
0.0
 11
312.282082
 21
253.393
 31
0.0
  0
LINE
  5
3A5
100
AcDbEntity
  8
LAY-6
  6
CONTINUOUS
 62
     1
100
AcDbLine
 10
297.782067
 20
252.893
 30
0.0
 11
300.782067
 21
253.393
 31
0.0
  0
LINE
  5
3A6
100
AcDbEntity
  8
LAY-6
  6
CONTINUOUS
 62
     1
100
AcDbLine
 10
300.782067
 20
253.393
 30
0.0
 11
297.782067
 21
253.893
 31
0.0
  0
LINE
  5
3A7
100
AcDbEntity
  8
LAY-6
  6
CONTINUOUS
 62
     1
100
AcDbLine
 10
310.282082
 20
253.893
 30
0.0
 11
307.282082
 21
253.393
 31
0.0
  0
LINE
  5
3A8
100
AcDbEntity
  8
LAY-6
  6
CONTINUOUS
 62
     1
100
AcDbLine
 10
307.282082
 20
253.393
 30
0.0
 11
310.282082
 21
252.893
 31
0.0
  0
LINE
  5
3A9
100
AcDbEntity
  8
LAY-6
  6
CONTINUOUS
 62
     1
100
AcDbLine
 10
321.282074
 20
216.78212
 30
0.0
 11
321.282074
 21
254.893
 31
0.0
  0
TEXT
  5
3AA
100
AcDbEntity
  8
LAY-6
  6
CONTINUOUS
 62
     2
100
AcDbText
 10
310.282078
 20
253.893
 30
0.0
 40
5.0
  1
１４
 41
0.672
  7
EXCADSTD
 72
     5
 11
317.614878
 21
253.893
 31
0.0
100
AcDbText
  0
LINE
  5
3AB
100
AcDbEntity
  8
LAY-6
  6
CONTINUOUS
 62
     1
100
AcDbLine
 10
307.282082
 20
253.393
 30
0.0
 11
321.282074
 21
253.393
 31
0.0
  0
LINE
  5
3AC
100
AcDbEntity
  8
LAY-6
  6
CONTINUOUS
 62
     1
100
AcDbLine
 10
310.282082
 20
253.893
 30
0.0
 11
307.282082
 21
253.393
 31
0.0
  0
LINE
  5
3AD
100
AcDbEntity
  8
LAY-6
  6
CONTINUOUS
 62
     1
100
AcDbLine
 10
307.282082
 20
253.393
 30
0.0
 11
310.282082
 21
252.893
 31
0.0
  0
LINE
  5
3AE
100
AcDbEntity
  8
LAY-6
  6
CONTINUOUS
 62
     1
100
AcDbLine
 10
318.282074
 20
252.893
 30
0.0
 11
321.282074
 21
253.393
 31
0.0
  0
LINE
  5
3AF
100
AcDbEntity
  8
LAY-6
  6
CONTINUOUS
 62
     1
100
AcDbLine
 10
321.282074
 20
253.393
 30
0.0
 11
318.282074
 21
253.893
 31
0.0
  0
LINE
  5
3B0
100
AcDbEntity
  8
LAY-6
  6
CONTINUOUS
 62
     1
100
AcDbLine
 10
294.782067
 20
246.20964
 30
0.0
 11
294.782067
 21
272.193
 31
0.0
  0
LINE
  5
3B1
100
AcDbEntity
  8
LAY-6
  6
CONTINUOUS
 62
     1
100
AcDbLine
 10
300.782067
 20
246.20964
 30
0.0
 11
300.782067
 21
272.193
 31
0.0
  0
TEXT
  5
3B2
100
AcDbEntity
  8
LAY-6
  6
CONTINUOUS
 62
     2
100
AcDbText
 10
295.782067
 20
271.193
 30
0.0
 40
5.0
  1
６
 41
0.672
  7
EXCADSTD
 72
     5
 11
298.982067
 21
271.193
 31
0.0
100
AcDbText
  0
LINE
  5
3B3
100
AcDbEntity
  8
LAY-6
  6
CONTINUOUS
 62
     1
100
AcDbLine
 10
289.782067
 20
270.693
 30
0.0
 11
294.782067
 21
270.693
 31
0.0
  0
LINE
  5
3B4
100
AcDbEntity
  8
LAY-6
  6
CONTINUOUS
 62
     1
100
AcDbLine
 10
300.782067
 20
270.693
 30
0.0
 11
305.782067
 21
270.693
 31
0.0
  0
LINE
  5
3B5
100
AcDbEntity
  8
LAY-6
  6
CONTINUOUS
 62
     1
100
AcDbLine
 10
291.782067
 20
270.193
 30
0.0
 11
294.782067
 21
270.693
 31
0.0
  0
LINE
  5
3B6
100
AcDbEntity
  8
LAY-6
  6
CONTINUOUS
 62
     1
100
AcDbLine
 10
294.782067
 20
270.693
 30
0.0
 11
291.782067
 21
271.193
 31
0.0
  0
LINE
  5
3B7
100
AcDbEntity
  8
LAY-6
  6
CONTINUOUS
 62
     1
100
AcDbLine
 10
303.782067
 20
271.193
 30
0.0
 11
300.782067
 21
270.693
 31
0.0
  0
LINE
  5
3B8
100
AcDbEntity
  8
LAY-6
  6
CONTINUOUS
 62
     1
100
AcDbLine
 10
300.782067
 20
270.693
 30
0.0
 11
303.782067
 21
270.193
 31
0.0
  0
LINE
  5
3B9
100
AcDbEntity
  8
LAY-6
  6
CONTINUOUS
 62
     1
100
AcDbLine
 10
321.282074
 20
254.893
 30
0.0
 11
321.282074
 21
272.193
 31
0.0
  0
TEXT
  5
3BA
100
AcDbEntity
  8
LAY-6
  6
CONTINUOUS
 62
     2
100
AcDbText
 10
304.032071
 20
271.193
 30
0.0
 40
5.0
  1
２０.５
 41
0.616
  7
EXCADSTD
 72
     5
 11
318.032071
 21
271.193
 31
0.0
100
AcDbText
  0
LINE
  5
3BB
100
AcDbEntity
  8
LAY-6
  6
CONTINUOUS
 62
     1
100
AcDbLine
 10
300.782067
 20
270.693
 30
0.0
 11
321.282074
 21
270.693
 31
0.0
  0
LINE
  5
3BC
100
AcDbEntity
  8
LAY-6
  6
CONTINUOUS
 62
     1
100
AcDbLine
 10
303.782067
 20
271.193
 30
0.0
 11
300.782067
 21
270.693
 31
0.0
  0
LINE
  5
3BD
100
AcDbEntity
  8
LAY-6
  6
CONTINUOUS
 62
     1
100
AcDbLine
 10
300.782067
 20
270.693
 30
0.0
 11
303.782067
 21
270.193
 31
0.0
  0
LINE
  5
3BE
100
AcDbEntity
  8
LAY-6
  6
CONTINUOUS
 62
     1
100
AcDbLine
 10
318.282074
 20
270.193
 30
0.0
 11
321.282074
 21
270.693
 31
0.0
  0
LINE
  5
3BF
100
AcDbEntity
  8
LAY-6
  6
CONTINUOUS
 62
     1
100
AcDbLine
 10
321.282074
 20
270.693
 30
0.0
 11
318.282074
 21
271.193
 31
0.0
  0
LINE
  5
3C0
100
AcDbEntity
  8
LAY-6
  6
CONTINUOUS
 62
     1
100
AcDbLine
 10
292.278144
 20
190.23259
 30
0.0
 11
273.6
 21
190.23259
 31
0.0
  0
LINE
  5
3C1
100
AcDbEntity
  8
LAY-6
  6
CONTINUOUS
 62
     1
100
AcDbLine
 10
288.498696
 20
196.20964
 30
0.0
 11
273.6
 21
196.20964
 31
0.0
  0
TEXT
  5
3C2
100
AcDbEntity
  8
LAY-6
  6
CONTINUOUS
 62
     2
100
AcDbText
 10
274.6
 20
191.221115
 30
0.0
 40
5.0
  1
６
 50
90.0
 41
0.672
  7
EXCADSTD
 72
     5
 11
274.6
 21
194.421115
 31
0.0
100
AcDbText
  0
LINE
  5
3C3
100
AcDbEntity
  8
LAY-6
  6
CONTINUOUS
 62
     1
100
AcDbLine
 10
275.1
 20
185.23259
 30
0.0
 11
275.1
 21
190.23259
 31
0.0
  0
LINE
  5
3C4
100
AcDbEntity
  8
LAY-6
  6
CONTINUOUS
 62
     1
100
AcDbLine
 10
275.1
 20
196.20964
 30
0.0
 11
275.1
 21
201.20964
 31
0.0
  0
LINE
  5
3C5
100
AcDbEntity
  8
LAY-6
  6
CONTINUOUS
 62
     1
100
AcDbLine
 10
275.6
 20
187.23259
 30
0.0
 11
275.1
 21
190.23259
 31
0.0
  0
LINE
  5
3C6
100
AcDbEntity
  8
LAY-6
  6
CONTINUOUS
 62
     1
100
AcDbLine
 10
275.1
 20
190.23259
 30
0.0
 11
274.6
 21
187.23259
 31
0.0
  0
LINE
  5
3C7
100
AcDbEntity
  8
LAY-6
  6
CONTINUOUS
 62
     1
100
AcDbLine
 10
274.6
 20
199.20964
 30
0.0
 11
275.1
 21
196.20964
 31
0.0
  0
LINE
  5
3C8
100
AcDbEntity
  8
LAY-6
  6
CONTINUOUS
 62
     1
100
AcDbLine
 10
275.1
 20
196.20964
 30
0.0
 11
275.6
 21
199.20964
 31
0.0
  0
LINE
  5
3C9
100
AcDbEntity
  8
LAY-6
  6
CONTINUOUS
 62
     1
100
AcDbLine
 10
284.582082
 20
218.20964
 30
0.0
 11
273.6
 21
218.20964
 31
0.0
  0
TEXT
  5
3CA
100
AcDbEntity
  8
LAY-6
  6
CONTINUOUS
 62
     2
100
AcDbText
 10
274.6
 20
203.20964
 30
0.0
 40
5.0
  1
２２
 50
90.0
 41
0.672
  7
EXCADSTD
 72
     5
 11
274.6
 21
210.54244
 31
0.0
100
AcDbText
  0
LINE
  5
3CB
100
AcDbEntity
  8
LAY-6
  6
CONTINUOUS
 62
     1
100
AcDbLine
 10
275.1
 20
196.20964
 30
0.0
 11
275.1
 21
218.20964
 31
0.0
  0
LINE
  5
3CC
100
AcDbEntity
  8
LAY-6
  6
CONTINUOUS
 62
     1
100
AcDbLine
 10
274.6
 20
199.20964
 30
0.0
 11
275.1
 21
196.20964
 31
0.0
  0
LINE
  5
3CD
100
AcDbEntity
  8
LAY-6
  6
CONTINUOUS
 62
     1
100
AcDbLine
 10
275.1
 20
196.20964
 30
0.0
 11
275.6
 21
199.20964
 31
0.0
  0
LINE
  5
3CE
100
AcDbEntity
  8
LAY-6
  6
CONTINUOUS
 62
     1
100
AcDbLine
 10
275.6
 20
215.20964
 30
0.0
 11
275.1
 21
218.20964
 31
0.0
  0
LINE
  5
3CF
100
AcDbEntity
  8
LAY-6
  6
CONTINUOUS
 62
     1
100
AcDbLine
 10
275.1
 20
218.20964
 30
0.0
 11
274.6
 21
215.20964
 31
0.0
  0
LINE
  5
3D0
100
AcDbEntity
  8
LAY-6
  6
CONTINUOUS
 62
     1
100
AcDbLine
 10
294.782067
 20
246.20964
 30
0.0
 11
273.6
 21
246.20964
 31
0.0
  0
TEXT
  5
3D1
100
AcDbEntity
  8
LAY-6
  6
CONTINUOUS
 62
     2
100
AcDbText
 10
274.6
 20
228.20964
 30
0.0
 40
5.0
  1
２８
 50
90.0
 41
0.672
  7
EXCADSTD
 72
     5
 11
274.6
 21
235.54244
 31
0.0
100
AcDbText
  0
LINE
  5
3D2
100
AcDbEntity
  8
LAY-6
  6
CONTINUOUS
 62
     1
100
AcDbLine
 10
275.1
 20
218.20964
 30
0.0
 11
275.1
 21
246.20964
 31
0.0
  0
LINE
  5
3D3
100
AcDbEntity
  8
LAY-6
  6
CONTINUOUS
 62
     1
100
AcDbLine
 10
274.6
 20
221.20964
 30
0.0
 11
275.1
 21
218.20964
 31
0.0
  0
LINE
  5
3D4
100
AcDbEntity
  8
LAY-6
  6
CONTINUOUS
 62
     1
100
AcDbLine
 10
275.1
 20
218.20964
 30
0.0
 11
275.6
 21
221.20964
 31
0.0
  0
LINE
  5
3D5
100
AcDbEntity
  8
LAY-6
  6
CONTINUOUS
 62
     1
100
AcDbLine
 10
275.6
 20
243.20964
 30
0.0
 11
275.1
 21
246.20964
 31
0.0
  0
LINE
  5
3D6
100
AcDbEntity
  8
LAY-6
  6
CONTINUOUS
 62
     1
100
AcDbLine
 10
275.1
 20
246.20964
 30
0.0
 11
274.6
 21
243.20964
 31
0.0
  0
LINE
  5
3D7
100
AcDbEntity
  8
LAY-6
  6
CONTINUOUS
 62
     1
100
AcDbLine
 10
294.782067
 20
218.20964
 30
0.0
 11
293.732082
 21
206.477852
 31
0.0
  0
LINE
  5
3D8
100
AcDbEntity
  8
LAY-6
  6
CONTINUOUS
 62
     1
100
AcDbLine
 10
294.782067
 20
218.20964
 30
0.0
 11
294.782067
 21
206.430959
 31
0.0
  0
TEXT
  5
3D9
100
AcDbEntity
  8
LAY-6
  6
CONTINUOUS
 62
     2
100
AcDbText
 10
285.849766
 20
209.91916
 30
0.0
 40
5.0
  1
５°
 50
357.442851
 41
0.672
  7
EXCADSTD
 72
     5
 11
293.175264
 21
209.592001
 31
0.0
100
AcDbText
  0
ARC
  5
3DA
100
AcDbEntity
  8
LAY-6
  6
CONTINUOUS
 62
     1
100
AcDbCircle
 10
294.782067
 20
218.20964
 30
0.0
 40
10.278681
100
AcDbArc
 50
237.014528
 51
264.885701
  0
ARC
  5
3DB
100
AcDbEntity
  8
LAY-6
  6
CONTINUOUS
 62
     1
100
AcDbCircle
 10
294.782067
 20
218.20964
 30
0.0
 40
10.278681
100
AcDbArc
 50
270.0
 51
297.871173
  0
LINE
  5
3DC
100
AcDbEntity
  8
LAY-6
  6
CONTINUOUS
 62
     1
100
AcDbLine
 10
290.833168
 20
207.741299
 30
0.0
 11
293.865796
 21
207.97188
 31
0.0
  0
LINE
  5
3DD
100
AcDbEntity
  8
LAY-6
  6
CONTINUOUS
 62
     1
100
AcDbLine
 10
293.865796
 20
207.97188
 30
0.0
 11
290.922311
 21
208.737318
 31
0.0
  0
LINE
  5
3DE
100
AcDbEntity
  8
LAY-6
  6
CONTINUOUS
 62
     1
100
AcDbLine
 10
297.782067
 20
208.430959
 30
0.0
 11
294.782067
 21
207.930959
 31
0.0
  0
LINE
  5
3DF
100
AcDbEntity
  8
LAY-6
  6
CONTINUOUS
 62
     1
100
AcDbLine
 10
294.782067
 20
207.930959
 30
0.0
 11
297.782067
 21
207.430959
 31
0.0
  0
LINE
  5
3E0
100
AcDbEntity
  8
LAY-6
  6
CONTINUOUS
 62
     1
100
AcDbLine
 10
673.712036
 20
393.083298
 30
0.0
 11
673.712036
 21
411.7
 31
0.0
  0
LINE
  5
3E1
100
AcDbEntity
  8
LAY-6
  6
CONTINUOUS
 62
     1
100
AcDbLine
 10
695.712007
 20
398.547904
 30
0.0
 11
695.712007
 21
411.7
 31
0.0
  0
TEXT
  5
3E2
100
AcDbEntity
  8
LAY-6
  6
CONTINUOUS
 62
     2
100
AcDbText
 10
680.712021
 20
410.7
 30
0.0
 40
5.0
  1
２２
 41
0.672
  7
EXCADSTD
 72
     5
 11
688.044822
 21
410.7
 31
0.0
100
AcDbText
  0
LINE
  5
3E3
100
AcDbEntity
  8
LAY-6
  6
CONTINUOUS
 62
     1
100
AcDbLine
 10
673.712036
 20
410.2
 30
0.0
 11
695.712007
 21
410.2
 31
0.0
  0
LINE
  5
3E4
100
AcDbEntity
  8
LAY-6
  6
CONTINUOUS
 62
     1
100
AcDbLine
 10
676.712036
 20
410.7
 30
0.0
 11
673.712036
 21
410.2
 31
0.0
  0
LINE
  5
3E5
100
AcDbEntity
  8
LAY-6
  6
CONTINUOUS
 62
     1
100
AcDbLine
 10
673.712036
 20
410.2
 30
0.0
 11
676.712036
 21
409.7
 31
0.0
  0
LINE
  5
3E6
100
AcDbEntity
  8
LAY-6
  6
CONTINUOUS
 62
     1
100
AcDbLine
 10
692.712007
 20
409.7
 30
0.0
 11
695.712007
 21
410.2
 31
0.0
  0
LINE
  5
3E7
100
AcDbEntity
  8
LAY-6
  6
CONTINUOUS
 62
     1
100
AcDbLine
 10
695.712007
 20
410.2
 30
0.0
 11
692.712007
 21
410.7
 31
0.0
  0
LINE
  5
3E8
100
AcDbEntity
  8
LAY-6
  6
CONTINUOUS
 62
     1
100
AcDbLine
 10
733.712036
 20
388.647934
 30
0.0
 11
733.712036
 21
411.7
 31
0.0
  0
TEXT
  5
3E9
100
AcDbEntity
  8
LAY-6
  6
CONTINUOUS
 62
     2
100
AcDbText
 10
710.712021
 20
410.7
 30
0.0
 40
5.0
  1
３８
 41
0.672
  7
EXCADSTD
 72
     5
 11
718.044822
 21
410.7
 31
0.0
100
AcDbText
  0
LINE
  5
3EA
100
AcDbEntity
  8
LAY-6
  6
CONTINUOUS
 62
     1
100
AcDbLine
 10
695.712007
 20
410.2
 30
0.0
 11
733.712036
 21
410.2
 31
0.0
  0
LINE
  5
3EB
100
AcDbEntity
  8
LAY-6
  6
CONTINUOUS
 62
     1
100
AcDbLine
 10
698.712007
 20
410.7
 30
0.0
 11
695.712007
 21
410.2
 31
0.0
  0
LINE
  5
3EC
100
AcDbEntity
  8
LAY-6
  6
CONTINUOUS
 62
     1
100
AcDbLine
 10
695.712007
 20
410.2
 30
0.0
 11
698.712007
 21
409.7
 31
0.0
  0
LINE
  5
3ED
100
AcDbEntity
  8
LAY-6
  6
CONTINUOUS
 62
     1
100
AcDbLine
 10
730.712036
 20
409.7
 30
0.0
 11
733.712036
 21
410.2
 31
0.0
  0
LINE
  5
3EE
100
AcDbEntity
  8
LAY-6
  6
CONTINUOUS
 62
     1
100
AcDbLine
 10
733.712036
 20
410.2
 30
0.0
 11
730.712036
 21
410.7
 31
0.0
  0
LINE
  5
3EF
100
AcDbEntity
  8
LAY-6
  6
CONTINUOUS
 62
     1
100
AcDbLine
 10
673.712036
 20
354.67302
 30
0.0
 11
673.712036
 21
335.1
 31
0.0
  0
LINE
  5
3F0
100
AcDbEntity
  8
LAY-6
  6
CONTINUOUS
 62
     1
100
AcDbLine
 10
698.712036
 20
372.147904
 30
0.0
 11
698.712036
 21
335.1
 31
0.0
  0
TEXT
  5
3F1
100
AcDbEntity
  8
LAY-6
  6
CONTINUOUS
 62
     2
100
AcDbText
 10
682.212036
 20
337.1
 30
0.0
 40
5.0
  1
２５
 41
0.672
  7
EXCADSTD
 72
     5
 11
689.544836
 21
337.1
 31
0.0
100
AcDbText
  0
LINE
  5
3F2
100
AcDbEntity
  8
LAY-6
  6
CONTINUOUS
 62
     1
100
AcDbLine
 10
673.712036
 20
336.6
 30
0.0
 11
698.712036
 21
336.6
 31
0.0
  0
LINE
  5
3F3
100
AcDbEntity
  8
LAY-6
  6
CONTINUOUS
 62
     1
100
AcDbLine
 10
676.712036
 20
337.1
 30
0.0
 11
673.712036
 21
336.6
 31
0.0
  0
LINE
  5
3F4
100
AcDbEntity
  8
LAY-6
  6
CONTINUOUS
 62
     1
100
AcDbLine
 10
673.712036
 20
336.6
 30
0.0
 11
676.712036
 21
336.1
 31
0.0
  0
LINE
  5
3F5
100
AcDbEntity
  8
LAY-6
  6
CONTINUOUS
 62
     1
100
AcDbLine
 10
695.712036
 20
336.1
 30
0.0
 11
698.712036
 21
336.6
 31
0.0
  0
LINE
  5
3F6
100
AcDbEntity
  8
LAY-6
  6
CONTINUOUS
 62
     1
100
AcDbLine
 10
698.712036
 20
336.6
 30
0.0
 11
695.712036
 21
337.1
 31
0.0
  0
LINE
  5
3F7
100
AcDbEntity
  8
LAY-6
  6
CONTINUOUS
 62
     1
100
AcDbLine
 10
733.712067
 20
361.647904
 30
0.0
 11
733.712067
 21
335.1
 31
0.0
  0
TEXT
  5
3F8
100
AcDbEntity
  8
LAY-6
  6
CONTINUOUS
 62
     2
100
AcDbText
 10
712.212052
 20
337.1
 30
0.0
 40
5.0
  1
３５
 41
0.672
  7
EXCADSTD
 72
     5
 11
719.544852
 21
337.1
 31
0.0
100
AcDbText
  0
LINE
  5
3F9
100
AcDbEntity
  8
LAY-6
  6
CONTINUOUS
 62
     1
100
AcDbLine
 10
698.712036
 20
336.6
 30
0.0
 11
733.712067
 21
336.6
 31
0.0
  0
LINE
  5
3FA
100
AcDbEntity
  8
LAY-6
  6
CONTINUOUS
 62
     1
100
AcDbLine
 10
701.712036
 20
337.1
 30
0.0
 11
698.712036
 21
336.6
 31
0.0
  0
LINE
  5
3FB
100
AcDbEntity
  8
LAY-6
  6
CONTINUOUS
 62
     1
100
AcDbLine
 10
698.712036
 20
336.6
 30
0.0
 11
701.712036
 21
336.1
 31
0.0
  0
LINE
  5
3FC
100
AcDbEntity
  8
LAY-6
  6
CONTINUOUS
 62
     1
100
AcDbLine
 10
730.712067
 20
336.1
 30
0.0
 11
733.712067
 21
336.6
 31
0.0
  0
LINE
  5
3FD
100
AcDbEntity
  8
LAY-6
  6
CONTINUOUS
 62
     1
100
AcDbLine
 10
733.712067
 20
336.6
 30
0.0
 11
730.712067
 21
337.1
 31
0.0
  0
LINE
  5
3FE
100
AcDbEntity
  8
LAY-6
  6
CONTINUOUS
 62
     1
100
AcDbLine
 10
698.712036
 20
293.1
 30
0.0
 11
698.712036
 21
276.5
 31
0.0
  0
LINE
  5
3FF
100
AcDbEntity
  8
LAY-6
  6
CONTINUOUS
 62
     1
100
AcDbLine
 10
738.712036
 20
293.1
 30
0.0
 11
738.712036
 21
276.5
 31
0.0
  0
TEXT
  5
400
100
AcDbEntity
  8
LAY-6
  6
CONTINUOUS
 62
     2
100
AcDbText
 10
710.712036
 20
278.5
 30
0.0
 40
5.0
  1
４０以上
 41
0.672
  7
EXCADSTD
 72
     5
 11
726.712036
 21
278.5
 31
0.0
100
AcDbText
  0
LINE
  5
401
100
AcDbEntity
  8
LAY-6
  6
CONTINUOUS
 62
     1
100
AcDbLine
 10
698.712036
 20
278.0
 30
0.0
 11
738.712036
 21
278.0
 31
0.0
  0
LINE
  5
402
100
AcDbEntity
  8
LAY-6
  6
CONTINUOUS
 62
     1
100
AcDbLine
 10
701.712036
 20
278.5
 30
0.0
 11
698.712036
 21
278.0
 31
0.0
  0
LINE
  5
403
100
AcDbEntity
  8
LAY-6
  6
CONTINUOUS
 62
     1
100
AcDbLine
 10
698.712036
 20
278.0
 30
0.0
 11
701.712036
 21
277.5
 31
0.0
  0
LINE
  5
404
100
AcDbEntity
  8
LAY-6
  6
CONTINUOUS
 62
     1
100
AcDbLine
 10
735.712036
 20
277.5
 30
0.0
 11
738.712036
 21
278.0
 31
0.0
  0
LINE
  5
405
100
AcDbEntity
  8
LAY-6
  6
CONTINUOUS
 62
     1
100
AcDbLine
 10
738.712036
 20
278.0
 30
0.0
 11
735.712036
 21
278.5
 31
0.0
  0
LINE
  5
406
100
AcDbEntity
  8
LAY-6
  6
CONTINUOUS
 62
     1
100
AcDbLine
 10
673.712067
 20
217.071137
 30
0.0
 11
673.712067
 21
225.8
 31
0.0
  0
LINE
  5
407
100
AcDbEntity
  8
LAY-6
  6
CONTINUOUS
 62
     1
100
AcDbLine
 10
698.712067
 20
209.298218
 30
0.0
 11
698.712067
 21
225.8
 31
0.0
  0
TEXT
  5
408
100
AcDbEntity
  8
LAY-6
  6
CONTINUOUS
 62
     2
100
AcDbText
 10
682.212067
 20
222.8
 30
0.0
 40
5.0
  1
２５
 41
0.672
  7
EXCADSTD
 72
     5
 11
689.544868
 21
222.8
 31
0.0
100
AcDbText
  0
LINE
  5
409
100
AcDbEntity
  8
LAY-6
  6
CONTINUOUS
 62
     1
100
AcDbLine
 10
673.712067
 20
222.3
 30
0.0
 11
698.712067
 21
222.3
 31
0.0
  0
LINE
  5
40A
100
AcDbEntity
  8
LAY-6
  6
CONTINUOUS
 62
     1
100
AcDbLine
 10
676.712067
 20
222.8
 30
0.0
 11
673.712067
 21
222.3
 31
0.0
  0
LINE
  5
40B
100
AcDbEntity
  8
LAY-6
  6
CONTINUOUS
 62
     1
100
AcDbLine
 10
673.712067
 20
222.3
 30
0.0
 11
676.712067
 21
221.8
 31
0.0
  0
LINE
  5
40C
100
AcDbEntity
  8
LAY-6
  6
CONTINUOUS
 62
     1
100
AcDbLine
 10
695.712067
 20
221.8
 30
0.0
 11
698.712067
 21
222.3
 31
0.0
  0
LINE
  5
40D
100
AcDbEntity
  8
LAY-6
  6
CONTINUOUS
 62
     1
100
AcDbLine
 10
698.712067
 20
222.3
 30
0.0
 11
695.712067
 21
222.8
 31
0.0
  0
LINE
  5
40E
100
AcDbEntity
  8
LAY-6
  6
CONTINUOUS
 62
     1
100
AcDbLine
 10
733.712098
 20
204.798188
 30
0.0
 11
733.712098
 21
223.8
 31
0.0
  0
TEXT
  5
40F
100
AcDbEntity
  8
LAY-6
  6
CONTINUOUS
 62
     2
100
AcDbText
 10
712.212083
 20
222.8
 30
0.0
 40
5.0
  1
３５
 41
0.672
  7
EXCADSTD
 72
     5
 11
719.544883
 21
222.8
 31
0.0
100
AcDbText
  0
LINE
  5
410
100
AcDbEntity
  8
LAY-6
  6
CONTINUOUS
 62
     1
100
AcDbLine
 10
698.712067
 20
222.3
 30
0.0
 11
733.712098
 21
222.3
 31
0.0
  0
LINE
  5
411
100
AcDbEntity
  8
LAY-6
  6
CONTINUOUS
 62
     1
100
AcDbLine
 10
701.712067
 20
222.8
 30
0.0
 11
698.712067
 21
222.3
 31
0.0
  0
LINE
  5
412
100
AcDbEntity
  8
LAY-6
  6
CONTINUOUS
 62
     1
100
AcDbLine
 10
698.712067
 20
222.3
 30
0.0
 11
701.712067
 21
221.8
 31
0.0
  0
LINE
  5
413
100
AcDbEntity
  8
LAY-6
  6
CONTINUOUS
 62
     1
100
AcDbLine
 10
730.712098
 20
221.8
 30
0.0
 11
733.712098
 21
222.3
 31
0.0
  0
LINE
  5
414
100
AcDbEntity
  8
LAY-6
  6
CONTINUOUS
 62
     1
100
AcDbLine
 10
733.712098
 20
222.3
 30
0.0
 11
730.712098
 21
222.8
 31
0.0
  0
LINE
  5
415
100
AcDbEntity
  8
LAY-6
  6
CONTINUOUS
 62
     1
100
AcDbLine
 10
673.712067
 20
225.8
 30
0.0
 11
673.712067
 21
259.0
 31
0.0
  0
LINE
  5
416
100
AcDbEntity
  8
LAY-6
  6
CONTINUOUS
 62
     1
100
AcDbLine
 10
695.712007
 20
209.298218
 30
0.0
 11
695.712007
 21
259.0
 31
0.0
  0
TEXT
  5
417
100
AcDbEntity
  8
LAY-6
  6
CONTINUOUS
 62
     2
100
AcDbText
 10
680.712037
 20
258.0
 30
0.0
 40
5.0
  1
２２
 41
0.672
  7
EXCADSTD
 72
     5
 11
688.044837
 21
258.0
 31
0.0
100
AcDbText
  0
LINE
  5
418
100
AcDbEntity
  8
LAY-6
  6
CONTINUOUS
 62
     1
100
AcDbLine
 10
673.712067
 20
257.5
 30
0.0
 11
695.712007
 21
257.5
 31
0.0
  0
LINE
  5
419
100
AcDbEntity
  8
LAY-6
  6
CONTINUOUS
 62
     1
100
AcDbLine
 10
676.712067
 20
258.0
 30
0.0
 11
673.712067
 21
257.5
 31
0.0
  0
LINE
  5
41A
100
AcDbEntity
  8
LAY-6
  6
CONTINUOUS
 62
     1
100
AcDbLine
 10
673.712067
 20
257.5
 30
0.0
 11
676.712067
 21
257.0
 31
0.0
  0
LINE
  5
41B
100
AcDbEntity
  8
LAY-6
  6
CONTINUOUS
 62
     1
100
AcDbLine
 10
692.712007
 20
257.0
 30
0.0
 11
695.712007
 21
257.5
 31
0.0
  0
LINE
  5
41C
100
AcDbEntity
  8
LAY-6
  6
CONTINUOUS
 62
     1
100
AcDbLine
 10
695.712007
 20
257.5
 30
0.0
 11
692.712007
 21
258.0
 31
0.0
  0
LINE
  5
41D
100
AcDbEntity
  8
LAY-6
  6
CONTINUOUS
 62
     1
100
AcDbLine
 10
723.712067
 20
239.298249
 30
0.0
 11
723.712067
 21
259.0
 31
0.0
  0
TEXT
  5
41E
100
AcDbEntity
  8
LAY-6
  6
CONTINUOUS
 62
     2
100
AcDbText
 10
705.712037
 20
258.0
 30
0.0
 40
5.0
  1
２８
 41
0.672
  7
EXCADSTD
 72
     5
 11
713.044837
 21
258.0
 31
0.0
100
AcDbText
  0
LINE
  5
41F
100
AcDbEntity
  8
LAY-6
  6
CONTINUOUS
 62
     1
100
AcDbLine
 10
695.712007
 20
257.5
 30
0.0
 11
723.712067
 21
257.5
 31
0.0
  0
LINE
  5
420
100
AcDbEntity
  8
LAY-6
  6
CONTINUOUS
 62
     1
100
AcDbLine
 10
698.712007
 20
258.0
 30
0.0
 11
695.712007
 21
257.5
 31
0.0
  0
LINE
  5
421
100
AcDbEntity
  8
LAY-6
  6
CONTINUOUS
 62
     1
100
AcDbLine
 10
695.712007
 20
257.5
 30
0.0
 11
698.712007
 21
257.0
 31
0.0
  0
LINE
  5
422
100
AcDbEntity
  8
LAY-6
  6
CONTINUOUS
 62
     1
100
AcDbLine
 10
720.712067
 20
257.0
 30
0.0
 11
723.712067
 21
257.5
 31
0.0
  0
LINE
  5
423
100
AcDbEntity
  8
LAY-6
  6
CONTINUOUS
 62
     1
100
AcDbLine
 10
723.712067
 20
257.5
 30
0.0
 11
720.712067
 21
258.0
 31
0.0
  0
LINE
  5
424
100
AcDbEntity
  8
LAY-6
  6
CONTINUOUS
 62
     1
100
AcDbLine
 10
656.712036
 20
357.147904
 30
0.0
 11
645.856019
 21
357.147904
 31
0.0
  0
LINE
  5
425
100
AcDbEntity
  8
LAY-6
  6
CONTINUOUS
 62
     1
100
AcDbLine
 10
655.712036
 20
372.147904
 30
0.0
 11
645.856019
 21
372.147904
 31
0.0
  0
TEXT
  5
426
100
AcDbEntity
  8
LAY-6
  6
CONTINUOUS
 62
     2
100
AcDbText
 10
646.856019
 20
360.647904
 30
0.0
 40
5.0
  1
１５
 50
90.0
 41
0.672
  7
EXCADSTD
 72
     5
 11
646.856019
 21
367.980704
 31
0.0
100
AcDbText
  0
LINE
  5
427
100
AcDbEntity
  8
LAY-6
  6
CONTINUOUS
 62
     1
100
AcDbLine
 10
647.356019
 20
357.147904
 30
0.0
 11
647.356019
 21
372.147904
 31
0.0
  0
LINE
  5
428
100
AcDbEntity
  8
LAY-6
  6
CONTINUOUS
 62
     1
100
AcDbLine
 10
646.856019
 20
360.147904
 30
0.0
 11
647.356019
 21
357.147904
 31
0.0
  0
LINE
  5
429
100
AcDbEntity
  8
LAY-6
  6
CONTINUOUS
 62
     1
100
AcDbLine
 10
647.356019
 20
357.147904
 30
0.0
 11
647.856019
 21
360.147904
 31
0.0
  0
LINE
  5
42A
100
AcDbEntity
  8
LAY-6
  6
CONTINUOUS
 62
     1
100
AcDbLine
 10
647.856019
 20
369.147904
 30
0.0
 11
647.356019
 21
372.147904
 31
0.0
  0
LINE
  5
42B
100
AcDbEntity
  8
LAY-6
  6
CONTINUOUS
 62
     1
100
AcDbLine
 10
647.356019
 20
372.147904
 30
0.0
 11
646.856019
 21
369.147904
 31
0.0
  0
LINE
  5
42C
100
AcDbEntity
  8
LAY-6
  6
CONTINUOUS
 62
     1
100
AcDbLine
 10
656.712036
 20
375.147904
 30
0.0
 11
645.856019
 21
375.147904
 31
0.0
  0
TEXT
  5
42D
100
AcDbEntity
  8
LAY-6
  6
CONTINUOUS
 62
     2
100
AcDbText
 10
640.356019
 20
359.647904
 30
0.0
 40
5.0
  1
２．５～４．５
 50
90.0
 41
0.672
  7
EXCADSTD
 72
     5
 11
640.356019
 21
387.647904
 31
0.0
100
AcDbText
  0
LINE
  5
42E
100
AcDbEntity
  8
LAY-6
  6
CONTINUOUS
 62
     1
100
AcDbLine
 10
647.356019
 20
367.147904
 30
0.0
 11
647.356019
 21
372.147904
 31
0.0
  0
LINE
  5
42F
100
AcDbEntity
  8
LAY-6
  6
CONTINUOUS
 62
     1
100
AcDbLine
 10
647.356019
 20
375.147904
 30
0.0
 11
647.356019
 21
380.147904
 31
0.0
  0
LINE
  5
430
100
AcDbEntity
  8
LAY-6
  6
CONTINUOUS
 62
     1
100
AcDbLine
 10
647.856019
 20
369.147904
 30
0.0
 11
647.356019
 21
372.147904
 31
0.0
  0
LINE
  5
431
100
AcDbEntity
  8
LAY-6
  6
CONTINUOUS
 62
     1
100
AcDbLine
 10
647.356019
 20
372.147904
 30
0.0
 11
646.856019
 21
369.147904
 31
0.0
  0
LINE
  5
432
100
AcDbEntity
  8
LAY-6
  6
CONTINUOUS
 62
     1
100
AcDbLine
 10
646.856019
 20
378.147904
 30
0.0
 11
647.356019
 21
375.147904
 31
0.0
  0
LINE
  5
433
100
AcDbEntity
  8
LAY-6
  6
CONTINUOUS
 62
     1
100
AcDbLine
 10
647.356019
 20
375.147904
 30
0.0
 11
647.856019
 21
378.147904
 31
0.0
  0
LINE
  5
434
100
AcDbEntity
  8
LAY-6
  6
CONTINUOUS
 62
     1
100
AcDbLine
 10
655.712036
 20
390.147904
 30
0.0
 11
645.856019
 21
390.147904
 31
0.0
  0
TEXT
  5
435
100
AcDbEntity
  8
LAY-6
  6
CONTINUOUS
 62
     2
100
AcDbText
 10
646.856019
 20
378.647904
 30
0.0
 40
5.0
  1
１５
 50
90.0
 41
0.672
  7
EXCADSTD
 72
     5
 11
646.856019
 21
385.980704
 31
0.0
100
AcDbText
  0
LINE
  5
436
100
AcDbEntity
  8
LAY-6
  6
CONTINUOUS
 62
     1
100
AcDbLine
 10
647.356019
 20
375.147904
 30
0.0
 11
647.356019
 21
390.147904
 31
0.0
  0
LINE
  5
437
100
AcDbEntity
  8
LAY-6
  6
CONTINUOUS
 62
     1
100
AcDbLine
 10
646.856019
 20
378.147904
 30
0.0
 11
647.356019
 21
375.147904
 31
0.0
  0
LINE
  5
438
100
AcDbEntity
  8
LAY-6
  6
CONTINUOUS
 62
     1
100
AcDbLine
 10
647.356019
 20
375.147904
 30
0.0
 11
647.856019
 21
378.147904
 31
0.0
  0
LINE
  5
439
100
AcDbEntity
  8
LAY-6
  6
CONTINUOUS
 62
     1
100
AcDbLine
 10
647.856019
 20
387.147904
 30
0.0
 11
647.356019
 21
390.147904
 31
0.0
  0
LINE
  5
43A
100
AcDbEntity
  8
LAY-6
  6
CONTINUOUS
 62
     1
100
AcDbLine
 10
647.356019
 20
390.147904
 30
0.0
 11
646.856019
 21
387.147904
 31
0.0
  0
LINE
  5
43B
100
AcDbEntity
  8
LAY-6
  6
CONTINUOUS
 62
     1
100
AcDbLine
 10
740.712007
 20
375.147904
 30
0.0
 11
754.556019
 21
375.147904
 31
0.0
  0
LINE
  5
43C
100
AcDbEntity
  8
LAY-6
  6
CONTINUOUS
 62
     1
100
AcDbLine
 10
740.712007
 20
380.147934
 30
0.0
 11
754.556019
 21
380.147934
 31
0.0
  0
TEXT
  5
43D
100
AcDbEntity
  8
LAY-6
  6
CONTINUOUS
 62
     2
100
AcDbText
 10
752.956018
 20
343.947919
 30
0.0
 40
5.0
  1
４．５～６．５
 50
90.0
 41
0.672
  7
EXCADSTD
 72
     5
 11
752.956018
 21
371.947919
 31
0.0
100
AcDbText
  0
LINE
  5
43E
100
AcDbEntity
  8
LAY-6
  6
CONTINUOUS
 62
     1
100
AcDbLine
 10
753.056019
 20
370.147904
 30
0.0
 11
753.056019
 21
375.147904
 31
0.0
  0
LINE
  5
43F
100
AcDbEntity
  8
LAY-6
  6
CONTINUOUS
 62
     1
100
AcDbLine
 10
753.056019
 20
380.147934
 30
0.0
 11
753.056019
 21
385.147934
 31
0.0
  0
LINE
  5
440
100
AcDbEntity
  8
LAY-6
  6
CONTINUOUS
 62
     1
100
AcDbLine
 10
753.556019
 20
372.147904
 30
0.0
 11
753.056019
 21
375.147904
 31
0.0
  0
LINE
  5
441
100
AcDbEntity
  8
LAY-6
  6
CONTINUOUS
 62
     1
100
AcDbLine
 10
753.056019
 20
375.147904
 30
0.0
 11
752.556019
 21
372.147904
 31
0.0
  0
LINE
  5
442
100
AcDbEntity
  8
LAY-6
  6
CONTINUOUS
 62
     1
100
AcDbLine
 10
752.556019
 20
383.147934
 30
0.0
 11
753.056019
 21
380.147934
 31
0.0
  0
LINE
  5
443
100
AcDbEntity
  8
LAY-6
  6
CONTINUOUS
 62
     1
100
AcDbLine
 10
753.056019
 20
380.147934
 30
0.0
 11
753.556019
 21
383.147934
 31
0.0
  0
LINE
  5
444
100
AcDbEntity
  8
LAY-6
  6
CONTINUOUS
 62
     1
100
AcDbLine
 10
732.212036
 20
390.147934
 30
0.0
 11
754.556019
 21
390.147934
 31
0.0
  0
TEXT
  5
445
100
AcDbEntity
  8
LAY-6
  6
CONTINUOUS
 62
     2
100
AcDbText
 10
752.556019
 20
381.147934
 30
0.0
 40
5.0
  1
１０
 50
90.0
 41
0.672
  7
EXCADSTD
 72
     5
 11
752.556019
 21
388.480734
 31
0.0
100
AcDbText
  0
LINE
  5
446
100
AcDbEntity
  8
LAY-6
  6
CONTINUOUS
 62
     1
100
AcDbLine
 10
753.056019
 20
380.147934
 30
0.0
 11
753.056019
 21
390.147934
 31
0.0
  0
LINE
  5
447
100
AcDbEntity
  8
LAY-6
  6
CONTINUOUS
 62
     1
100
AcDbLine
 10
752.556019
 20
383.147934
 30
0.0
 11
753.056019
 21
380.147934
 31
0.0
  0
LINE
  5
448
100
AcDbEntity
  8
LAY-6
  6
CONTINUOUS
 62
     1
100
AcDbLine
 10
753.056019
 20
380.147934
 30
0.0
 11
753.556019
 21
383.147934
 31
0.0
  0
LINE
  5
449
100
AcDbEntity
  8
LAY-6
  6
CONTINUOUS
 62
     1
100
AcDbLine
 10
753.556019
 20
387.147934
 30
0.0
 11
753.056019
 21
390.147934
 31
0.0
  0
LINE
  5
44A
100
AcDbEntity
  8
LAY-6
  6
CONTINUOUS
 62
     1
100
AcDbLine
 10
753.056019
 20
390.147934
 30
0.0
 11
752.556019
 21
387.147934
 31
0.0
  0
LINE
  5
44B
100
AcDbEntity
  8
LAY-6
  6
CONTINUOUS
 62
     1
100
AcDbLine
 10
698.712036
 20
360.147904
 30
0.0
 11
688.056019
 21
360.147904
 31
0.0
  0
LINE
  5
44C
100
AcDbEntity
  8
LAY-6
  6
CONTINUOUS
 62
     1
100
AcDbLine
 10
698.712036
 20
372.147904
 30
0.0
 11
688.056019
 21
372.147904
 31
0.0
  0
TEXT
  5
44D
100
AcDbEntity
  8
LAY-6
  6
CONTINUOUS
 62
     2
100
AcDbText
 10
689.056019
 20
362.147904
 30
0.0
 40
5.0
  1
１２
 50
90.0
 41
0.672
  7
EXCADSTD
 72
     5
 11
689.056019
 21
369.480704
 31
0.0
100
AcDbText
  0
LINE
  5
44E
100
AcDbEntity
  8
LAY-6
  6
CONTINUOUS
 62
     1
100
AcDbLine
 10
689.556019
 20
360.147904
 30
0.0
 11
689.556019
 21
372.147904
 31
0.0
  0
LINE
  5
44F
100
AcDbEntity
  8
LAY-6
  6
CONTINUOUS
 62
     1
100
AcDbLine
 10
689.056019
 20
363.147904
 30
0.0
 11
689.556019
 21
360.147904
 31
0.0
  0
LINE
  5
450
100
AcDbEntity
  8
LAY-6
  6
CONTINUOUS
 62
     1
100
AcDbLine
 10
689.556019
 20
360.147904
 30
0.0
 11
690.056019
 21
363.147904
 31
0.0
  0
LINE
  5
451
100
AcDbEntity
  8
LAY-6
  6
CONTINUOUS
 62
     1
100
AcDbLine
 10
690.056019
 20
369.147904
 30
0.0
 11
689.556019
 21
372.147904
 31
0.0
  0
LINE
  5
452
100
AcDbEntity
  8
LAY-6
  6
CONTINUOUS
 62
     1
100
AcDbLine
 10
689.556019
 20
372.147904
 30
0.0
 11
689.056019
 21
369.147904
 31
0.0
  0
LINE
  5
453
100
AcDbEntity
  8
LAY-6
  6
CONTINUOUS
 62
     1
100
AcDbLine
 10
738.712036
 20
190.298157
 30
0.0
 11
752.456018
 21
190.298157
 31
0.0
  0
LINE
  5
454
100
AcDbEntity
  8
LAY-6
  6
CONTINUOUS
 62
     1
100
AcDbLine
 10
732.212036
 20
194.298188
 30
0.0
 11
752.456018
 21
194.298188
 31
0.0
  0
TEXT
  5
455
100
AcDbEntity
  8
LAY-6
  6
CONTINUOUS
 62
     2
100
AcDbText
 10
750.456018
 20
190.298172
 30
0.0
 40
5.0
  1
４
 50
90.0
 41
0.672
  7
EXCADSTD
 72
     5
 11
750.456018
 21
193.498172
 31
0.0
100
AcDbText
  0
LINE
  5
456
100
AcDbEntity
  8
LAY-6
  6
CONTINUOUS
 62
     1
100
AcDbLine
 10
750.956018
 20
185.298157
 30
0.0
 11
750.956018
 21
190.298157
 31
0.0
  0
LINE
  5
457
100
AcDbEntity
  8
LAY-6
  6
CONTINUOUS
 62
     1
100
AcDbLine
 10
750.956018
 20
194.298188
 30
0.0
 11
750.956018
 21
199.298188
 31
0.0
  0
LINE
  5
458
100
AcDbEntity
  8
LAY-6
  6
CONTINUOUS
 62
     1
100
AcDbLine
 10
751.456018
 20
187.298157
 30
0.0
 11
750.956018
 21
190.298157
 31
0.0
  0
LINE
  5
459
100
AcDbEntity
  8
LAY-6
  6
CONTINUOUS
 62
     1
100
AcDbLine
 10
750.956018
 20
190.298157
 30
0.0
 11
750.456018
 21
187.298157
 31
0.0
  0
LINE
  5
45A
100
AcDbEntity
  8
LAY-6
  6
CONTINUOUS
 62
     1
100
AcDbLine
 10
750.456018
 20
197.298188
 30
0.0
 11
750.956018
 21
194.298188
 31
0.0
  0
LINE
  5
45B
100
AcDbEntity
  8
LAY-6
  6
CONTINUOUS
 62
     1
100
AcDbLine
 10
750.956018
 20
194.298188
 30
0.0
 11
751.456018
 21
197.298188
 31
0.0
  0
LINE
  5
45C
100
AcDbEntity
  8
LAY-6
  6
CONTINUOUS
 62
     1
100
AcDbLine
 10
732.212098
 20
206.298188
 30
0.0
 11
752.456018
 21
206.298188
 31
0.0
  0
TEXT
  5
45D
100
AcDbEntity
  8
LAY-6
  6
CONTINUOUS
 62
     2
100
AcDbText
 10
750.456018
 20
196.298188
 30
0.0
 40
5.0
  1
１２
 50
90.0
 41
0.672
  7
EXCADSTD
 72
     5
 11
750.456018
 21
203.630988
 31
0.0
100
AcDbText
  0
LINE
  5
45E
100
AcDbEntity
  8
LAY-6
  6
CONTINUOUS
 62
     1
100
AcDbLine
 10
750.956018
 20
194.298188
 30
0.0
 11
750.956018
 21
206.298188
 31
0.0
  0
LINE
  5
45F
100
AcDbEntity
  8
LAY-6
  6
CONTINUOUS
 62
     1
100
AcDbLine
 10
750.456018
 20
197.298188
 30
0.0
 11
750.956018
 21
194.298188
 31
0.0
  0
LINE
  5
460
100
AcDbEntity
  8
LAY-6
  6
CONTINUOUS
 62
     1
100
AcDbLine
 10
750.956018
 20
194.298188
 30
0.0
 11
751.456018
 21
197.298188
 31
0.0
  0
LINE
  5
461
100
AcDbEntity
  8
LAY-6
  6
CONTINUOUS
 62
     1
100
AcDbLine
 10
751.456018
 20
203.298188
 30
0.0
 11
750.956018
 21
206.298188
 31
0.0
  0
LINE
  5
462
100
AcDbEntity
  8
LAY-6
  6
CONTINUOUS
 62
     1
100
AcDbLine
 10
750.956018
 20
206.298188
 30
0.0
 11
750.456018
 21
203.298188
 31
0.0
  0
LINE
  5
463
100
AcDbEntity
  8
LAY-6
  6
CONTINUOUS
 62
     1
100
AcDbLine
 10
781.356019
 20
184.298249
 30
0.0
 11
758.956018
 21
184.298249
 31
0.0
  0
LINE
  5
464
100
AcDbEntity
  8
LAY-6
  6
CONTINUOUS
 62
     1
100
AcDbLine
 10
655.712067
 20
190.298249
 30
0.0
 11
646.656018
 21
190.298249
 31
0.0
  0
LINE
  5
465
100
AcDbEntity
  8
LAY-6
  6
CONTINUOUS
 62
     1
100
AcDbLine
 10
655.712067
 20
184.298249
 30
0.0
 11
646.656018
 21
184.298249
 31
0.0
  0
TEXT
  5
466
100
AcDbEntity
  8
LAY-6
  6
CONTINUOUS
 62
     2
100
AcDbText
 10
647.656018
 20
185.298249
 30
0.0
 40
5.0
  1
６
 50
90.0
 41
0.672
  7
EXCADSTD
 72
     5
 11
647.656018
 21
188.498249
 31
0.0
100
AcDbText
  0
LINE
  5
467
100
AcDbEntity
  8
LAY-6
  6
CONTINUOUS
 62
     1
100
AcDbLine
 10
648.156018
 20
195.298249
 30
0.0
 11
648.156018
 21
190.298249
 31
0.0
  0
LINE
  5
468
100
AcDbEntity
  8
LAY-6
  6
CONTINUOUS
 62
     1
100
AcDbLine
 10
648.156018
 20
184.298249
 30
0.0
 11
648.156018
 21
179.298249
 31
0.0
  0
LINE
  5
469
100
AcDbEntity
  8
LAY-6
  6
CONTINUOUS
 62
     1
100
AcDbLine
 10
647.656018
 20
193.298249
 30
0.0
 11
648.156018
 21
190.298249
 31
0.0
  0
LINE
  5
46A
100
AcDbEntity
  8
LAY-6
  6
CONTINUOUS
 62
     1
100
AcDbLine
 10
648.156018
 20
190.298249
 30
0.0
 11
648.656018
 21
193.298249
 31
0.0
  0
LINE
  5
46B
100
AcDbEntity
  8
LAY-6
  6
CONTINUOUS
 62
     1
100
AcDbLine
 10
648.656018
 20
181.298249
 30
0.0
 11
648.156018
 21
184.298249
 31
0.0
  0
LINE
  5
46C
100
AcDbEntity
  8
LAY-6
  6
CONTINUOUS
 62
     1
100
AcDbLine
 10
648.156018
 20
184.298249
 30
0.0
 11
647.656018
 21
181.298249
 31
0.0
  0
LINE
  5
46D
100
AcDbEntity
  8
LAY-6
  6
CONTINUOUS
 62
     1
100
AcDbLine
 10
655.712067
 20
184.298249
 30
0.0
 11
637.156018
 21
184.298249
 31
0.0
  0
LINE
  5
46E
100
AcDbEntity
  8
LAY-6
  6
CONTINUOUS
 62
     1
100
AcDbLine
 10
655.712036
 20
194.298279
 30
0.0
 11
637.156018
 21
194.298279
 31
0.0
  0
TEXT
  5
46F
100
AcDbEntity
  8
LAY-6
  6
CONTINUOUS
 62
     2
100
AcDbText
 10
638.156018
 20
185.298264
 30
0.0
 40
5.0
  1
１０
 50
90.0
 41
0.672
  7
EXCADSTD
 72
     5
 11
638.156018
 21
192.631064
 31
0.0
100
AcDbText
  0
LINE
  5
470
100
AcDbEntity
  8
LAY-6
  6
CONTINUOUS
 62
     1
100
AcDbLine
 10
638.656018
 20
184.298249
 30
0.0
 11
638.656018
 21
194.298279
 31
0.0
  0
LINE
  5
471
100
AcDbEntity
  8
LAY-6
  6
CONTINUOUS
 62
     1
100
AcDbLine
 10
638.156018
 20
187.298249
 30
0.0
 11
638.656018
 21
184.298249
 31
0.0
  0
LINE
  5
472
100
AcDbEntity
  8
LAY-6
  6
CONTINUOUS
 62
     1
100
AcDbLine
 10
638.656018
 20
184.298249
 30
0.0
 11
639.156018
 21
187.298249
 31
0.0
  0
LINE
  5
473
100
AcDbEntity
  8
LAY-6
  6
CONTINUOUS
 62
     1
100
AcDbLine
 10
639.156018
 20
191.298279
 30
0.0
 11
638.656018
 21
194.298279
 31
0.0
  0
LINE
  5
474
100
AcDbEntity
  8
LAY-6
  6
CONTINUOUS
 62
     1
100
AcDbLine
 10
638.656018
 20
194.298279
 30
0.0
 11
638.156018
 21
191.298279
 31
0.0
  0
LINE
  5
475
100
AcDbEntity
  8
LAY-6
  6
CONTINUOUS
 62
     1
100
AcDbLine
 10
656.712067
 20
209.298279
 30
0.0
 11
637.156018
 21
209.298279
 31
0.0
  0
TEXT
  5
476
100
AcDbEntity
  8
LAY-6
  6
CONTINUOUS
 62
     2
100
AcDbText
 10
638.156018
 20
197.798279
 30
0.0
 40
5.0
  1
１５
 50
90.0
 41
0.672
  7
EXCADSTD
 72
     5
 11
638.156018
 21
205.131079
 31
0.0
100
AcDbText
  0
LINE
  5
477
100
AcDbEntity
  8
LAY-6
  6
CONTINUOUS
 62
     1
100
AcDbLine
 10
638.656018
 20
194.298279
 30
0.0
 11
638.656018
 21
209.298279
 31
0.0
  0
LINE
  5
478
100
AcDbEntity
  8
LAY-6
  6
CONTINUOUS
 62
     1
100
AcDbLine
 10
638.156018
 20
197.298279
 30
0.0
 11
638.656018
 21
194.298279
 31
0.0
  0
LINE
  5
479
100
AcDbEntity
  8
LAY-6
  6
CONTINUOUS
 62
     1
100
AcDbLine
 10
638.656018
 20
194.298279
 30
0.0
 11
639.156018
 21
197.298279
 31
0.0
  0
LINE
  5
47A
100
AcDbEntity
  8
LAY-6
  6
CONTINUOUS
 62
     1
100
AcDbLine
 10
639.156018
 20
206.298279
 30
0.0
 11
638.656018
 21
209.298279
 31
0.0
  0
LINE
  5
47B
100
AcDbEntity
  8
LAY-6
  6
CONTINUOUS
 62
     1
100
AcDbLine
 10
638.656018
 20
209.298279
 30
0.0
 11
638.156018
 21
206.298279
 31
0.0
  0
LINE
  5
47C
100
AcDbEntity
  8
LAY-6
  6
CONTINUOUS
 62
     1
100
AcDbLine
 10
655.712067
 20
184.298249
 30
0.0
 11
626.756019
 21
184.298249
 31
0.0
  0
TEXT
  5
47D
100
AcDbEntity
  8
LAY-6
  6
CONTINUOUS
 62
     2
100
AcDbText
 10
627.756019
 20
212.798249
 30
0.0
 40
5.0
  1
６５
 50
90.0
 41
0.672
  7
EXCADSTD
 72
     5
 11
627.756019
 21
220.131049
 31
0.0
100
AcDbText
  0
LINE
  5
47E
100
AcDbEntity
  8
LAY-6
  6
CONTINUOUS
 62
     1
100
AcDbLine
 10
628.256019
 20
184.298249
 30
0.0
 11
628.256019
 21
249.298249
 31
0.0
  0
LINE
  5
47F
100
AcDbEntity
  8
LAY-6
  6
CONTINUOUS
 62
     1
100
AcDbLine
 10
627.756019
 20
187.298249
 30
0.0
 11
628.256019
 21
184.298249
 31
0.0
  0
LINE
  5
480
100
AcDbEntity
  8
LAY-6
  6
CONTINUOUS
 62
     1
100
AcDbLine
 10
628.256019
 20
184.298249
 30
0.0
 11
628.756019
 21
187.298249
 31
0.0
  0
LINE
  5
481
100
AcDbEntity
  8
LAY-6
  6
CONTINUOUS
 62
     1
100
AcDbLine
 10
628.756019
 20
246.298249
 30
0.0
 11
628.256019
 21
249.298249
 31
0.0
  0
LINE
  5
482
100
AcDbEntity
  8
LAY-6
  6
CONTINUOUS
 62
     1
100
AcDbLine
 10
628.256019
 20
249.298249
 30
0.0
 11
627.756019
 21
246.298249
 31
0.0
  0
LINE
  5
483
100
AcDbEntity
  8
LAY-6
  6
CONTINUOUS
 62
     1
100
AcDbLine
 10
781.356019
 20
184.298249
 30
0.0
 11
761.156018
 21
184.298249
 31
0.0
  0
LINE
  5
484
100
AcDbEntity
  8
LAY-6
  6
CONTINUOUS
 62
     1
100
AcDbLine
 10
732.212036
 20
194.298188
 30
0.0
 11
764.156018
 21
194.298188
 31
0.0
  0
TEXT
  5
485
100
AcDbEntity
  8
LAY-6
  6
CONTINUOUS
 62
     2
100
AcDbText
 10
761.956018
 20
186.198219
 30
0.0
 40
5.0
  1
１０
 50
90.0
 41
0.672
  7
EXCADSTD
 72
     5
 11
761.956018
 21
193.531018
 31
0.0
100
AcDbText
  0
LINE
  5
486
100
AcDbEntity
  8
LAY-6
  6
CONTINUOUS
 62
     1
100
AcDbLine
 10
762.656018
 20
184.298249
 30
0.0
 11
762.656018
 21
194.298188
 31
0.0
  0
LINE
  5
487
100
AcDbEntity
  8
LAY-6
  6
CONTINUOUS
 62
     1
100
AcDbLine
 10
762.156018
 20
187.298249
 30
0.0
 11
762.656018
 21
184.298249
 31
0.0
  0
LINE
  5
488
100
AcDbEntity
  8
LAY-6
  6
CONTINUOUS
 62
     1
100
AcDbLine
 10
762.656018
 20
184.298249
 30
0.0
 11
763.156018
 21
187.298249
 31
0.0
  0
LINE
  5
489
100
AcDbEntity
  8
LAY-6
  6
CONTINUOUS
 62
     1
100
AcDbLine
 10
763.156018
 20
191.298188
 30
0.0
 11
762.656018
 21
194.298188
 31
0.0
  0
LINE
  5
48A
100
AcDbEntity
  8
LAY-6
  6
CONTINUOUS
 62
     1
100
AcDbLine
 10
762.656018
 20
194.298188
 30
0.0
 11
762.156018
 21
191.298188
 31
0.0
  0
LINE
  5
48B
100
AcDbEntity
  8
LAY-6
  6
CONTINUOUS
 62
     1
100
AcDbLine
 10
718.712067
 20
244.298249
 30
0.0
 11
764.156018
 21
244.298249
 31
0.0
  0
TEXT
  5
48C
100
AcDbEntity
  8
LAY-6
  6
CONTINUOUS
 62
     2
100
AcDbText
 10
762.156018
 20
215.298218
 30
0.0
 40
5.0
  1
５０
 50
90.0
 41
0.672
  7
EXCADSTD
 72
     5
 11
762.156018
 21
222.631018
 31
0.0
100
AcDbText
  0
LINE
  5
48D
100
AcDbEntity
  8
LAY-6
  6
CONTINUOUS
 62
     1
100
AcDbLine
 10
762.656018
 20
194.298188
 30
0.0
 11
762.656018
 21
244.298249
 31
0.0
  0
LINE
  5
48E
100
AcDbEntity
  8
LAY-6
  6
CONTINUOUS
 62
     1
100
AcDbLine
 10
762.156018
 20
197.298188
 30
0.0
 11
762.656018
 21
194.298188
 31
0.0
  0
LINE
  5
48F
100
AcDbEntity
  8
LAY-6
  6
CONTINUOUS
 62
     1
100
AcDbLine
 10
762.656018
 20
194.298188
 30
0.0
 11
763.156018
 21
197.298188
 31
0.0
  0
LINE
  5
490
100
AcDbEntity
  8
LAY-6
  6
CONTINUOUS
 62
     1
100
AcDbLine
 10
763.156018
 20
241.298249
 30
0.0
 11
762.656018
 21
244.298249
 31
0.0
  0
LINE
  5
491
100
AcDbEntity
  8
LAY-6
  6
CONTINUOUS
 62
     1
100
AcDbLine
 10
762.656018
 20
244.298249
 30
0.0
 11
762.156018
 21
241.298249
 31
0.0
  0
LINE
  5
492
100
AcDbEntity
  8
LAY-6
  6
CONTINUOUS
 62
     1
100
AcDbLine
 10
781.356019
 20
184.298249
 30
0.0
 11
772.556019
 21
184.298249
 31
0.0
  0
LINE
  5
493
100
AcDbEntity
  8
LAY-6
  6
CONTINUOUS
 62
     1
100
AcDbLine
 10
752.456018
 20
190.298157
 30
0.0
 11
775.556019
 21
190.298157
 31
0.0
  0
TEXT
  5
494
100
AcDbEntity
  8
LAY-6
  6
CONTINUOUS
 62
     2
100
AcDbText
 10
773.556019
 20
185.298203
 30
0.0
 40
5.0
  1
６
 50
90.0
 41
0.672
  7
EXCADSTD
 72
     5
 11
773.556019
 21
188.498203
 31
0.0
100
AcDbText
  0
LINE
  5
495
100
AcDbEntity
  8
LAY-6
  6
CONTINUOUS
 62
     1
100
AcDbLine
 10
774.056019
 20
179.298249
 30
0.0
 11
774.056019
 21
184.298249
 31
0.0
  0
LINE
  5
496
100
AcDbEntity
  8
LAY-6
  6
CONTINUOUS
 62
     1
100
AcDbLine
 10
774.056019
 20
190.298157
 30
0.0
 11
774.056019
 21
195.298157
 31
0.0
  0
LINE
  5
497
100
AcDbEntity
  8
LAY-6
  6
CONTINUOUS
 62
     1
100
AcDbLine
 10
774.556019
 20
181.298249
 30
0.0
 11
774.056019
 21
184.298249
 31
0.0
  0
LINE
  5
498
100
AcDbEntity
  8
LAY-6
  6
CONTINUOUS
 62
     1
100
AcDbLine
 10
774.056019
 20
184.298249
 30
0.0
 11
773.556019
 21
181.298249
 31
0.0
  0
LINE
  5
499
100
AcDbEntity
  8
LAY-6
  6
CONTINUOUS
 62
     1
100
AcDbLine
 10
773.556019
 20
193.298157
 30
0.0
 11
774.056019
 21
190.298157
 31
0.0
  0
LINE
  5
49A
100
AcDbEntity
  8
LAY-6
  6
CONTINUOUS
 62
     1
100
AcDbLine
 10
774.056019
 20
190.298157
 30
0.0
 11
774.556019
 21
193.298157
 31
0.0
  0
LINE
  5
49B
100
AcDbEntity
  8
LAY-6
  6
CONTINUOUS
 62
     1
100
AcDbLine
 10
737.112037
 20
372.147904
 30
0.0
 11
775.556019
 21
372.147904
 31
0.0
  0
TEXT
  5
49C
100
AcDbEntity
  8
LAY-6
  6
CONTINUOUS
 62
     2
100
AcDbText
 10
773.556019
 20
277.22303
 30
0.0
 40
5.0
  1
ＤＨ
 50
90.0
 41
0.672
  7
EXCADSTD
 72
     5
 11
773.556019
 21
284.555831
 31
0.0
100
AcDbText
  0
LINE
  5
49D
100
AcDbEntity
  8
LAY-6
  6
CONTINUOUS
 62
     1
100
AcDbLine
 10
774.056019
 20
190.298157
 30
0.0
 11
774.056019
 21
372.147904
 31
0.0
  0
LINE
  5
49E
100
AcDbEntity
  8
LAY-6
  6
CONTINUOUS
 62
     1
100
AcDbLine
 10
773.556019
 20
193.298157
 30
0.0
 11
774.056019
 21
190.298157
 31
0.0
  0
LINE
  5
49F
100
AcDbEntity
  8
LAY-6
  6
CONTINUOUS
 62
     1
100
AcDbLine
 10
774.056019
 20
190.298157
 30
0.0
 11
774.556019
 21
193.298157
 31
0.0
  0
LINE
  5
4A0
100
AcDbEntity
  8
LAY-6
  6
CONTINUOUS
 62
     1
100
AcDbLine
 10
774.556019
 20
369.147904
 30
0.0
 11
774.056019
 21
372.147904
 31
0.0
  0
LINE
  5
4A1
100
AcDbEntity
  8
LAY-6
  6
CONTINUOUS
 62
     1
100
AcDbLine
 10
774.056019
 20
372.147904
 30
0.0
 11
773.556019
 21
369.147904
 31
0.0
  0
LINE
  5
4A2
100
AcDbEntity
  8
LAY-6
  6
CONTINUOUS
 62
     1
100
AcDbLine
 10
740.712007
 20
375.147904
 30
0.0
 11
775.556019
 21
375.147904
 31
0.0
  0
TEXT
  5
4A3
100
AcDbEntity
  8
LAY-6
  6
CONTINUOUS
 62
     2
100
AcDbText
 10
773.556019
 20
371.647904
 30
0.0
 40
5.0
  1
３
 50
90.0
 41
0.672
  7
EXCADSTD
 72
     5
 11
773.556019
 21
374.847904
 31
0.0
100
AcDbText
  0
LINE
  5
4A4
100
AcDbEntity
  8
LAY-6
  6
CONTINUOUS
 62
     1
100
AcDbLine
 10
774.056019
 20
367.147904
 30
0.0
 11
774.056019
 21
372.147904
 31
0.0
  0
LINE
  5
4A5
100
AcDbEntity
  8
LAY-6
  6
CONTINUOUS
 62
     1
100
AcDbLine
 10
774.056019
 20
375.147904
 30
0.0
 11
774.056019
 21
380.147904
 31
0.0
  0
LINE
  5
4A6
100
AcDbEntity
  8
LAY-6
  6
CONTINUOUS
 62
     1
100
AcDbLine
 10
774.556019
 20
369.147904
 30
0.0
 11
774.056019
 21
372.147904
 31
0.0
  0
LINE
  5
4A7
100
AcDbEntity
  8
LAY-6
  6
CONTINUOUS
 62
     1
100
AcDbLine
 10
774.056019
 20
372.147904
 30
0.0
 11
773.556019
 21
369.147904
 31
0.0
  0
LINE
  5
4A8
100
AcDbEntity
  8
LAY-6
  6
CONTINUOUS
 62
     1
100
AcDbLine
 10
773.556019
 20
378.147904
 30
0.0
 11
774.056019
 21
375.147904
 31
0.0
  0
LINE
  5
4A9
100
AcDbEntity
  8
LAY-6
  6
CONTINUOUS
 62
     1
100
AcDbLine
 10
774.056019
 20
375.147904
 30
0.0
 11
774.556019
 21
378.147904
 31
0.0
  0
POLYLINE
  5
4AA
100
AcDbEntity
  8
LAY-6
  6
CONTINUOUS
 62
     1
100
AcDb2dPolyline
 66
     1
 10
0.0
 20
0.0
 30
0.0
 70
   128
  0
VERTEX
  5
4AB
100
AcDbEntity
  8
LAY-6
  6
CONTINUOUS
 62
     1
100
AcDbVertex
100
AcDb2dVertex
 10
67.559627
 20
204.709602
 30
0.0
  0
VERTEX
  5
4AC
100
AcDbEntity
  8
LAY-6
  6
CONTINUOUS
 62
     1
100
AcDbVertex
100
AcDb2dVertex
 10
59.0
 20
215.7
 30
0.0
  0
VERTEX
  5
4AD
100
AcDbEntity
  8
LAY-6
  6
CONTINUOUS
 62
     1
100
AcDbVertex
100
AcDb2dVertex
 10
38.9
 20
215.7
 30
0.0
  0
SEQEND
  5
4AE
100
AcDbEntity
  8
LAY-6
  6
CONTINUOUS
 62
     1
  0
LINE
  5
4AF
100
AcDbEntity
  8
LAY-6
  6
CONTINUOUS
 62
     1
100
AcDbLine
 10
65.321782
 20
206.769225
 30
0.0
 11
67.559627
 21
204.709602
 31
0.0
  0
LINE
  5
4B0
100
AcDbEntity
  8
LAY-6
  6
CONTINUOUS
 62
     1
100
AcDbLine
 10
67.559627
 20
204.709602
 30
0.0
 11
66.110732
 21
207.383682
 31
0.0
  0
TEXT
  5
4B1
100
AcDbEntity
  8
LAY-6
  6
CONTINUOUS
 62
     2
100
AcDbText
 10
38.9
 20
215.7
 30
0.0
 40
5.0
  1
セットネジ
 41
0.672
  7
EXCADSTD
 72
     5
 11
58.9
 21
215.7
 31
0.0
100
AcDbText
  0
POLYLINE
  5
4B2
100
AcDbEntity
  8
LAY-6
  6
CONTINUOUS
 62
     1
100
AcDb2dPolyline
 66
     1
 10
0.0
 20
0.0
 30
0.0
 70
   128
  0
VERTEX
  5
4B3
100
AcDbEntity
  8
LAY-6
  6
CONTINUOUS
 62
     1
100
AcDbVertex
100
AcDb2dVertex
 10
711.712067
 20
352.147934
 30
0.0
  0
VERTEX
  5
4B4
100
AcDbEntity
  8
LAY-6
  6
CONTINUOUS
 62
     1
100
AcDbVertex
100
AcDb2dVertex
 10
703.456018
 20
324.1
 30
0.0
  0
VERTEX
  5
4B5
100
AcDbEntity
  8
LAY-6
  6
CONTINUOUS
 62
     1
100
AcDbVertex
100
AcDb2dVertex
 10
645.856019
 20
324.1
 30
0.0
  0
SEQEND
  5
4B6
100
AcDbEntity
  8
LAY-6
  6
CONTINUOUS
 62
     1
  0
LINE
  5
4B7
100
AcDbEntity
  8
LAY-6
  6
CONTINUOUS
 62
     1
100
AcDbLine
 10
711.344592
 20
349.128835
 30
0.0
 11
711.712067
 21
352.147934
 31
0.0
  0
LINE
  5
4B8
100
AcDbEntity
  8
LAY-6
  6
CONTINUOUS
 62
     1
100
AcDbLine
 10
711.712067
 20
352.147934
 30
0.0
 11
710.385288
 21
349.41121
 31
0.0
  0
TEXT
  5
4B9
100
AcDbEntity
  8
LAY-6
  6
CONTINUOUS
 62
     2
100
AcDbText
 10
645.856019
 20
324.1
 30
0.0
 40
5.0
  1
４－Ｍ６×２０サラ小ネジ
 41
0.672
  7
EXCADSTD
 72
     5
 11
693.856019
 21
324.1
 31
0.0
100
AcDbText
  0
POLYLINE
  5
4BA
100
AcDbEntity
  8
LAY-6
  6
CONTINUOUS
 62
     1
100
AcDb2dPolyline
 66
     1
 10
0.0
 20
0.0
 30
0.0
 70
   128
  0
VERTEX
  5
4BB
100
AcDbEntity
  8
LAY-6
  6
CONTINUOUS
 62
     1
100
AcDbVertex
100
AcDb2dVertex
 10
711.712036
 20
194.298249
 30
0.0
  0
VERTEX
  5
4BC
100
AcDbEntity
  8
LAY-6
  6
CONTINUOUS
 62
     1
100
AcDbVertex
100
AcDb2dVertex
 10
702.656018
 20
154.7
 30
0.0
  0
VERTEX
  5
4BD
100
AcDbEntity
  8
LAY-6
  6
CONTINUOUS
 62
     1
100
AcDbVertex
100
AcDb2dVertex
 10
653.756019
 20
154.7
 30
0.0
  0
SEQEND
  5
4BE
100
AcDbEntity
  8
LAY-6
  6
CONTINUOUS
 62
     1
  0
LINE
  5
4BF
100
AcDbEntity
  8
LAY-6
  6
CONTINUOUS
 62
     1
100
AcDbLine
 10
711.530628
 20
191.262283
 30
0.0
 11
711.712036
 21
194.298249
 31
0.0
  0
LINE
  5
4C0
100
AcDbEntity
  8
LAY-6
  6
CONTINUOUS
 62
     1
100
AcDbLine
 10
711.712036
 20
194.298249
 30
0.0
 11
710.555796
 21
191.485224
 31
0.0
  0
TEXT
  5
4C1
100
AcDbEntity
  8
LAY-6
  6
CONTINUOUS
 62
     2
100
AcDbText
 10
653.756019
 20
154.7
 30
0.0
 40
5.0
  1
４－Ｍ６×２０サラ小ネジ
 41
0.672
  7
EXCADSTD
 72
     5
 11
701.756019
 21
154.7
 31
0.0
100
AcDbText
  0
CIRCLE
  5
4C2
100
AcDbEntity
  8
LAY-6
  6
CONTINUOUS
 62
     1
100
AcDbCircle
 10
646.6785
 20
405.28198
 30
0.0
 40
4.0
  0
TEXT
  5
4C3
100
AcDbEntity
  8
LAY-6
  6
CONTINUOUS
 62
     2
100
AcDbText
 10
643.850073
 20
402.453552
 30
0.0
 40
5.656854
  1
１
 41
0.84
  7
EXCADSTD
 72
     5
 11
648.375556
 21
402.453552
 31
0.0
100
AcDbText
  0
POLYLINE
  5
4C4
100
AcDbEntity
  8
LAY-6
  6
CONTINUOUS
 62
     1
100
AcDb2dPolyline
 66
     1
 10
0.0
 20
0.0
 30
0.0
 70
   128
  0
VERTEX
  5
4C5
100
AcDbEntity
  8
LAY-6
  6
CONTINUOUS
 62
     1
100
AcDbVertex
100
AcDb2dVertex
 10
660.256019
 20
390.147904
 30
0.0
  0
VERTEX
  5
4C6
100
AcDbEntity
  8
LAY-6
  6
CONTINUOUS
 62
     1
100
AcDbVertex
100
AcDb2dVertex
 10
649.349666
 20
402.304586
 30
0.0
  0
SEQEND
  5
4C7
100
AcDbEntity
  8
LAY-6
  6
CONTINUOUS
 62
     1
  0
LINE
  5
4C8
100
AcDbEntity
  8
LAY-6
  6
CONTINUOUS
 62
     1
100
AcDbLine
 10
657.88047
 20
392.047054
 30
0.0
 11
660.256019
 21
390.147904
 31
0.0
  0
LINE
  5
4C9
100
AcDbEntity
  8
LAY-6
  6
CONTINUOUS
 62
     1
100
AcDbLine
 10
660.256019
 20
390.147904
 30
0.0
 11
658.624819
 21
392.714845
 31
0.0
  0
CIRCLE
  5
4CA
100
AcDbEntity
  8
LAY-6
  6
CONTINUOUS
 62
     1
100
AcDbCircle
 10
647.356019
 20
336.6
 30
0.0
 40
4.0
  0
POLYLINE
  5
4CB
100
AcDbEntity
  8
LAY-6
  6
CONTINUOUS
 62
     1
100
AcDb2dPolyline
 66
     1
 10
0.0
 20
0.0
 30
0.0
 70
   128
  0
VERTEX
  5
4CC
100
AcDbEntity
  8
LAY-6
  6
CONTINUOUS
 62
     1
100
AcDbVertex
100
AcDb2dVertex
 10
665.256019
 20
357.147904
 30
0.0
  0
VERTEX
  5
4CD
100
AcDbEntity
  8
LAY-6
  6
CONTINUOUS
 62
     1
100
AcDbVertex
100
AcDb2dVertex
 10
649.983428
 20
339.616076
 30
0.0
  0
SEQEND
  5
4CE
100
AcDbEntity
  8
LAY-6
  6
CONTINUOUS
 62
     1
  0
LINE
  5
4CF
100
AcDbEntity
  8
LAY-6
  6
CONTINUOUS
 62
     1
100
AcDbLine
 10
663.662471
 20
354.55742
 30
0.0
 11
665.256019
 21
357.147904
 31
0.0
  0
LINE
  5
4D0
100
AcDbEntity
  8
LAY-6
  6
CONTINUOUS
 62
     1
100
AcDbLine
 10
665.256019
 20
357.147904
 30
0.0
 11
662.908451
 21
355.214273
 31
0.0
  0
TEXT
  5
4D1
100
AcDbEntity
  8
LAY-6
  6
CONTINUOUS
 62
     2
100
AcDbText
 10
644.527591
 20
333.771573
 30
0.0
 40
5.656854
  1
２
 41
0.84
  7
EXCADSTD
 72
     5
 11
649.053075
 21
333.771573
 31
0.0
100
AcDbText
  0
CIRCLE
  5
4D2
100
AcDbEntity
  8
LAY-6
  6
CONTINUOUS
 62
     1
100
AcDbCircle
 10
647.056019
 20
224.6
 30
0.0
 40
4.0
  0
POLYLINE
  5
4D3
100
AcDbEntity
  8
LAY-6
  6
CONTINUOUS
 62
     1
100
AcDb2dPolyline
 66
     1
 10
0.0
 20
0.0
 30
0.0
 70
   128
  0
VERTEX
  5
4D4
100
AcDbEntity
  8
LAY-6
  6
CONTINUOUS
 62
     1
100
AcDbVertex
100
AcDb2dVertex
 10
665.456018
 20
209.298266
 30
0.0
  0
VERTEX
  5
4D5
100
AcDbEntity
  8
LAY-6
  6
CONTINUOUS
 62
     1
100
AcDbVertex
100
AcDb2dVertex
 10
650.1315
 20
222.042381
 30
0.0
  0
SEQEND
  5
4D6
100
AcDbEntity
  8
LAY-6
  6
CONTINUOUS
 62
     1
  0
LINE
  5
4D7
100
AcDbEntity
  8
LAY-6
  6
CONTINUOUS
 62
     1
100
AcDbLine
 10
662.829705
 20
210.832046
 30
0.0
 11
665.456018
 21
209.298266
 31
0.0
  0
LINE
  5
4D8
100
AcDbEntity
  8
LAY-6
  6
CONTINUOUS
 62
     1
100
AcDbLine
 10
665.456018
 20
209.298266
 30
0.0
 11
663.46911
 21
211.600916
 31
0.0
  0
TEXT
  5
4D9
100
AcDbEntity
  8
LAY-6
  6
CONTINUOUS
 62
     2
100
AcDbText
 10
644.227591
 20
221.771573
 30
0.0
 40
5.656854
  1
３
 41
0.84
  7
EXCADSTD
 72
     5
 11
648.753075
 21
221.771573
 31
0.0
100
AcDbText
  0
CIRCLE
  5
4DA
100
AcDbEntity
  8
LAY-6
  6
CONTINUOUS
 62
     1
100
AcDbCircle
 10
662.756019
 20
168.9
 30
0.0
 40
4.0
  0
POLYLINE
  5
4DB
100
AcDbEntity
  8
LAY-6
  6
CONTINUOUS
 62
     1
100
AcDb2dPolyline
 66
     1
 10
0.0
 20
0.0
 30
0.0
 70
   128
  0
VERTEX
  5
4DC
100
AcDbEntity
  8
LAY-6
  6
CONTINUOUS
 62
     1
100
AcDbVertex
100
AcDb2dVertex
 10
665.456018
 20
184.298249
 30
0.0
  0
VERTEX
  5
4DD
100
AcDbEntity
  8
LAY-6
  6
CONTINUOUS
 62
     1
100
AcDbVertex
100
AcDb2dVertex
 10
663.446857
 20
172.839891
 30
0.0
  0
SEQEND
  5
4DE
100
AcDbEntity
  8
LAY-6
  6
CONTINUOUS
 62
     1
  0
LINE
  5
4DF
100
AcDbEntity
  8
LAY-6
  6
CONTINUOUS
 62
     1
100
AcDbLine
 10
665.430376
 20
181.256976
 30
0.0
 11
665.456018
 21
184.298249
 31
0.0
  0
LINE
  5
4E0
100
AcDbEntity
  8
LAY-6
  6
CONTINUOUS
 62
     1
100
AcDbLine
 10
665.456018
 20
184.298249
 30
0.0
 11
664.445403
 21
181.429686
 31
0.0
  0
TEXT
  5
4E1
100
AcDbEntity
  8
LAY-6
  6
CONTINUOUS
 62
     2
100
AcDbText
 10
659.927591
 20
166.071573
 30
0.0
 40
5.656854
  1
４
 41
0.84
  7
EXCADSTD
 72
     5
 11
664.453075
 21
166.071573
 31
0.0
100
AcDbText
  0
TEXT
  5
4E2
100
AcDbEntity
  8
LAY-6
  6
CONTINUOUS
 62
     2
100
AcDbText
 10
579.538801
 20
279.48647
 30
0.0
 40
5.0
  1
軸座ネジ
 50
0.164643
 41
0.672
  7
EXCADSTD
 72
     5
 11
595.538735
 21
279.532446
 31
0.0
100
AcDbText
  0
TEXT
  5
4E3
100
AcDbEntity
  8
LAY-6
  6
CONTINUOUS
 62
     2
100
AcDbText
 10
579.554605
 20
273.986492
 30
0.0
 40
5.0
  1
Ｍ６×２５十字穴付き止めネジ
 50
0.164643
 41
0.672
  7
EXCADSTD
 72
     5
 11
635.554374
 21
274.147412
 31
0.0
100
AcDbText
  0
POLYLINE
  5
4E4
100
AcDbEntity
  8
LAY-6
  6
CONTINUOUS
 62
     1
100
AcDb2dPolyline
 66
     1
 10
0.0
 20
0.0
 30
0.0
 70
   128
  0
VERTEX
  5
4E5
100
AcDbEntity
  8
LAY-6
  6
CONTINUOUS
 62
     1
100
AcDbVertex
100
AcDb2dVertex
 10
673.712067
 20
204.798249
 30
0.0
  0
VERTEX
  5
4E6
100
AcDbEntity
  8
LAY-6
  6
CONTINUOUS
 62
     1
100
AcDbVertex
100
AcDb2dVertex
 10
636.956018
 20
273.7
 30
0.0
  0
VERTEX
  5
4E7
100
AcDbEntity
  8
LAY-6
  6
CONTINUOUS
 62
     1
100
AcDbVertex
100
AcDb2dVertex
 10
574.378103
 20
273.520178
 30
0.0
  0
SEQEND
  5
4E8
100
AcDbEntity
  8
LAY-6
  6
CONTINUOUS
 62
     1
  0
LINE
  5
4E9
100
AcDbEntity
  8
LAY-6
  6
CONTINUOUS
 62
     1
100
AcDbLine
 10
671.858896
 20
207.209837
 30
0.0
 11
673.712067
 21
204.798249
 31
0.0
  0
LINE
  5
4EA
100
AcDbEntity
  8
LAY-6
  6
CONTINUOUS
 62
     1
100
AcDbLine
 10
673.712067
 20
204.798249
 30
0.0
 11
672.741204
 21
207.680509
 31
0.0
  0
LINE
  5
4EB
100
AcDbEntity
  8
LAY-6
  6
CONTINUOUS
 62
     1
100
AcDbLine
 10
681.456018
 20
249.298249
 30
0.0
 11
626.756019
 21
249.298249
 31
0.0
  0
TEXT
  5
4EC
100
AcDbEntity
  8
LAY-6
  6
CONTINUOUS
 62
     2
100
AcDbText
 10
754.777339
 20
231.857359
 30
0.0
 40
5.0
  1
裏板３.２ｔ以上（別途）
 41
0.654222
  7
EXCADSTD
 72
     5
 11
800.777339
 21
231.857359
 31
0.0
100
AcDbText
  0
POLYLINE
  5
4ED
100
AcDbEntity
  8
LAY-6
  6
CONTINUOUS
 62
     1
100
AcDb2dPolyline
 66
     1
 10
0.0
 20
0.0
 30
0.0
 70
   128
  0
VERTEX
  5
4EE
100
AcDbEntity
  8
LAY-6
  6
CONTINUOUS
 62
     1
100
AcDbVertex
100
AcDb2dVertex
 10
733.039487
 20
210.798187
 30
0.0
  0
VERTEX
  5
4EF
100
AcDbEntity
  8
LAY-6
  6
CONTINUOUS
 62
     1
100
AcDbVertex
100
AcDb2dVertex
 10
753.598659
 20
231.357359
 30
0.0
  0
VERTEX
  5
4F0
100
AcDbEntity
  8
LAY-6
  6
CONTINUOUS
 62
     1
100
AcDbVertex
100
AcDb2dVertex
 10
801.956019
 20
231.357359
 30
0.0
  0
SEQEND
  5
4F1
100
AcDbEntity
  8
LAY-6
  6
CONTINUOUS
 62
     1
  0
LINE
  5
4F2
100
AcDbEntity
  8
LAY-6
  6
CONTINUOUS
 62
     1
100
AcDbLine
 10
734.217998
 20
212.448103
 30
0.0
 11
733.039487
 21
210.798187
 31
0.0
  0
LINE
  5
4F3
100
AcDbEntity
  8
LAY-6
  6
CONTINUOUS
 62
     1
100
AcDbLine
 10
733.039487
 20
210.798187
 30
0.0
 11
734.689403
 21
211.976699
 31
0.0
  0
TEXT
  5
4F4
100
AcDbEntity
  8
LAY-6
  6
CONTINUOUS
 62
     2
100
AcDbText
 10
756.00751
 20
320.982107
 30
0.0
 40
5.0
  1
裏板３.２ｔ以上（別途）
 41
0.654222
  7
EXCADSTD
 72
     5
 11
802.00751
 21
320.982107
 31
0.0
100
AcDbText
  0
POLYLINE
  5
4F5
100
AcDbEntity
  8
LAY-6
  6
CONTINUOUS
 62
     1
100
AcDb2dPolyline
 66
     1
 10
0.0
 20
0.0
 30
0.0
 70
   128
  0
VERTEX
  5
4F6
100
AcDbEntity
  8
LAY-6
  6
CONTINUOUS
 62
     1
100
AcDbVertex
100
AcDb2dVertex
 10
731.556019
 20
355.647904
 30
0.0
  0
VERTEX
  5
4F7
100
AcDbEntity
  8
LAY-6
  6
CONTINUOUS
 62
     1
100
AcDbVertex
100
AcDb2dVertex
 10
751.859001
 20
320.482107
 30
0.0
  0
VERTEX
  5
4F8
100
AcDbEntity
  8
LAY-6
  6
CONTINUOUS
 62
     1
100
AcDbVertex
100
AcDb2dVertex
 10
806.156018
 20
320.482107
 30
0.0
  0
SEQEND
  5
4F9
100
AcDbEntity
  8
LAY-6
  6
CONTINUOUS
 62
     1
  0
LINE
  5
4FA
100
AcDbEntity
  8
LAY-6
  6
CONTINUOUS
 62
     1
100
AcDbLine
 10
732.844694
 20
354.08252
 30
0.0
 11
731.556019
 21
355.647904
 31
0.0
  0
LINE
  5
4FB
100
AcDbEntity
  8
LAY-6
  6
CONTINUOUS
 62
     1
100
AcDbLine
 10
731.556019
 20
355.647904
 30
0.0
 11
732.267343
 21
353.749187
 31
0.0
  0
TEXT
  5
4FC
100
AcDbEntity
  8
LAY-6
  6
CONTINUOUS
 62
     2
100
AcDbText
 10
761.646327
 20
416.814225
 30
0.0
 40
5.0
  1
裏板（別途）
 41
0.672
  7
EXCADSTD
 72
     5
 11
785.646327
 21
416.814225
 31
0.0
100
AcDbText
  0
POLYLINE
  5
4FD
100
AcDbEntity
  8
LAY-6
  6
CONTINUOUS
 62
     1
100
AcDb2dPolyline
 66
     1
 10
0.0
 20
0.0
 30
0.0
 70
   128
  0
VERTEX
  5
4FE
100
AcDbEntity
  8
LAY-6
  6
CONTINUOUS
 62
     1
100
AcDbVertex
100
AcDb2dVertex
 10
738.256018
 20
380.147934
 30
0.0
  0
VERTEX
  5
4FF
100
AcDbEntity
  8
LAY-6
  6
CONTINUOUS
 62
     1
100
AcDbVertex
100
AcDb2dVertex
 10
759.136636
 20
416.314225
 30
0.0
  0
VERTEX
  5
500
100
AcDbEntity
  8
LAY-6
  6
CONTINUOUS
 62
     1
100
AcDbVertex
100
AcDb2dVertex
 10
788.156018
 20
416.314225
 30
0.0
  0
SEQEND
  5
501
100
AcDbEntity
  8
LAY-6
  6
CONTINUOUS
 62
     1
  0
LINE
  5
502
100
AcDbEntity
  8
LAY-6
  6
CONTINUOUS
 62
     1
100
AcDbLine
 10
738.967343
 20
382.046651
 30
0.0
 11
738.256018
 21
380.147934
 31
0.0
  0
LINE
  5
503
100
AcDbEntity
  8
LAY-6
  6
CONTINUOUS
 62
     1
100
AcDbLine
 10
738.256018
 20
380.147934
 30
0.0
 11
739.544694
 21
381.713318
 31
0.0
  0
TEXT
  5
504
100
AcDbEntity
  8
LAY-6
  6
CONTINUOUS
 62
     2
100
AcDbText
 10
620.716835
 20
411.834802
 30
0.0
 40
5.0
  1
トロよけキャップ
 41
0.672
  7
EXCADSTD
 72
     5
 11
652.716835
 21
411.834802
 31
0.0
100
AcDbText
  0
LINE
  5
505
100
AcDbEntity
  8
LAY-6
  6
CONTINUOUS
 62
     1
100
AcDbLine
 10
664.312036
 20
391.647904
 30
0.0
 11
664.312036
 21
404.9
 31
0.0
  0
LINE
  5
506
100
AcDbEntity
  8
LAY-6
  6
CONTINUOUS
 62
     1
100
AcDbLine
 10
683.112037
 20
391.647904
 30
0.0
 11
683.112037
 21
404.9
 31
0.0
  0
TEXT
  5
507
100
AcDbEntity
  8
LAY-6
  6
CONTINUOUS
 62
     2
100
AcDbText
 10
665.512036
 20
403.9
 30
0.0
 40
5.0
  1
φ
 41
0.672
  7
EXCADSTD
 72
     5
 11
668.712036
 21
403.9
 31
0.0
100
AcDbText
  0
TEXT
  5
508
100
AcDbEntity
  8
LAY-6
  6
CONTINUOUS
 62
     2
100
AcDbText
 10
669.512036
 20
403.9
 30
0.0
 40
5.0
  1
１８.８
 41
0.616
  7
EXCADSTD
 72
     5
 11
683.512036
 21
403.9
 31
0.0
100
AcDbText
  0
LINE
  5
509
100
AcDbEntity
  8
LAY-6
  6
CONTINUOUS
 62
     1
100
AcDbLine
 10
664.312036
 20
403.4
 30
0.0
 11
683.112037
 21
403.4
 31
0.0
  0
LINE
  5
50A
100
AcDbEntity
  8
LAY-6
  6
CONTINUOUS
 62
     1
100
AcDbLine
 10
667.312036
 20
403.9
 30
0.0
 11
664.312036
 21
403.4
 31
0.0
  0
LINE
  5
50B
100
AcDbEntity
  8
LAY-6
  6
CONTINUOUS
 62
     1
100
AcDbLine
 10
664.312036
 20
403.4
 30
0.0
 11
667.312036
 21
402.9
 31
0.0
  0
LINE
  5
50C
100
AcDbEntity
  8
LAY-6
  6
CONTINUOUS
 62
     1
100
AcDbLine
 10
680.112037
 20
402.9
 30
0.0
 11
683.112037
 21
403.4
 31
0.0
  0
LINE
  5
50D
100
AcDbEntity
  8
LAY-6
  6
CONTINUOUS
 62
     1
100
AcDbLine
 10
683.112037
 20
403.4
 30
0.0
 11
680.112037
 21
403.9
 31
0.0
  0
LINE
  5
50E
100
AcDbEntity
  8
LAY-6
  6
CONTINUOUS
 62
     1
100
AcDbLine
 10
666.812036
 20
394.147904
 30
0.0
 11
645.856019
 21
394.147904
 31
0.0
  0
LINE
  5
50F
100
AcDbEntity
  8
LAY-6
  6
CONTINUOUS
 62
     1
100
AcDbLine
 10
654.212036
 20
390.147904
 30
0.0
 11
645.856019
 21
390.147904
 31
0.0
  0
TEXT
  5
510
100
AcDbEntity
  8
LAY-6
  6
CONTINUOUS
 62
     2
100
AcDbText
 10
646.836019
 20
390.207904
 30
0.0
 40
5.0
  1
４
 50
90.0
 41
0.672
  7
EXCADSTD
 72
     5
 11
646.836019
 21
393.407904
 31
0.0
100
AcDbText
  0
LINE
  5
511
100
AcDbEntity
  8
LAY-6
  6
CONTINUOUS
 62
     1
100
AcDbLine
 10
647.356019
 20
399.2
 30
0.0
 11
647.356019
 21
385.147904
 31
0.0
  0
LINE
  5
512
100
AcDbEntity
  8
LAY-6
  6
CONTINUOUS
 62
     1
100
AcDbLine
 10
646.856019
 20
397.147904
 30
0.0
 11
647.356019
 21
394.147904
 31
0.0
  0
LINE
  5
513
100
AcDbEntity
  8
LAY-6
  6
CONTINUOUS
 62
     1
100
AcDbLine
 10
647.356019
 20
394.147904
 30
0.0
 11
647.856019
 21
397.147904
 31
0.0
  0
LINE
  5
514
100
AcDbEntity
  8
LAY-6
  6
CONTINUOUS
 62
     1
100
AcDbLine
 10
647.856019
 20
387.147904
 30
0.0
 11
647.356019
 21
390.147904
 31
0.0
  0
LINE
  5
515
100
AcDbEntity
  8
LAY-6
  6
CONTINUOUS
 62
     1
100
AcDbLine
 10
647.356019
 20
390.147904
 30
0.0
 11
646.856019
 21
387.147904
 31
0.0
  0
TEXT
  5
516
100
AcDbEntity
  8
LAY-6
  6
CONTINUOUS
 62
     2
100
AcDbText
 10
180.997776
 20
450.625801
 30
0.0
 40
5.0
  1
（タップ穴加工付はオプション）
 41
0.672
  7
EXCADSTD
 72
     5
 11
240.997776
 21
450.625801
 31
0.0
100
AcDbText
  0
TEXT
  5
517
100
AcDbEntity
  8
LAY-6
  6
CONTINUOUS
 62
     2
100
AcDbText
 10
337.4
 20
254.993
 30
0.0
 40
5.0
  1
（タップ穴加工付はオプション）
 41
0.672
  7
EXCADSTD
 72
     5
 11
397.4
 21
254.993
 31
0.0
100
AcDbText
  0
TEXT
  5
518
100
AcDbEntity
  8
LAY-6
  6
CONTINUOUS
 62
     2
100
AcDbText
 10
247.370517
 20
288.034033
 30
0.0
 40
5.0
  1
裏板（別途）
 41
0.672
  7
EXCADSTD
 72
     5
 11
271.370517
 21
288.034033
 31
0.0
100
AcDbText
  0
POLYLINE
  5
519
100
AcDbEntity
  8
LAY-6
  6
CONTINUOUS
 62
     1
100
AcDb2dPolyline
 66
     1
 10
0.0
 20
0.0
 30
0.0
 70
   128
  0
VERTEX
  5
51A
100
AcDbEntity
  8
LAY-6
  6
CONTINUOUS
 62
     1
100
AcDbVertex
100
AcDb2dVertex
 10
300.782067
 20
258.293
 30
0.0
  0
VERTEX
  5
51B
100
AcDbEntity
  8
LAY-6
  6
CONTINUOUS
 62
     1
100
AcDbVertex
100
AcDb2dVertex
 10
271.541034
 20
287.534033
 30
0.0
  0
VERTEX
  5
51C
100
AcDbEntity
  8
LAY-6
  6
CONTINUOUS
 62
     1
100
AcDbVertex
100
AcDb2dVertex
 10
247.2
 20
287.534033
 30
0.0
  0
SEQEND
  5
51D
100
AcDbEntity
  8
LAY-6
  6
CONTINUOUS
 62
     1
  0
LINE
  5
51E
100
AcDbEntity
  8
LAY-6
  6
CONTINUOUS
 62
     1
100
AcDbLine
 10
299.132151
 20
259.471511
 30
0.0
 11
300.782067
 21
258.293
 31
0.0
  0
LINE
  5
51F
100
AcDbEntity
  8
LAY-6
  6
CONTINUOUS
 62
     1
100
AcDbLine
 10
300.782067
 20
258.293
 30
0.0
 11
299.603556
 21
259.942916
 31
0.0
  0
ARC
  5
520
100
AcDbEntity
  8
LAY-6
  6
CONTINUOUS
 62
     4
100
AcDbCircle
 10
756.999999
 20
101.0
 30
0.0
 40
18.0
100
AcDbArc
 50
180.0
 51
225.487766
  0
ARC
  5
521
100
AcDbEntity
  8
LAY-6
  6
CONTINUOUS
 62
     4
100
AcDbCircle
 10
721.0
 20
101.0
 30
0.0
 40
18.0
100
AcDbArc
 50
314.424746
 51
0.0
  0
LINE
  5
522
100
AcDbEntity
  8
LAY-6
  6
CONTINUOUS
 62
     4
100
AcDbLine
 10
742.658807
 20
90.122032
 30
0.0
 11
761.5
 21
101.0
 31
0.0
  0
LINE
  5
523
100
AcDbEntity
  8
LAY-6
  6
CONTINUOUS
 62
     4
100
AcDbLine
 10
735.341193
 20
90.122032
 30
0.0
 11
716.499999
 21
101.0
 31
0.0
  0
LINE
  5
524
100
AcDbEntity
  8
LAY-6
  6
CONTINUOUS
 62
     4
100
AcDbLine
 10
716.5
 20
101.0
 30
0.0
 11
761.5
 21
101.0
 31
0.0
  0
LINE
  5
525
100
AcDbEntity
  8
LAY-6
  6
CONTINUOUS
 62
     4
100
AcDbLine
 10
761.5
 20
104.75
 30
0.0
 11
769.0
 21
104.75
 31
0.0
  0
LINE
  5
526
100
AcDbEntity
  8
LAY-6
  6
CONTINUOUS
 62
     4
100
AcDbLine
 10
716.5
 20
104.75
 30
0.0
 11
709.0
 21
104.75
 31
0.0
  0
LINE
  5
527
100
AcDbEntity
  8
LAY-6
  6
CONTINUOUS
 62
     4
100
AcDbLine
 10
716.5
 20
97.25
 30
0.0
 11
709.0
 21
97.25
 31
0.0
  0
LINE
  5
528
100
AcDbEntity
  8
LAY-6
  6
CONTINUOUS
 62
     4
100
AcDbLine
 10
716.5
 20
97.25
 30
0.0
 11
716.5
 21
104.75
 31
0.0
  0
LINE
  5
529
100
AcDbEntity
  8
LAY-6
  6
CONTINUOUS
 62
     4
100
AcDbLine
 10
709.0
 20
97.25
 30
0.0
 11
709.0
 21
104.75
 31
0.0
  0
LINE
  5
52A
100
AcDbEntity
  8
LAY-6
  6
CONTINUOUS
 62
     4
100
AcDbLine
 10
761.5
 20
97.25
 30
0.0
 11
769.0
 21
97.25
 31
0.0
  0
LINE
  5
52B
100
AcDbEntity
  8
LAY-6
  6
CONTINUOUS
 62
     4
100
AcDbLine
 10
761.5
 20
97.25
 30
0.0
 11
761.5
 21
104.75
 31
0.0
  0
LINE
  5
52C
100
AcDbEntity
  8
LAY-6
  6
CONTINUOUS
 62
     4
100
AcDbLine
 10
769.0
 20
97.25
 30
0.0
 11
769.0
 21
104.75
 31
0.0
  0
LINE
  5
52D
100
AcDbEntity
  8
LAY-6
  6
CONTINUOUS
 62
     2
100
AcDbLine
 10
745.000003
 20
113.765001
 30
0.0
 11
739.0
 21
107.764998
 31
0.0
  0
LINE
  5
52E
100
AcDbEntity
  8
LAY-6
  6
CONTINUOUS
 62
     2
100
AcDbLine
 10
742.0
 20
113.765
 30
0.0
 11
745.000003
 21
113.765001
 31
0.0
  0
LINE
  5
52F
100
AcDbEntity
  8
LAY-6
  6
CONTINUOUS
 62
     2
100
AcDbLine
 10
733.000003
 20
113.764995
 30
0.0
 11
739.0
 21
107.764998
 31
0.0
  0
LINE
  5
530
100
AcDbEntity
  8
LAY-6
  6
CONTINUOUS
 62
     2
100
AcDbLine
 10
733.000003
 20
113.764995
 30
0.0
 11
736.0
 21
113.764996
 31
0.0
  0
LINE
  5
531
100
AcDbEntity
  8
LAY-6
  6
CONTINUOUS
 62
     2
100
AcDbLine
 10
742.0
 20
113.765
 30
0.0
 11
742.0
 21
119.765
 31
0.0
  0
LINE
  5
532
100
AcDbEntity
  8
LAY-6
  6
CONTINUOUS
 62
     2
100
AcDbLine
 10
742.0
 20
119.765
 30
0.0
 11
739.0
 21
119.765
 31
0.0
  0
LINE
  5
533
100
AcDbEntity
  8
LAY-6
  6
CONTINUOUS
 62
     2
100
AcDbLine
 10
739.0
 20
119.765
 30
0.0
 11
736.0
 21
119.765
 31
0.0
  0
LINE
  5
534
100
AcDbEntity
  8
LAY-6
  6
CONTINUOUS
 62
     2
100
AcDbLine
 10
736.0
 20
113.764996
 30
0.0
 11
736.0
 21
119.764999
 31
0.0
  0
TEXT
  5
535
100
AcDbEntity
  8
LAY-6
  6
CONTINUOUS
 62
     2
100
AcDbText
 10
705.322841
 20
126.108318
 30
0.0
 40
9.0
  1
ドアの開き勝手基準
 41
0.672
  7
EXCADSTD
 72
     5
 11
770.122844
 21
126.108318
 31
0.0
100
AcDbText
  0
LINE
  5
536
100
AcDbEntity
  8
LAY-6
  6
CONTINUOUS
 62
     2
100
AcDbLine
 10
704.113457
 20
124.279497
 30
0.0
 11
773.263457
 21
124.279497
 31
0.0
  0
TEXT
  5
537
100
AcDbEntity
  8
LAY-6
  6
CONTINUOUS
 62
     2
100
AcDbText
 10
701.244428
 20
71.110529
 30
0.0
 40
9.0
  1
本図は右開きを示します
 41
0.672
  7
EXCADSTD
 72
     5
 11
780.444431
 21
71.110529
 31
0.0
100
AcDbText
  0
TEXT
  5
538
100
AcDbEntity
  8
LAY-6
  6
CONTINUOUS
 62
     2
100
AcDbText
 10
730.813134
 20
92.896519
 30
0.0
 40
7.5
  1
右
 41
0.672
  7
EXCADSTD
 72
     5
 11
735.613134
 21
92.896519
 31
0.0
100
AcDbText
  0
TEXT
  5
539
100
AcDbEntity
  8
LAY-6
  6
CONTINUOUS
 62
     2
100
AcDbText
 10
741.528085
 20
92.885
 30
0.0
 40
7.5
  1
左
 41
0.672
  7
EXCADSTD
 72
     5
 11
746.328085
 21
92.885
 31
0.0
100
AcDbText
  0
LINE
  5
53A
100
AcDbEntity
  8
LAY-6
  6
CONTINUOUS
 62
     1
100
AcDbLine
 10
78.282059
 20
396.446389
 30
0.0
 11
78.282059
 21
437.0
 31
0.0
  0
LINE
  5
53B
100
AcDbEntity
  8
LAY-6
  6
CONTINUOUS
 62
     1
100
AcDbLine
 10
90.282064
 20
407.090001
 30
0.0
 11
90.282064
 21
437.0
 31
0.0
  0
TEXT
  5
53C
100
AcDbEntity
  8
LAY-6
  6
CONTINUOUS
 62
     2
100
AcDbText
 10
77.982061
 20
436.0
 30
0.0
 40
5.0
  1
(
 41
0.4
  7
EXCADSTD
 72
     5
 11
79.282061
 21
436.0
 31
0.0
100
AcDbText
  0
TEXT
  5
53D
100
AcDbEntity
  8
LAY-6
  6
CONTINUOUS
 62
     2
100
AcDbText
 10
79.982061
 20
436.0
 30
0.0
 40
5.0
  1
１２
 41
0.672
  7
EXCADSTD
 72
     5
 11
87.314861
 21
436.0
 31
0.0
100
AcDbText
  0
TEXT
  5
53E
100
AcDbEntity
  8
LAY-6
  6
CONTINUOUS
 62
     2
100
AcDbText
 10
87.982061
 20
436.0
 30
0.0
 40
5.0
  1
)
 41
0.4
  7
EXCADSTD
 72
     5
 11
89.282061
 21
436.0
 31
0.0
100
AcDbText
  0
LINE
  5
53F
100
AcDbEntity
  8
LAY-6
  6
CONTINUOUS
 62
     1
100
AcDbLine
 10
78.282059
 20
435.5
 30
0.0
 11
90.282064
 21
435.5
 31
0.0
  0
LINE
  5
540
100
AcDbEntity
  8
LAY-6
  6
CONTINUOUS
 62
     1
100
AcDbLine
 10
80.282059
 20
435.833333
 30
0.0
 11
78.282059
 21
435.5
 31
0.0
  0
LINE
  5
541
100
AcDbEntity
  8
LAY-6
  6
CONTINUOUS
 62
     1
100
AcDbLine
 10
78.282059
 20
435.5
 30
0.0
 11
80.282059
 21
435.166667
 31
0.0
  0
LINE
  5
542
100
AcDbEntity
  8
LAY-6
  6
CONTINUOUS
 62
     1
100
AcDbLine
 10
88.282064
 20
435.166667
 30
0.0
 11
90.282064
 21
435.5
 31
0.0
  0
LINE
  5
543
100
AcDbEntity
  8
LAY-6
  6
CONTINUOUS
 62
     1
100
AcDbLine
 10
90.282064
 20
435.5
 30
0.0
 11
88.282064
 21
435.833333
 31
0.0
  0
LINE
  5
544
100
AcDbEntity
  8
LAY-6
  6
CONTINUOUS
 62
     1
100
AcDbLine
 10
110.282064
 20
421.090001
 30
0.0
 11
110.282064
 21
437.0
 31
0.0
  0
TEXT
  5
545
100
AcDbEntity
  8
LAY-6
  6
CONTINUOUS
 62
     2
100
AcDbText
 10
92.282064
 20
436.0
 30
0.0
 40
5.0
  1
（
 41
0.672
  7
EXCADSTD
 72
     5
 11
95.482064
 21
436.0
 31
0.0
100
AcDbText
  0
TEXT
  5
546
100
AcDbEntity
  8
LAY-6
  6
CONTINUOUS
 62
     2
100
AcDbText
 10
96.282064
 20
436.0
 30
0.0
 40
5.0
  1
２０
 41
0.672
  7
EXCADSTD
 72
     5
 11
103.614864
 21
436.0
 31
0.0
100
AcDbText
  0
TEXT
  5
547
100
AcDbEntity
  8
LAY-6
  6
CONTINUOUS
 62
     2
100
AcDbText
 10
104.282064
 20
436.0
 30
0.0
 40
5.0
  1
）
 41
0.672
  7
EXCADSTD
 72
     5
 11
107.482064
 21
436.0
 31
0.0
100
AcDbText
  0
LINE
  5
548
100
AcDbEntity
  8
LAY-6
  6
CONTINUOUS
 62
     1
100
AcDbLine
 10
90.282064
 20
435.5
 30
0.0
 11
110.282064
 21
435.5
 31
0.0
  0
LINE
  5
549
100
AcDbEntity
  8
LAY-6
  6
CONTINUOUS
 62
     1
100
AcDbLine
 10
92.282064
 20
435.833333
 30
0.0
 11
90.282064
 21
435.5
 31
0.0
  0
LINE
  5
54A
100
AcDbEntity
  8
LAY-6
  6
CONTINUOUS
 62
     1
100
AcDbLine
 10
90.282064
 20
435.5
 30
0.0
 11
92.282064
 21
435.166667
 31
0.0
  0
LINE
  5
54B
100
AcDbEntity
  8
LAY-6
  6
CONTINUOUS
 62
     1
100
AcDbLine
 10
108.282064
 20
435.166667
 30
0.0
 11
110.282064
 21
435.5
 31
0.0
  0
LINE
  5
54C
100
AcDbEntity
  8
LAY-6
  6
CONTINUOUS
 62
     1
100
AcDbLine
 10
110.282064
 20
435.5
 30
0.0
 11
108.282064
 21
435.833333
 31
0.0
  0
LINE
  5
54D
100
AcDbEntity
  8
LAY-6
  6
CONTINUOUS
 62
     1
100
AcDbLine
 10
140.282064
 20
407.090001
 30
0.0
 11
140.282064
 21
437.0
 31
0.0
  0
TEXT
  5
54E
100
AcDbEntity
  8
LAY-6
  6
CONTINUOUS
 62
     2
100
AcDbText
 10
117.282064
 20
436.0
 30
0.0
 40
5.0
  1
（
 41
0.672
  7
EXCADSTD
 72
     5
 11
120.482064
 21
436.0
 31
0.0
100
AcDbText
  0
TEXT
  5
54F
100
AcDbEntity
  8
LAY-6
  6
CONTINUOUS
 62
     2
100
AcDbText
 10
121.282064
 20
436.0
 30
0.0
 40
5.0
  1
３０
 41
0.672
  7
EXCADSTD
 72
     5
 11
128.614864
 21
436.0
 31
0.0
100
AcDbText
  0
TEXT
  5
550
100
AcDbEntity
  8
LAY-6
  6
CONTINUOUS
 62
     2
100
AcDbText
 10
129.282064
 20
436.0
 30
0.0
 40
5.0
  1
）
 41
0.672
  7
EXCADSTD
 72
     5
 11
132.482064
 21
436.0
 31
0.0
100
AcDbText
  0
LINE
  5
551
100
AcDbEntity
  8
LAY-6
  6
CONTINUOUS
 62
     1
100
AcDbLine
 10
110.282064
 20
435.5
 30
0.0
 11
140.282064
 21
435.5
 31
0.0
  0
LINE
  5
552
100
AcDbEntity
  8
LAY-6
  6
CONTINUOUS
 62
     1
100
AcDbLine
 10
112.282064
 20
435.833333
 30
0.0
 11
110.282064
 21
435.5
 31
0.0
  0
LINE
  5
553
100
AcDbEntity
  8
LAY-6
  6
CONTINUOUS
 62
     1
100
AcDbLine
 10
110.282064
 20
435.5
 30
0.0
 11
112.282064
 21
435.166667
 31
0.0
  0
LINE
  5
554
100
AcDbEntity
  8
LAY-6
  6
CONTINUOUS
 62
     1
100
AcDbLine
 10
138.282064
 20
435.166667
 30
0.0
 11
140.282064
 21
435.5
 31
0.0
  0
LINE
  5
555
100
AcDbEntity
  8
LAY-6
  6
CONTINUOUS
 62
     1
100
AcDbLine
 10
140.282064
 20
435.5
 30
0.0
 11
138.282064
 21
435.833333
 31
0.0
  0
LINE
  5
556
100
AcDbEntity
  8
LAY-6
  6
CONTINUOUS
 62
     1
100
AcDbLine
 10
160.282064
 20
421.090001
 30
0.0
 11
160.282064
 21
437.0
 31
0.0
  0
TEXT
  5
557
100
AcDbEntity
  8
LAY-6
  6
CONTINUOUS
 62
     2
100
AcDbText
 10
142.282064
 20
436.0
 30
0.0
 40
5.0
  1
（
 41
0.672
  7
EXCADSTD
 72
     5
 11
145.482064
 21
436.0
 31
0.0
100
AcDbText
  0
TEXT
  5
558
100
AcDbEntity
  8
LAY-6
  6
CONTINUOUS
 62
     2
100
AcDbText
 10
146.282064
 20
436.0
 30
0.0
 40
5.0
  1
２０
 41
0.672
  7
EXCADSTD
 72
     5
 11
153.614864
 21
436.0
 31
0.0
100
AcDbText
  0
TEXT
  5
559
100
AcDbEntity
  8
LAY-6
  6
CONTINUOUS
 62
     2
100
AcDbText
 10
154.282064
 20
436.0
 30
0.0
 40
5.0
  1
）
 41
0.672
  7
EXCADSTD
 72
     5
 11
157.482064
 21
436.0
 31
0.0
100
AcDbText
  0
LINE
  5
55A
100
AcDbEntity
  8
LAY-6
  6
CONTINUOUS
 62
     1
100
AcDbLine
 10
140.282064
 20
435.5
 30
0.0
 11
160.282064
 21
435.5
 31
0.0
  0
LINE
  5
55B
100
AcDbEntity
  8
LAY-6
  6
CONTINUOUS
 62
     1
100
AcDbLine
 10
142.282064
 20
435.833333
 30
0.0
 11
140.282064
 21
435.5
 31
0.0
  0
LINE
  5
55C
100
AcDbEntity
  8
LAY-6
  6
CONTINUOUS
 62
     1
100
AcDbLine
 10
140.282064
 20
435.5
 30
0.0
 11
142.282064
 21
435.166667
 31
0.0
  0
LINE
  5
55D
100
AcDbEntity
  8
LAY-6
  6
CONTINUOUS
 62
     1
100
AcDbLine
 10
158.282064
 20
435.166667
 30
0.0
 11
160.282064
 21
435.5
 31
0.0
  0
LINE
  5
55E
100
AcDbEntity
  8
LAY-6
  6
CONTINUOUS
 62
     1
100
AcDbLine
 10
160.282064
 20
435.5
 30
0.0
 11
158.282064
 21
435.833333
 31
0.0
  0
LINE
  5
55F
100
AcDbEntity
  8
LAY-6
  6
CONTINUOUS
 62
     1
100
AcDbLine
 10
144.69
 20
402.946385
 30
0.0
 11
154.9
 21
402.946385
 31
0.0
  0
TEXT
  5
560
100
AcDbEntity
  8
LAY-6
  6
CONTINUOUS
 62
     2
100
AcDbText
 10
152.9
 20
395.446387
 30
0.0
 40
5.0
  1
(
 50
90.0
 41
0.4
  7
EXCADSTD
 72
     5
 11
152.9
 21
396.746387
 31
0.0
100
AcDbText
  0
TEXT
  5
561
100
AcDbEntity
  8
LAY-6
  6
CONTINUOUS
 62
     2
100
AcDbText
 10
152.9
 20
397.446387
 30
0.0
 40
5.0
  1
７
 50
90.0
 41
0.672
  7
EXCADSTD
 72
     5
 11
152.9
 21
400.646387
 31
0.0
100
AcDbText
  0
TEXT
  5
562
100
AcDbEntity
  8
LAY-6
  6
CONTINUOUS
 62
     2
100
AcDbText
 10
152.9
 20
401.446387
 30
0.0
 40
5.0
  1
)
 50
90.0
 41
0.4
  7
EXCADSTD
 72
     5
 11
152.9
 21
402.746387
 31
0.0
100
AcDbText
  0
LINE
  5
563
100
AcDbEntity
  8
LAY-6
  6
CONTINUOUS
 62
     1
100
AcDbLine
 10
153.4
 20
392.946389
 30
0.0
 11
153.4
 21
402.946385
 31
0.0
  0
LINE
  5
564
100
AcDbEntity
  8
LAY-6
  6
CONTINUOUS
 62
     1
100
AcDbLine
 10
153.733333
 20
393.946389
 30
0.0
 11
153.4
 21
395.946389
 31
0.0
  0
LINE
  5
565
100
AcDbEntity
  8
LAY-6
  6
CONTINUOUS
 62
     1
100
AcDbLine
 10
153.4
 20
395.946389
 30
0.0
 11
153.066667
 21
393.946389
 31
0.0
  0
LINE
  5
566
100
AcDbEntity
  8
LAY-6
  6
CONTINUOUS
 62
     1
100
AcDbLine
 10
155.91
 20
416.946385
 30
0.0
 11
151.9
 21
416.946385
 31
0.0
  0
TEXT
  5
567
100
AcDbEntity
  8
LAY-6
  6
CONTINUOUS
 62
     2
100
AcDbText
 10
152.9
 20
401.946385
 30
0.0
 40
5.0
  1
（
 50
90.0
 41
0.672
  7
EXCADSTD
 72
     5
 11
152.9
 21
405.146385
 31
0.0
100
AcDbText
  0
TEXT
  5
568
100
AcDbEntity
  8
LAY-6
  6
CONTINUOUS
 62
     2
100
AcDbText
 10
152.9
 20
405.946385
 30
0.0
 40
5.0
  1
１４
 50
90.0
 41
0.672
  7
EXCADSTD
 72
     5
 11
152.9
 21
413.279185
 31
0.0
100
AcDbText
  0
TEXT
  5
569
100
AcDbEntity
  8
LAY-6
  6
CONTINUOUS
 62
     2
100
AcDbText
 10
152.9
 20
413.946385
 30
0.0
 40
5.0
  1
）
 50
90.0
 41
0.672
  7
EXCADSTD
 72
     5
 11
152.9
 21
417.146385
 31
0.0
100
AcDbText
  0
LINE
  5
56A
100
AcDbEntity
  8
LAY-6
  6
CONTINUOUS
 62
     1
100
AcDbLine
 10
153.4
 20
402.946385
 30
0.0
 11
153.4
 21
416.946385
 31
0.0
  0
LINE
  5
56B
100
AcDbEntity
  8
LAY-6
  6
CONTINUOUS
 62
     1
100
AcDbLine
 10
153.066667
 20
404.946385
 30
0.0
 11
153.4
 21
402.946385
 31
0.0
  0
LINE
  5
56C
100
AcDbEntity
  8
LAY-6
  6
CONTINUOUS
 62
     1
100
AcDbLine
 10
153.4
 20
402.946385
 30
0.0
 11
153.733333
 21
404.946385
 31
0.0
  0
LINE
  5
56D
100
AcDbEntity
  8
LAY-6
  6
CONTINUOUS
 62
     1
100
AcDbLine
 10
153.733333
 20
414.946385
 30
0.0
 11
153.4
 21
416.946385
 31
0.0
  0
LINE
  5
56E
100
AcDbEntity
  8
LAY-6
  6
CONTINUOUS
 62
     1
100
AcDbLine
 10
153.4
 20
416.946385
 30
0.0
 11
153.066667
 21
414.946385
 31
0.0
  0
TEXT
  5
56F
100
AcDbEntity
  8
LAY-6
  6
CONTINUOUS
 62
     2
100
AcDbText
 10
181.15
 20
456.9
 30
0.0
 40
5.0
  1
４－Ｍ５×２０皿小ネジ(P=0.8)(別途)
 41
0.576198
  7
EXCADSTD
 72
     5
 11
251.15
 21
456.9
 31
0.0
100
AcDbText
  0
POLYLINE
  5
570
100
AcDbEntity
  8
LAY-6
  6
CONTINUOUS
 62
     1
100
AcDb2dPolyline
 66
     1
 10
0.0
 20
0.0
 30
0.0
 70
   128
  0
VERTEX
  5
571
100
AcDbEntity
  8
LAY-6
  6
CONTINUOUS
 62
     1
100
AcDbVertex
100
AcDb2dVertex
 10
161.671531
 20
419.605214
 30
0.0
  0
VERTEX
  5
572
100
AcDbEntity
  8
LAY-6
  6
CONTINUOUS
 62
     1
100
AcDbVertex
100
AcDb2dVertex
 10
180.9
 20
456.4
 30
0.0
  0
VERTEX
  5
573
100
AcDbEntity
  8
LAY-6
  6
CONTINUOUS
 62
     1
100
AcDbVertex
100
AcDb2dVertex
 10
251.4
 20
456.4
 30
0.0
  0
SEQEND
  5
574
100
AcDbEntity
  8
LAY-6
  6
CONTINUOUS
 62
     1
  0
LINE
  5
575
100
AcDbEntity
  8
LAY-6
  6
CONTINUOUS
 62
     1
100
AcDbLine
 10
162.302418
 20
421.532153
 30
0.0
 11
161.671531
 21
419.605214
 31
0.0
  0
LINE
  5
576
100
AcDbEntity
  8
LAY-6
  6
CONTINUOUS
 62
     1
100
AcDbLine
 10
161.671531
 20
419.605214
 30
0.0
 11
162.893269
 21
421.223382
 31
0.0
  0
TEXT
  5
577
100
AcDbEntity
  8
LAY-6
  6
CONTINUOUS
 62
     2
100
AcDbText
 10
338.4
 20
261.1
 30
0.0
 40
5.0
  1
４－Ｍ５×２０皿小ネジ(P=0.8)(別途)
 41
0.576198
  7
EXCADSTD
 72
     5
 11
408.4
 21
261.1
 31
0.0
100
AcDbText
  0
POLYLINE
  5
578
100
AcDbEntity
  8
LAY-6
  6
CONTINUOUS
 62
     1
100
AcDb2dPolyline
 66
     1
 10
0.0
 20
0.0
 30
0.0
 70
   128
  0
VERTEX
  5
579
100
AcDbEntity
  8
LAY-6
  6
CONTINUOUS
 62
     1
100
AcDbVertex
100
AcDb2dVertex
 10
307.282082
 20
228.20964
 30
0.0
  0
VERTEX
  5
57A
100
AcDbEntity
  8
LAY-6
  6
CONTINUOUS
 62
     1
100
AcDbVertex
100
AcDb2dVertex
 10
337.7
 20
260.6
 30
0.0
  0
VERTEX
  5
57B
100
AcDbEntity
  8
LAY-6
  6
CONTINUOUS
 62
     1
100
AcDbVertex
100
AcDb2dVertex
 10
409.1
 20
260.6
 30
0.0
  0
SEQEND
  5
57C
100
AcDbEntity
  8
LAY-6
  6
CONTINUOUS
 62
     1
  0
LINE
  5
57D
100
AcDbEntity
  8
LAY-6
  6
CONTINUOUS
 62
     1
100
AcDbLine
 10
308.408224
 20
229.895735
 30
0.0
 11
307.282082
 21
228.20964
 31
0.0
  0
LINE
  5
57E
100
AcDbEntity
  8
LAY-6
  6
CONTINUOUS
 62
     1
100
AcDbLine
 10
307.282082
 20
228.20964
 30
0.0
 11
308.894193
 21
229.439359
 31
0.0
  0
LINE
  5
57F
100
AcDbEntity
  8
LAY-6
  6
CONTINUOUS
 62
     1
100
AcDbLine
 10
295.176674
 20
349.874378
 30
0.0
 11
305.693608
 21
355.946332
 31
0.0
  0
LINE
  5
580
100
AcDbEntity
  8
LAY-6
  6
CONTINUOUS
 62
     1
100
AcDbLine
 10
321.282051
 20
408.3
 30
0.0
 11
301.9
 21
408.3
 31
0.0
  0
INSERT
  5
581
100
AcDbEntity
  8
LAY-6
  6
CONTINUOUS
 62
     0
100
AcDbBlockReference
  2
SYM-1
 10
285.0
 20
463.0
 30
0.0
  0
TEXT
  5
582
100
AcDbEntity
  8
LAY-6
  6
CONTINUOUS
 62
     2
100
AcDbText
 10
424.996612
 20
403.532399
 30
0.0
 40
6.0
  1
ド　ア
 41
0.672
  7
EXCADSTD
 72
     5
 11
439.396613
 21
403.532399
 31
0.0
100
AcDbText
  0
LINE
  5
583
100
AcDbEntity
  8
LAY-6
  6
CONTINUOUS
 62
     1
100
AcDbLine
 10
418.1
 20
394.946358
 30
0.0
 11
418.1
 21
389.946389
 31
0.0
  0
LINE
  5
584
100
AcDbEntity
  8
LAY-6
  6
CONTINUOUS
 62
     1
100
AcDbLine
 10
347.208506
 20
211.178268
 30
0.0
 11
336.870539
 21
205.20964
 31
0.0
  0
LINE
  5
585
100
AcDbEntity
  8
LAY-6
  6
CONTINUOUS
 62
     1
100
AcDbLine
 10
300.782067
 20
253.393
 30
0.0
 11
283.0
 21
253.393
 31
0.0
  0
LINE
  5
586
100
AcDbEntity
  8
LAY-6
  6
CONTINUOUS
 62
     1
100
AcDbLine
 10
294.782067
 20
218.20964
 30
0.0
 11
294.782067
 21
205.193
 31
0.0
  0
INSERT
  5
587
100
AcDbEntity
  8
LAY-6
  6
CONTINUOUS
 62
     0
100
AcDbBlockReference
  2
SYM-2
 10
285.0
 20
289.193
 30
0.0
  0
TEXT
  5
588
100
AcDbEntity
  8
LAY-6
  6
CONTINUOUS
 62
     2
100
AcDbText
 10
268.996598
 20
264.409027
 30
0.0
 40
6.0
  1
竪　枠
 41
0.672
  7
EXCADSTD
 72
     5
 11
283.396598
 21
264.409027
 31
0.0
100
AcDbText
  0
LINE
  5
589
100
AcDbEntity
  8
LAY-6
  6
CONTINUOUS
 62
     1
100
AcDbLine
 10
275.1
 20
196.20964
 30
0.0
 11
275.1
 21
190.23259
 31
0.0
  0
LINE
  5
58A
100
AcDbEntity
  8
LAY-6
  6
CONTINUOUS
 62
     1
100
AcDbLine
 10
300.782067
 20
253.393
 30
0.0
 11
314.282078
 21
253.393
 31
0.0
  0
LINE
  5
58B
100
AcDbEntity
  8
LAY-6
  6
CONTINUOUS
 62
     1
100
AcDbLine
 10
300.782067
 20
270.693
 30
0.0
 11
294.782067
 21
270.693
 31
0.0
  0
LINE
  5
58C
100
AcDbEntity
  8
LAY-6
  6
CONTINUOUS
 62
     1
100
AcDbLine
 10
56.176676
 20
349.874373
 30
0.0
 11
66.69361
 21
355.946328
 31
0.0
  0
LINE
  5
58D
100
AcDbEntity
  8
LAY-6
  6
CONTINUOUS
 62
     1
100
AcDbLine
 10
56.1767
 20
181.137645
 30
0.0
 11
66.693634
 21
187.209599
 31
0.0
  0
LINE
  5
58E
100
AcDbEntity
  8
LAY-6
  6
CONTINUOUS
 62
     1
100
AcDbLine
 10
71.282093
 20
240.8
 30
0.0
 11
62.6
 21
240.8
 31
0.0
  0
INSERT
  5
58F
100
AcDbEntity
  8
LAY-6
  6
CONTINUOUS
 62
     0
100
AcDbBlockReference
  2
SYM-3
 10
43.0
 20
306.0
 30
0.0
  0
TEXT
  5
590
100
AcDbEntity
  8
LAY-6
  6
CONTINUOUS
 62
     2
100
AcDbText
 10
44.078688
 20
426.123758
 30
0.0
 40
6.0
  1
竪　枠
 41
0.672
  7
EXCADSTD
 72
     5
 11
58.478689
 21
426.123758
 31
0.0
100
AcDbText
  0
TEXT
  5
591
100
AcDbEntity
  8
LAY-6
  6
CONTINUOUS
 62
     2
100
AcDbText
 10
196.7
 20
394.432669
 30
0.0
 40
6.0
  1
上　枠
 41
0.672
  7
EXCADSTD
 72
     5
 11
211.100001
 21
394.432669
 31
0.0
100
AcDbText
  0
TEXT
  5
592
100
AcDbEntity
  8
LAY-6
  6
CONTINUOUS
 62
     2
100
AcDbText
 10
192.096617
 20
235.032425
 30
0.0
 40
6.0
  1
ド　ア
 41
0.672
  7
EXCADSTD
 72
     5
 11
206.496618
 21
235.032425
 31
0.0
100
AcDbText
  0
INSERT
  5
593
100
AcDbEntity
  8
LAY-6
  6
CONTINUOUS
 62
     0
100
AcDbBlockReference
  2
SYM-4
 10
43.0
 20
464.0
 30
0.0
  0
LINE
  5
594
100
AcDbEntity
  8
LAY-6
  6
CONTINUOUS
 62
     1
100
AcDbLine
 10
180.0
 20
226.209671
 30
0.0
 11
180.0
 21
221.209656
 31
0.0
  0
LINE
  5
595
100
AcDbEntity
  8
LAY-6
  6
CONTINUOUS
 62
     1
100
AcDbLine
 10
82.282059
 20
418.1
 30
0.0
 11
78.282059
 21
418.1
 31
0.0
  0
LINE
  5
596
100
AcDbEntity
  8
LAY-6
  6
CONTINUOUS
 62
     1
100
AcDbLine
 10
753.056019
 20
375.147904
 30
0.0
 11
753.056019
 21
343.9
 31
0.0
  0
LINE
  5
597
100
AcDbEntity
  8
LAY-6
  6
CONTINUOUS
 62
     1
100
AcDbLine
 10
647.256019
 20
373.6
 30
0.0
 11
639.656018
 21
373.6
 31
0.0
  0
TEXT
  5
598
100
AcDbEntity
  8
LAY-6
  6
CONTINUOUS
 62
     2
100
AcDbText
 10
711.586316
 20
305.4
 30
0.0
 40
6.0
  1
ド　ア
 41
0.672
  7
EXCADSTD
 72
     5
 11
725.986317
 21
305.4
 31
0.0
100
AcDbText
  0
TEXT
  5
599
100
AcDbEntity
  8
LAY-6
  6
CONTINUOUS
 62
     2
100
AcDbText
 10
617.656018
 20
173.332703
 30
0.0
 40
6.0
  1
床　面
 41
0.672
  7
EXCADSTD
 72
     5
 11
632.056019
 21
173.332703
 31
0.0
100
AcDbText
  0
TEXT
  5
59A
100
AcDbEntity
  8
LAY-6
  6
CONTINUOUS
 62
     2
100
AcDbText
 10
759.507593
 20
397.649622
 30
0.0
 40
6.0
  1
上　枠
 41
0.672
  7
EXCADSTD
 72
     5
 11
773.907594
 21
397.649622
 31
0.0
100
AcDbText
  0
LINE
  5
59B
100
AcDbEntity
  8
LAY-6
  6
CONTINUOUS
 62
     1
100
AcDbLine
 10
774.056019
 20
190.298157
 30
0.0
 11
774.056019
 21
184.298249
 31
0.0
  0
LINE
  5
59C
100
AcDbEntity
  8
LAY-6
  6
CONTINUOUS
 62
     1
100
AcDbLine
 10
750.956018
 20
206.298188
 30
0.0
 11
750.956018
 21
190.298157
 31
0.0
  0
LINE
  5
59D
100
AcDbEntity
  8
LAY-6
  6
CONTINUOUS
 62
     1
100
AcDbLine
 10
648.156018
 20
190.298249
 30
0.0
 11
648.156018
 21
184.298249
 31
0.0
  0
LINE
  5
59E
100
AcDbEntity
  8
LAY-6
  6
CONTINUOUS
 62
     1
100
AcDbLine
 10
774.056019
 20
372.147904
 30
0.0
 11
774.056019
 21
375.147904
 31
0.0
  0
LINE
  5
59F
100
AcDbEntity
  8
LAY-6
  6
CONTINUOUS
 62
     1
100
AcDbLine
 10
753.056019
 20
380.147934
 30
0.0
 11
753.056019
 21
375.147904
 31
0.0
  0
LINE
  5
5A0
100
AcDbEntity
  8
LAY-6
  6
CONTINUOUS
 62
     1
100
AcDbLine
 10
647.356019
 20
375.147904
 30
0.0
 11
647.356019
 21
372.147904
 31
0.0
  0
POLYLINE
  5
5A1
100
AcDbEntity
  8
LAY-6
  6
CONTINUOUS
 62
     1
100
AcDb2dPolyline
 66
     1
 10
0.0
 20
0.0
 30
0.0
 70
   128
  0
VERTEX
  5
5A2
100
AcDbEntity
  8
LAY-6
  6
CONTINUOUS
 62
     1
100
AcDbVertex
100
AcDb2dVertex
 10
668.312036
 20
394.147904
 30
0.0
  0
VERTEX
  5
5A3
100
AcDbEntity
  8
LAY-6
  6
CONTINUOUS
 62
     1
100
AcDbVertex
100
AcDb2dVertex
 10
653.056019
 20
411.7
 30
0.0
  0
VERTEX
  5
5A4
100
AcDbEntity
  8
LAY-6
  6
CONTINUOUS
 62
     1
100
AcDbVertex
100
AcDb2dVertex
 10
621.056019
 20
411.7
 30
0.0
  0
SEQEND
  5
5A5
100
AcDbEntity
  8
LAY-6
  6
CONTINUOUS
 62
     1
  0
LINE
  5
5A6
100
AcDbEntity
  8
LAY-6
  6
CONTINUOUS
 62
     1
100
AcDbLine
 10
666.748423
 20
395.438727
 30
0.0
 11
668.312036
 21
394.147904
 31
0.0
  0
LINE
  5
5A7
100
AcDbEntity
  8
LAY-6
  6
CONTINUOUS
 62
     1
100
AcDbLine
 10
668.312036
 20
394.147904
 30
0.0
 11
667.251588
 21
395.876071
 31
0.0
  0
TEXT
  5
5A8
100
AcDbEntity
  8
LAY-6
  6
CONTINUOUS
 62
     2
100
AcDbText
 10
490.912037
 20
258.0
 30
0.0
 40
5.0
  1
２２
 41
0.672
  7
EXCADSTD
 72
     5
 11
498.244837
 21
258.0
 31
0.0
100
AcDbText
  0
LINE
  5
5A9
100
AcDbEntity
  8
LAY-6
  6
CONTINUOUS
 62
     1
100
AcDbLine
 10
483.912067
 20
225.8
 30
0.0
 11
483.912067
 21
259.0
 31
0.0
  0
LINE
  5
5AA
100
AcDbEntity
  8
LAY-6
  6
CONTINUOUS
 62
     1
100
AcDbLine
 10
483.912067
 20
257.5
 30
0.0
 11
505.912006
 21
257.5
 31
0.0
  0
LINE
  5
5AB
100
AcDbEntity
  8
LAY-6
  6
CONTINUOUS
 62
     1
100
AcDbLine
 10
486.912067
 20
258.0
 30
0.0
 11
483.912067
 21
257.5
 31
0.0
  0
LINE
  5
5AC
100
AcDbEntity
  8
LAY-6
  6
CONTINUOUS
 62
     1
100
AcDbLine
 10
483.912067
 20
257.5
 30
0.0
 11
486.912067
 21
257.0
 31
0.0
  0
LINE
  5
5AD
100
AcDbEntity
  8
LAY-6
  6
CONTINUOUS
 62
     1
100
AcDbLine
 10
502.912006
 20
257.0
 30
0.0
 11
505.912006
 21
257.5
 31
0.0
  0
LINE
  5
5AE
100
AcDbEntity
  8
LAY-6
  6
CONTINUOUS
 62
     1
100
AcDbLine
 10
505.912006
 20
257.5
 30
0.0
 11
502.912006
 21
258.0
 31
0.0
  0
LINE
  5
5AF
100
AcDbEntity
  8
LAY-6
  6
CONTINUOUS
 62
     1
100
AcDbLine
 10
533.912067
 20
239.298249
 30
0.0
 11
533.912067
 21
259.0
 31
0.0
  0
TEXT
  5
5B0
100
AcDbEntity
  8
LAY-6
  6
CONTINUOUS
 62
     2
100
AcDbText
 10
515.912037
 20
258.0
 30
0.0
 40
5.0
  1
２８
 41
0.672
  7
EXCADSTD
 72
     5
 11
523.244837
 21
258.0
 31
0.0
100
AcDbText
  0
LINE
  5
5B1
100
AcDbEntity
  8
LAY-6
  6
CONTINUOUS
 62
     1
100
AcDbLine
 10
505.912006
 20
257.5
 30
0.0
 11
533.912067
 21
257.5
 31
0.0
  0
LINE
  5
5B2
100
AcDbEntity
  8
LAY-6
  6
CONTINUOUS
 62
     1
100
AcDbLine
 10
508.912006
 20
258.0
 30
0.0
 11
505.912006
 21
257.5
 31
0.0
  0
LINE
  5
5B3
100
AcDbEntity
  8
LAY-6
  6
CONTINUOUS
 62
     1
100
AcDbLine
 10
505.912006
 20
257.5
 30
0.0
 11
508.912006
 21
257.0
 31
0.0
  0
LINE
  5
5B4
100
AcDbEntity
  8
LAY-6
  6
CONTINUOUS
 62
     1
100
AcDbLine
 10
530.912067
 20
257.0
 30
0.0
 11
533.912067
 21
257.5
 31
0.0
  0
LINE
  5
5B5
100
AcDbEntity
  8
LAY-6
  6
CONTINUOUS
 62
     1
100
AcDbLine
 10
533.912067
 20
257.5
 30
0.0
 11
530.912067
 21
258.0
 31
0.0
  0
LINE
  5
5B6
100
AcDbEntity
  8
LAY-6
  6
CONTINUOUS
 62
     1
100
AcDbLine
 10
591.556018
 20
184.298249
 30
0.0
 11
569.156018
 21
184.298249
 31
0.0
  0
LINE
  5
5B7
100
AcDbEntity
  8
LAY-6
  6
CONTINUOUS
 62
     1
100
AcDbLine
 10
465.912067
 20
184.298249
 30
0.0
 11
436.956019
 21
184.298249
 31
0.0
  0
TEXT
  5
5B8
100
AcDbEntity
  8
LAY-6
  6
CONTINUOUS
 62
     2
100
AcDbText
 10
437.956019
 20
212.798249
 30
0.0
 40
5.0
  1
６５
 50
90.0
 41
0.672
  7
EXCADSTD
 72
     5
 11
437.956019
 21
220.131049
 31
0.0
100
AcDbText
  0
LINE
  5
5B9
100
AcDbEntity
  8
LAY-6
  6
CONTINUOUS
 62
     1
100
AcDbLine
 10
438.456019
 20
184.298249
 30
0.0
 11
438.456019
 21
249.298249
 31
0.0
  0
LINE
  5
5BA
100
AcDbEntity
  8
LAY-6
  6
CONTINUOUS
 62
     1
100
AcDbLine
 10
437.956019
 20
187.298249
 30
0.0
 11
438.456019
 21
184.298249
 31
0.0
  0
LINE
  5
5BB
100
AcDbEntity
  8
LAY-6
  6
CONTINUOUS
 62
     1
100
AcDbLine
 10
438.456019
 20
184.298249
 30
0.0
 11
438.956019
 21
187.298249
 31
0.0
  0
LINE
  5
5BC
100
AcDbEntity
  8
LAY-6
  6
CONTINUOUS
 62
     1
100
AcDbLine
 10
438.956019
 20
246.298249
 30
0.0
 11
438.456019
 21
249.298249
 31
0.0
  0
LINE
  5
5BD
100
AcDbEntity
  8
LAY-6
  6
CONTINUOUS
 62
     1
100
AcDbLine
 10
438.456019
 20
249.298249
 30
0.0
 11
437.956019
 21
246.298249
 31
0.0
  0
CIRCLE
  5
5BE
100
AcDbEntity
  8
LAY-6
  6
CONTINUOUS
 62
     1
100
AcDbCircle
 10
472.956019
 20
168.9
 30
0.0
 40
4.0
  0
POLYLINE
  5
5BF
100
AcDbEntity
  8
LAY-6
  6
CONTINUOUS
 62
     1
100
AcDb2dPolyline
 66
     1
 10
0.0
 20
0.0
 30
0.0
 70
   128
  0
VERTEX
  5
5C0
100
AcDbEntity
  8
LAY-6
  6
CONTINUOUS
 62
     1
100
AcDbVertex
100
AcDb2dVertex
 10
475.656018
 20
184.298249
 30
0.0
  0
VERTEX
  5
5C1
100
AcDbEntity
  8
LAY-6
  6
CONTINUOUS
 62
     1
100
AcDbVertex
100
AcDb2dVertex
 10
473.646857
 20
172.839891
 30
0.0
  0
SEQEND
  5
5C2
100
AcDbEntity
  8
LAY-6
  6
CONTINUOUS
 62
     1
  0
LINE
  5
5C3
100
AcDbEntity
  8
LAY-6
  6
CONTINUOUS
 62
     1
100
AcDbLine
 10
475.630376
 20
181.256976
 30
0.0
 11
475.656018
 21
184.298249
 31
0.0
  0
LINE
  5
5C4
100
AcDbEntity
  8
LAY-6
  6
CONTINUOUS
 62
     1
100
AcDbLine
 10
475.656018
 20
184.298249
 30
0.0
 11
474.645403
 21
181.429686
 31
0.0
  0
TEXT
  5
5C5
100
AcDbEntity
  8
LAY-6
  6
CONTINUOUS
 62
     2
100
AcDbText
 10
470.127591
 20
166.071573
 30
0.0
 40
5.656854
  1
４
 41
0.84
  7
EXCADSTD
 72
     5
 11
474.653075
 21
166.071573
 31
0.0
100
AcDbText
  0
LINE
  5
5C6
100
AcDbEntity
  8
LAY-6
  6
CONTINUOUS
 62
     1
100
AcDbLine
 10
491.656018
 20
249.298249
 30
0.0
 11
436.956019
 21
249.298249
 31
0.0
  0
TEXT
  5
5C7
100
AcDbEntity
  8
LAY-6
  6
CONTINUOUS
 62
     2
100
AcDbText
 10
427.856018
 20
173.332703
 30
0.0
 40
6.0
  1
床　面
 41
0.672
  7
EXCADSTD
 72
     5
 11
442.256019
 21
173.332703
 31
0.0
100
AcDbText
  0
TEXT
  5
5C8
100
AcDbEntity
  8
LAY-6
  6
CONTINUOUS
 62
     2
100
AcDbText
 10
562.7
 20
185.298249
 30
0.0
 40
5.0
  1
１０
 50
90.0
 41
0.672
  7
EXCADSTD
 72
     5
 11
562.7
 21
192.631049
 31
0.0
100
AcDbText
  0
LINE
  5
5C9
100
AcDbEntity
  8
LAY-6
  6
CONTINUOUS
 62
     1
100
AcDbLine
 10
529.412068
 20
194.298249
 30
0.0
 11
564.7
 21
194.298249
 31
0.0
  0
LINE
  5
5CA
100
AcDbEntity
  8
LAY-6
  6
CONTINUOUS
 62
     1
100
AcDbLine
 10
563.2
 20
184.298249
 30
0.0
 11
563.2
 21
194.298249
 31
0.0
  0
LINE
  5
5CB
100
AcDbEntity
  8
LAY-6
  6
CONTINUOUS
 62
     1
100
AcDbLine
 10
562.866667
 20
186.298249
 30
0.0
 11
563.2
 21
184.298249
 31
0.0
  0
LINE
  5
5CC
100
AcDbEntity
  8
LAY-6
  6
CONTINUOUS
 62
     1
100
AcDbLine
 10
563.2
 20
184.298249
 30
0.0
 11
563.533333
 21
186.298249
 31
0.0
  0
LINE
  5
5CD
100
AcDbEntity
  8
LAY-6
  6
CONTINUOUS
 62
     1
100
AcDbLine
 10
563.533333
 20
192.298249
 30
0.0
 11
563.2
 21
194.298249
 31
0.0
  0
LINE
  5
5CE
100
AcDbEntity
  8
LAY-6
  6
CONTINUOUS
 62
     1
100
AcDbLine
 10
563.2
 20
194.298249
 30
0.0
 11
562.866667
 21
192.298249
 31
0.0
  0
LINE
  5
5CF
100
AcDbEntity
  8
LAY-6
  6
CONTINUOUS
 62
     1
100
AcDbLine
 10
529.412068
 20
244.298249
 30
0.0
 11
564.7
 21
244.298249
 31
0.0
  0
LINE
  5
5D0
100
AcDbEntity
  8
LAY-6
  6
CONTINUOUS
 62
     1
100
AcDbLine
 10
563.2
 20
194.298249
 30
0.0
 11
563.2
 21
244.298249
 31
0.0
  0
LINE
  5
5D1
100
AcDbEntity
  8
LAY-6
  6
CONTINUOUS
 62
     1
100
AcDbLine
 10
562.866667
 20
196.298249
 30
0.0
 11
563.2
 21
194.298249
 31
0.0
  0
LINE
  5
5D2
100
AcDbEntity
  8
LAY-6
  6
CONTINUOUS
 62
     1
100
AcDbLine
 10
563.2
 20
194.298249
 30
0.0
 11
563.533333
 21
196.298249
 31
0.0
  0
LINE
  5
5D3
100
AcDbEntity
  8
LAY-6
  6
CONTINUOUS
 62
     1
100
AcDbLine
 10
563.533333
 20
242.298249
 30
0.0
 11
563.2
 21
244.298249
 31
0.0
  0
LINE
  5
5D4
100
AcDbEntity
  8
LAY-6
  6
CONTINUOUS
 62
     1
100
AcDbLine
 10
563.2
 20
244.298249
 30
0.0
 11
562.866667
 21
242.298249
 31
0.0
  0
TEXT
  5
5D5
100
AcDbEntity
  8
LAY-6
  6
CONTINUOUS
 62
     2
100
AcDbText
 10
562.7
 20
215.298249
 30
0.0
 40
5.0
  1
５０
 50
90.0
 41
0.672
  7
EXCADSTD
 72
     5
 11
562.7
 21
222.631049
 31
0.0
100
AcDbText
  0
TEXT
  5
5D6
100
AcDbEntity
  8
LAY-6
  6
CONTINUOUS
 62
     2
100
AcDbText
 10
545.0
 20
193.898249
 30
0.0
 40
5.0
  1
(
 50
90.0
 41
0.36
  7
EXCADSTD
 72
     5
 11
545.0
 21
195.068249
 31
0.0
100
AcDbText
  0
TEXT
  5
5D7
100
AcDbEntity
  8
LAY-6
  6
CONTINUOUS
 62
     2
100
AcDbText
 10
545.0
 20
195.698249
 30
0.0
 40
5.0
  1
１０
 50
90.0
 41
0.6048
  7
EXCADSTD
 72
     5
 11
545.0
 21
202.297769
 31
0.0
100
AcDbText
  0
TEXT
  5
5D8
100
AcDbEntity
  8
LAY-6
  6
CONTINUOUS
 62
     2
100
AcDbText
 10
545.0
 20
202.898249
 30
0.0
 40
5.0
  1
)
 50
90.0
 41
0.36
  7
EXCADSTD
 72
     5
 11
545.0
 21
204.068249
 31
0.0
100
AcDbText
  0
LINE
  5
5D9
100
AcDbEntity
  8
LAY-6
  6
CONTINUOUS
 62
     1
100
AcDbLine
 10
529.412068
 20
194.298249
 30
0.0
 11
547.0
 21
194.298249
 31
0.0
  0
LINE
  5
5DA
100
AcDbEntity
  8
LAY-6
  6
CONTINUOUS
 62
     1
100
AcDbLine
 10
533.466019
 20
204.298249
 30
0.0
 11
547.0
 21
204.298249
 31
0.0
  0
LINE
  5
5DB
100
AcDbEntity
  8
LAY-6
  6
CONTINUOUS
 62
     1
100
AcDbLine
 10
545.5
 20
194.298249
 30
0.0
 11
545.5
 21
204.298249
 31
0.0
  0
LINE
  5
5DC
100
AcDbEntity
  8
LAY-6
  6
CONTINUOUS
 62
     1
100
AcDbLine
 10
545.166667
 20
196.298249
 30
0.0
 11
545.5
 21
194.298249
 31
0.0
  0
LINE
  5
5DD
100
AcDbEntity
  8
LAY-6
  6
CONTINUOUS
 62
     1
100
AcDbLine
 10
545.5
 20
194.298249
 30
0.0
 11
545.833333
 21
196.298249
 31
0.0
  0
LINE
  5
5DE
100
AcDbEntity
  8
LAY-6
  6
CONTINUOUS
 62
     1
100
AcDbLine
 10
545.833333
 20
202.298249
 30
0.0
 11
545.5
 21
204.298249
 31
0.0
  0
LINE
  5
5DF
100
AcDbEntity
  8
LAY-6
  6
CONTINUOUS
 62
     1
100
AcDbLine
 10
545.5
 20
204.298249
 30
0.0
 11
545.166667
 21
202.298249
 31
0.0
  0
TEXT
  5
5E0
100
AcDbEntity
  8
LAY-6
  6
CONTINUOUS
 62
     2
100
AcDbText
 10
545.0
 20
211.298249
 30
0.0
 40
5.0
  1
（
 50
90.0
 41
0.672
  7
EXCADSTD
 72
     5
 11
545.0
 21
214.498249
 31
0.0
100
AcDbText
  0
TEXT
  5
5E1
100
AcDbEntity
  8
LAY-6
  6
CONTINUOUS
 62
     2
100
AcDbText
 10
545.0
 20
215.298249
 30
0.0
 40
5.0
  1
３０
 50
90.0
 41
0.672
  7
EXCADSTD
 72
     5
 11
545.0
 21
222.631049
 31
0.0
100
AcDbText
  0
TEXT
  5
5E2
100
AcDbEntity
  8
LAY-6
  6
CONTINUOUS
 62
     2
100
AcDbText
 10
545.0
 20
223.298249
 30
0.0
 40
5.0
  1
）
 50
90.0
 41
0.672
  7
EXCADSTD
 72
     5
 11
545.0
 21
226.498249
 31
0.0
100
AcDbText
  0
LINE
  5
5E3
100
AcDbEntity
  8
LAY-6
  6
CONTINUOUS
 62
     1
100
AcDbLine
 10
533.466019
 20
234.298249
 30
0.0
 11
547.0
 21
234.298249
 31
0.0
  0
LINE
  5
5E4
100
AcDbEntity
  8
LAY-6
  6
CONTINUOUS
 62
     1
100
AcDbLine
 10
545.5
 20
204.298249
 30
0.0
 11
545.5
 21
234.298249
 31
0.0
  0
LINE
  5
5E5
100
AcDbEntity
  8
LAY-6
  6
CONTINUOUS
 62
     1
100
AcDbLine
 10
545.166667
 20
206.298249
 30
0.0
 11
545.5
 21
204.298249
 31
0.0
  0
LINE
  5
5E6
100
AcDbEntity
  8
LAY-6
  6
CONTINUOUS
 62
     1
100
AcDbLine
 10
545.5
 20
204.298249
 30
0.0
 11
545.833333
 21
206.298249
 31
0.0
  0
LINE
  5
5E7
100
AcDbEntity
  8
LAY-6
  6
CONTINUOUS
 62
     1
100
AcDbLine
 10
545.833333
 20
232.298249
 30
0.0
 11
545.5
 21
234.298249
 31
0.0
  0
LINE
  5
5E8
100
AcDbEntity
  8
LAY-6
  6
CONTINUOUS
 62
     1
100
AcDbLine
 10
545.5
 20
234.298249
 30
0.0
 11
545.166667
 21
232.298249
 31
0.0
  0
TEXT
  5
5E9
100
AcDbEntity
  8
LAY-6
  6
CONTINUOUS
 62
     2
100
AcDbText
 10
505.512007
 20
251.2
 30
0.0
 40
5.0
  1
(
 41
0.36
  7
EXCADSTD
 72
     5
 11
506.682007
 21
251.2
 31
0.0
100
AcDbText
  0
TEXT
  5
5EA
100
AcDbEntity
  8
LAY-6
  6
CONTINUOUS
 62
     2
100
AcDbText
 10
507.312007
 20
251.2
 30
0.0
 40
5.0
  1
１０
 41
0.6048
  7
EXCADSTD
 72
     5
 11
513.911526
 21
251.2
 31
0.0
100
AcDbText
  0
TEXT
  5
5EB
100
AcDbEntity
  8
LAY-6
  6
CONTINUOUS
 62
     2
100
AcDbText
 10
514.512006
 20
251.2
 30
0.0
 40
5.0
  1
)
 41
0.36
  7
EXCADSTD
 72
     5
 11
515.682006
 21
251.2
 31
0.0
100
AcDbText
  0
LINE
  5
5EC
100
AcDbEntity
  8
LAY-6
  6
CONTINUOUS
 62
     1
100
AcDbLine
 10
515.912006
 20
238.63
 30
0.0
 11
515.912006
 21
252.2
 31
0.0
  0
LINE
  5
5ED
100
AcDbEntity
  8
LAY-6
  6
CONTINUOUS
 62
     1
100
AcDbLine
 10
505.912007
 20
250.7
 30
0.0
 11
515.912006
 21
250.7
 31
0.0
  0
LINE
  5
5EE
100
AcDbEntity
  8
LAY-6
  6
CONTINUOUS
 62
     1
100
AcDbLine
 10
507.912007
 20
251.033333
 30
0.0
 11
505.912007
 21
250.7
 31
0.0
  0
LINE
  5
5EF
100
AcDbEntity
  8
LAY-6
  6
CONTINUOUS
 62
     1
100
AcDbLine
 10
505.912007
 20
250.7
 30
0.0
 11
507.912007
 21
250.366667
 31
0.0
  0
LINE
  5
5F0
100
AcDbEntity
  8
LAY-6
  6
CONTINUOUS
 62
     1
100
AcDbLine
 10
513.912006
 20
250.366667
 30
0.0
 11
515.912006
 21
250.7
 31
0.0
  0
LINE
  5
5F1
100
AcDbEntity
  8
LAY-6
  6
CONTINUOUS
 62
     1
100
AcDbLine
 10
515.912006
 20
250.7
 30
0.0
 11
513.912006
 21
251.033333
 31
0.0
  0
TEXT
  5
5F2
100
AcDbEntity
  8
LAY-6
  6
CONTINUOUS
 62
     2
100
AcDbText
 10
514.412006
 20
251.2
 30
0.0
 40
5.0
  1
（
 41
0.672
  7
EXCADSTD
 72
     5
 11
517.612007
 21
251.2
 31
0.0
100
AcDbText
  0
TEXT
  5
5F3
100
AcDbEntity
  8
LAY-6
  6
CONTINUOUS
 62
     2
100
AcDbText
 10
518.412006
 20
251.2
 30
0.0
 40
5.0
  1
１３
 41
0.672
  7
EXCADSTD
 72
     5
 11
525.744806
 21
251.2
 31
0.0
100
AcDbText
  0
TEXT
  5
5F4
100
AcDbEntity
  8
LAY-6
  6
CONTINUOUS
 62
     2
100
AcDbText
 10
526.412006
 20
251.2
 30
0.0
 40
5.0
  1
）
 41
0.672
  7
EXCADSTD
 72
     5
 11
529.612007
 21
251.2
 31
0.0
100
AcDbText
  0
LINE
  5
5F5
100
AcDbEntity
  8
LAY-6
  6
CONTINUOUS
 62
     1
100
AcDbLine
 10
528.912006
 20
238.63
 30
0.0
 11
528.912006
 21
252.2
 31
0.0
  0
LINE
  5
5F6
100
AcDbEntity
  8
LAY-6
  6
CONTINUOUS
 62
     1
100
AcDbLine
 10
515.912006
 20
250.7
 30
0.0
 11
528.912006
 21
250.7
 31
0.0
  0
LINE
  5
5F7
100
AcDbEntity
  8
LAY-6
  6
CONTINUOUS
 62
     1
100
AcDbLine
 10
517.912006
 20
251.033333
 30
0.0
 11
515.912006
 21
250.7
 31
0.0
  0
LINE
  5
5F8
100
AcDbEntity
  8
LAY-6
  6
CONTINUOUS
 62
     1
100
AcDbLine
 10
515.912006
 20
250.7
 30
0.0
 11
517.912006
 21
250.366667
 31
0.0
  0
LINE
  5
5F9
100
AcDbEntity
  8
LAY-6
  6
CONTINUOUS
 62
     1
100
AcDbLine
 10
526.912006
 20
250.366667
 30
0.0
 11
528.912006
 21
250.7
 31
0.0
  0
LINE
  5
5FA
100
AcDbEntity
  8
LAY-6
  6
CONTINUOUS
 62
     1
100
AcDbLine
 10
528.912006
 20
250.7
 30
0.0
 11
526.912006
 21
251.033333
 31
0.0
  0
TEXT
  5
5FB
100
AcDbEntity
  8
LAY-6
  6
CONTINUOUS
 62
     2
100
AcDbText
 10
321.0
 20
92.0
 30
0.0
 40
9.0
  1
■タップ型(①④タ ップ穴加工付)は品番の後にＴＡＰを付けて下さい。(オプション)　発注例：８Ｃ－５ ＴＡＰ
 41
0.651808
  7
EXCADSTD
 72
     5
 11
684.59999
 21
92.0
 31
0.0
100
AcDbText
  0
TEXT
  5
5FC
100
AcDbEntity
  8
LAY-6
  6
CONTINUOUS
 62
     2
100
AcDbText
 10
321.0
 20
83.0
 30
0.0
 40
9.0
  1
　タップ穴は（　）内寸法をご参照下さい。
 41
0.672
  7
EXCADSTD
 72
     5
 11
464.999996
 21
83.0
 31
0.0
100
AcDbText
  0
TEXT
  5
5FD
100
AcDbEntity
  8
LAY-6
  6
CONTINUOUS
 62
     2
100
AcDbText
 10
321.0
 20
74.0
 30
0.0
 40
9.0
  1
■①カバー３㎜伸ばしは品番の後に①Ｔを付けて下さい。(オプション)　発注例：８Ｃ－５①Ｔ
 41
0.662413
  7
EXCADSTD
 72
     5
 11
630.599992
 21
74.0
 31
0.0
100
AcDbText
  0
TEXT
  5
5FE
100
AcDbEntity
  8
LAY-6
  6
CONTINUOUS
 62
     2
100
AcDbText
 10
575.456019
 20
267.9
 30
0.0
 40
5.0
  1
軸座ネジは床面にあたるまで軽く
 41
0.672
  7
EXCADSTD
 72
     5
 11
635.456019
 21
267.9
 31
0.0
100
AcDbText
  0
TEXT
  5
5FF
100
AcDbEntity
  8
LAY-6
  6
CONTINUOUS
 62
     2
100
AcDbText
 10
575.456019
 20
262.4
 30
0.0
 40
5.0
  1
締め込んで下さい。
 41
0.672
  7
EXCADSTD
 72
     5
 11
611.456019
 21
262.4
 31
0.0
100
AcDbText
  0
LINE
  5
600
100
AcDbEntity
  8
LAY-9
  6
CONTINUOUS
 62
     1
100
AcDbLine
 10
703.13336
 20
376.747904
 30
0.0
 11
706.53339
 21
380.147934
 31
0.0
  0
LINE
  5
601
100
AcDbEntity
  8
LAY-9
  6
CONTINUOUS
 62
     1
100
AcDbLine
 10
705.961787
 20
376.747904
 30
0.0
 11
709.361817
 21
380.147934
 31
0.0
  0
LINE
  5
602
100
AcDbEntity
  8
LAY-9
  6
CONTINUOUS
 62
     1
100
AcDbLine
 10
728.589204
 20
376.747904
 30
0.0
 11
731.989234
 21
380.147934
 31
0.0
  0
LINE
  5
603
100
AcDbEntity
  8
LAY-9
  6
CONTINUOUS
 62
     1
100
AcDbLine
 10
704.861787
 20
355.647904
 30
0.0
 11
709.361787
 21
360.147904
 31
0.0
  0
LINE
  5
604
100
AcDbEntity
  8
LAY-9
  6
CONTINUOUS
 62
     1
100
AcDbLine
 10
707.690214
 20
355.647904
 30
0.0
 11
712.190214
 21
360.147904
 31
0.0
  0
LINE
  5
605
100
AcDbEntity
  8
LAY-9
  6
CONTINUOUS
 62
     1
100
AcDbLine
 10
724.660777
 20
355.647904
 30
0.0
 11
729.160777
 21
360.147904
 31
0.0
  0
LINE
  5
606
100
AcDbEntity
  8
LAY-9
  6
CONTINUOUS
 62
     1
100
AcDbLine
 10
727.489204
 20
355.647904
 30
0.0
 11
731.989204
 21
360.147904
 31
0.0
  0
LINE
  5
607
100
AcDbEntity
  8
LAY-9
  6
CONTINUOUS
 62
     1
100
AcDbLine
 10
705.912095
 20
206.298212
 30
0.0
 11
710.41209
 21
210.798208
 31
0.0
  0
LINE
  5
608
100
AcDbEntity
  8
LAY-9
  6
CONTINUOUS
 62
     1
100
AcDbLine
 10
708.740519
 20
206.298209
 30
0.0
 11
713.240515
 21
210.798205
 31
0.0
  0
LINE
  5
609
100
AcDbEntity
  8
LAY-9
  6
CONTINUOUS
 62
     1
100
AcDbLine
 10
725.711068
 20
206.298195
 30
0.0
 11
730.211063
 21
210.79819
 31
0.0
  0
LINE
  5
60A
100
AcDbEntity
  8
LAY-9
  6
CONTINUOUS
 62
     1
100
AcDbLine
 10
728.539493
 20
206.298193
 30
0.0
 11
733.039487
 21
210.798187
 31
0.0
  0
LINE
  5
60B
100
AcDbEntity
  8
LAY-9
  6
CONTINUOUS
 62
     1
100
AcDbLine
 10
300.782067
 20
247.759338
 30
0.0
 11
305.682082
 21
252.659353
 31
0.0
  0
LINE
  5
60C
100
AcDbEntity
  8
LAY-9
  6
CONTINUOUS
 62
     1
100
AcDbLine
 10
300.782067
 20
244.930911
 30
0.0
 11
305.682082
 21
249.830926
 31
0.0
  0
LINE
  5
60D
100
AcDbEntity
  8
LAY-9
  6
CONTINUOUS
 62
     1
100
AcDbLine
 10
300.782067
 20
225.131921
 30
0.0
 11
305.682082
 21
230.031936
 31
0.0
  0
LINE
  5
60E
100
AcDbEntity
  8
LAY-9
  6
CONTINUOUS
 62
     1
100
AcDbLine
 10
300.782067
 20
222.303494
 30
0.0
 11
305.682082
 21
227.203509
 31
0.0
  0
LINE
  5
60F
100
AcDbEntity
  8
LAY-9
  6
CONTINUOUS
 62
     1
100
AcDbLine
 10
731.417631
 20
376.747904
 30
0.0
 11
734.817661
 21
380.147934
 31
0.0
  0
LINE
  5
610
100
AcDbEntity
  8
LAY-9
  6
CONTINUOUS
 62
     1
100
AcDbLine
 10
310.282068
 20
391.546389
 30
0.0
 11
310.282068
 21
428.346389
 31
0.0
  0
LINE
  5
611
100
AcDbEntity
  8
LAY-9
  6
CONTINUOUS
 62
     1
100
AcDbLine
 10
311.882068
 20
391.546389
 30
0.0
 11
311.882068
 21
428.346389
 31
0.0
  0
LINE
  5
612
100
AcDbEntity
  8
LAY-9
  6
CONTINUOUS
 62
     1
100
AcDbLine
 10
314.182068
 20
393.846389
 30
0.0
 11
314.182068
 21
426.046389
 31
0.0
  0
LINE
  5
613
100
AcDbEntity
  8
LAY-9
  6
CONTINUOUS
 62
     1
100
AcDbLine
 10
311.882068
 20
389.946389
 30
0.0
 11
450.5
 21
389.946389
 31
0.0
  0
LINE
  5
614
100
AcDbEntity
  8
LAY-9
  6
CONTINUOUS
 62
     1
100
AcDbLine
 10
311.882068
 20
429.946389
 30
0.0
 11
450.5
 21
429.946389
 31
0.0
  0
LINE
  5
615
100
AcDbEntity
  8
LAY-9
  6
CONTINUOUS
 62
     1
100
AcDbLine
 10
311.882068
 20
428.346389
 30
0.0
 11
449.69782
 21
428.346389
 31
0.0
  0
LINE
  5
616
100
AcDbEntity
  8
LAY-9
  6
CONTINUOUS
 62
     1
100
AcDbLine
 10
314.182068
 20
426.046389
 30
0.0
 11
326.882068
 21
426.046389
 31
0.0
  0
LINE
  5
617
100
AcDbEntity
  8
LAY-9
  6
CONTINUOUS
 62
     1
100
AcDbLine
 10
326.882068
 20
426.046389
 30
0.0
 11
326.882068
 21
428.346389
 31
0.0
  0
ARC
  5
618
100
AcDbEntity
  8
LAY-9
  6
CONTINUOUS
 62
     1
100
AcDbCircle
 10
314.182068
 20
426.046389
 30
0.0
 40
2.3
100
AcDbArc
 50
90.0
 51
180.0
  0
ARC
  5
619
100
AcDbEntity
  8
LAY-9
  6
CONTINUOUS
 62
     1
100
AcDbCircle
 10
311.882068
 20
428.346389
 30
0.0
 40
1.6
100
AcDbArc
 50
90.0
 51
180.0
  0
ARC
  5
61A
100
AcDbEntity
  8
LAY-9
  6
CONTINUOUS
 62
     1
100
AcDbCircle
 10
314.182068
 20
393.846389
 30
0.0
 40
2.3
100
AcDbArc
 50
180.0
 51
270.0
  0
ARC
  5
61B
100
AcDbEntity
  8
LAY-9
  6
CONTINUOUS
 62
     1
100
AcDbCircle
 10
311.882068
 20
391.546389
 30
0.0
 40
1.6
100
AcDbArc
 50
180.0
 51
270.0
  0
LINE
  5
61C
100
AcDbEntity
  8
LAY-9
  6
CONTINUOUS
 62
     1
100
AcDbLine
 10
314.182068
 20
393.846389
 30
0.0
 11
317.282074
 21
393.846389
 31
0.0
  0
LINE
  5
61D
100
AcDbEntity
  8
LAY-9
  6
CONTINUOUS
 62
     1
100
AcDbLine
 10
311.882068
 20
391.546389
 30
0.0
 11
317.282074
 21
391.546389
 31
0.0
  0
LINE
  5
61E
100
AcDbEntity
  8
LAY-9
  6
CONTINUOUS
 62
     1
100
AcDbLine
 10
346.282059
 20
391.546389
 30
0.0
 11
450.9749
 21
391.546389
 31
0.0
  0
LINE
  5
61F
100
AcDbEntity
  8
LAY-9
  6
CONTINUOUS
 62
     1
100
AcDbLine
 10
300.782067
 20
246.20964
 30
0.0
 11
300.782067
 21
263.20964
 31
0.0
  0
LINE
  5
620
100
AcDbEntity
  8
LAY-9
  6
CONTINUOUS
 62
     1
100
AcDbLine
 10
300.782067
 20
263.20964
 30
0.0
 11
305.682082
 21
263.20964
 31
0.0
  0
LINE
  5
621
100
AcDbEntity
  8
LAY-9
  6
CONTINUOUS
 62
     1
100
AcDbLine
 10
282.282082
 20
238.20964
 30
0.0
 11
282.282082
 21
219.80964
 31
0.0
  0
LINE
  5
622
100
AcDbEntity
  8
LAY-9
  6
CONTINUOUS
 62
     1
100
AcDbLine
 10
307.282082
 20
219.80964
 30
0.0
 11
307.282082
 21
263.20964
 31
0.0
  0
LINE
  5
623
100
AcDbEntity
  8
LAY-9
  6
CONTINUOUS
 62
     1
100
AcDbLine
 10
307.282082
 20
263.20964
 30
0.0
 11
320.682082
 21
263.20964
 31
0.0
  0
LINE
  5
624
100
AcDbEntity
  8
LAY-9
  6
CONTINUOUS
 62
     1
100
AcDbLine
 10
322.282082
 20
264.80964
 30
0.0
 11
322.282082
 21
286.20964
 31
0.0
  0
ARC
  5
625
100
AcDbEntity
  8
LAY-9
  6
CONTINUOUS
 62
     1
100
AcDbCircle
 10
305.682082
 20
219.80964
 30
0.0
 40
1.6
100
AcDbArc
 50
270.0
 51
0.0
  0
ARC
  5
626
100
AcDbEntity
  8
LAY-9
  6
CONTINUOUS
 62
     1
100
AcDbCircle
 10
283.882082
 20
219.80964
 30
0.0
 40
1.6
100
AcDbArc
 50
180.0
 51
270.0
  0
ARC
  5
627
100
AcDbEntity
  8
LAY-9
  6
CONTINUOUS
 62
     1
100
AcDbCircle
 10
320.682082
 20
264.80964
 30
0.0
 40
1.6
100
AcDbArc
 50
270.0
 51
0.0
  0
LINE
  5
628
100
AcDbEntity
  8
LAY-9
  6
CONTINUOUS
 62
     1
100
AcDbLine
 10
282.282082
 20
238.20964
 30
0.0
 11
283.882082
 21
238.20964
 31
0.0
  0
LINE
  5
629
100
AcDbEntity
  8
LAY-9
  6
CONTINUOUS
 62
     1
100
AcDbLine
 10
283.882082
 20
238.20964
 30
0.0
 11
283.882082
 21
219.80964
 31
0.0
  0
LINE
  5
62A
100
AcDbEntity
  8
LAY-9
  6
CONTINUOUS
 62
     1
100
AcDbLine
 10
305.682082
 20
219.80964
 30
0.0
 11
305.682082
 21
263.20964
 31
0.0
  0
LINE
  5
62B
100
AcDbEntity
  8
LAY-9
  6
CONTINUOUS
 62
     1
100
AcDbLine
 10
307.282082
 20
264.80964
 30
0.0
 11
320.682082
 21
264.80964
 31
0.0
  0
LINE
  5
62C
100
AcDbEntity
  8
LAY-9
  6
CONTINUOUS
 62
     1
100
AcDbLine
 10
320.682082
 20
264.80964
 30
0.0
 11
320.682082
 21
286.20964
 31
0.0
  0
ARC
  5
62D
100
AcDbEntity
  8
LAY-9
  6
CONTINUOUS
 62
     1
100
AcDbCircle
 10
307.282082
 20
263.20964
 30
0.0
 40
1.6
100
AcDbArc
 50
90.0
 51
180.0
  0
LINE
  5
62E
100
AcDbEntity
  8
LAY-9
  6
CONTINUOUS
 62
     1
100
AcDbLine
 10
283.882082
 20
219.80964
 30
0.0
 11
294.782067
 21
219.80964
 31
0.0
  0
LINE
  5
62F
100
AcDbEntity
  8
LAY-9
  6
CONTINUOUS
 62
     1
100
AcDbLine
 10
300.782067
 20
219.80964
 30
0.0
 11
305.682082
 21
219.80964
 31
0.0
  0
LINE
  5
630
100
AcDbEntity
  8
LAY-9
  6
CONTINUOUS
 62
     1
100
AcDbLine
 10
283.882082
 20
218.20964
 30
0.0
 11
294.782067
 21
218.20964
 31
0.0
  0
LINE
  5
631
100
AcDbEntity
  8
LAY-9
  6
CONTINUOUS
 62
     1
100
AcDbLine
 10
300.782067
 20
218.20964
 30
0.0
 11
305.682082
 21
218.20964
 31
0.0
  0
POLYLINE
  5
632
100
AcDbEntity
  8
LAY-9
  6
CONTINUOUS
 62
     1
100
AcDb2dPolyline
 66
     1
 10
0.0
 20
0.0
 30
0.0
 70
   128
  0
VERTEX
  5
633
100
AcDbEntity
  8
LAY-9
  6
CONTINUOUS
 62
     1
100
AcDbVertex
100
AcDb2dVertex
 10
450.5
 20
429.946389
 30
0.0
  0
VERTEX
  5
634
100
AcDbEntity
  8
LAY-9
  6
CONTINUOUS
 62
     1
100
AcDbVertex
100
AcDb2dVertex
 10
450.435324
 20
429.792137
 30
0.0
  0
VERTEX
  5
635
100
AcDbEntity
  8
LAY-9
  6
CONTINUOUS
 62
     1
100
AcDbVertex
100
AcDb2dVertex
 10
450.25725
 20
429.353979
 30
0.0
  0
VERTEX
  5
636
100
AcDbEntity
  8
LAY-9
  6
CONTINUOUS
 62
     1
100
AcDbVertex
100
AcDb2dVertex
 10
449.989708
 20
428.668811
 30
0.0
  0
VERTEX
  5
637
100
AcDbEntity
  8
LAY-9
  6
CONTINUOUS
 62
     1
100
AcDbVertex
100
AcDb2dVertex
 10
449.656625
 20
427.773528
 30
0.0
  0
VERTEX
  5
638
100
AcDbEntity
  8
LAY-9
  6
CONTINUOUS
 62
     1
100
AcDbVertex
100
AcDb2dVertex
 10
449.281932
 20
426.705027
 30
0.0
  0
VERTEX
  5
639
100
AcDbEntity
  8
LAY-9
  6
CONTINUOUS
 62
     1
100
AcDbVertex
100
AcDb2dVertex
 10
448.889558
 20
425.500203
 30
0.0
  0
VERTEX
  5
63A
100
AcDbEntity
  8
LAY-9
  6
CONTINUOUS
 62
     1
100
AcDbVertex
100
AcDb2dVertex
 10
448.503433
 20
424.195952
 30
0.0
  0
VERTEX
  5
63B
100
AcDbEntity
  8
LAY-9
  6
CONTINUOUS
 62
     1
100
AcDbVertex
100
AcDb2dVertex
 10
448.147485
 20
422.82917
 30
0.0
  0
VERTEX
  5
63C
100
AcDbEntity
  8
LAY-9
  6
CONTINUOUS
 62
     1
100
AcDbVertex
100
AcDb2dVertex
 10
447.845644
 20
421.436753
 30
0.0
  0
VERTEX
  5
63D
100
AcDbEntity
  8
LAY-9
  6
CONTINUOUS
 62
     1
100
AcDbVertex
100
AcDb2dVertex
 10
447.621839
 20
420.055597
 30
0.0
  0
VERTEX
  5
63E
100
AcDbEntity
  8
LAY-9
  6
CONTINUOUS
 62
     1
100
AcDbVertex
100
AcDb2dVertex
 10
447.5
 20
418.722597
 30
0.0
  0
VERTEX
  5
63F
100
AcDbEntity
  8
LAY-9
  6
CONTINUOUS
 62
     1
100
AcDbVertex
100
AcDb2dVertex
 10
447.496746
 20
417.48482
 30
0.0
  0
VERTEX
  5
640
100
AcDbEntity
  8
LAY-9
  6
CONTINUOUS
 62
     1
100
AcDbVertex
100
AcDb2dVertex
 10
447.601247
 20
416.321325
 30
0.0
  0
VERTEX
  5
641
100
AcDbEntity
  8
LAY-9
  6
CONTINUOUS
 62
     1
100
AcDbVertex
100
AcDb2dVertex
 10
447.799014
 20
415.223811
 30
0.0
  0
VERTEX
  5
642
100
AcDbEntity
  8
LAY-9
  6
CONTINUOUS
 62
     1
100
AcDbVertex
100
AcDb2dVertex
 10
448.075558
 20
414.183974
 30
0.0
  0
VERTEX
  5
643
100
AcDbEntity
  8
LAY-9
  6
CONTINUOUS
 62
     1
100
AcDbVertex
100
AcDb2dVertex
 10
448.416389
 20
413.193511
 30
0.0
  0
VERTEX
  5
644
100
AcDbEntity
  8
LAY-9
  6
CONTINUOUS
 62
     1
100
AcDbVertex
100
AcDb2dVertex
 10
448.807018
 20
412.244118
 30
0.0
  0
VERTEX
  5
645
100
AcDbEntity
  8
LAY-9
  6
CONTINUOUS
 62
     1
100
AcDbVertex
100
AcDb2dVertex
 10
449.232955
 20
411.327492
 30
0.0
  0
VERTEX
  5
646
100
AcDbEntity
  8
LAY-9
  6
CONTINUOUS
 62
     1
100
AcDbVertex
100
AcDb2dVertex
 10
449.679711
 20
410.43533
 30
0.0
  0
VERTEX
  5
647
100
AcDbEntity
  8
LAY-9
  6
CONTINUOUS
 62
     1
100
AcDbVertex
100
AcDb2dVertex
 10
450.132797
 20
409.559329
 30
0.0
  0
VERTEX
  5
648
100
AcDbEntity
  8
LAY-9
  6
CONTINUOUS
 62
     1
100
AcDbVertex
100
AcDb2dVertex
 10
450.577723
 20
408.691186
 30
0.0
  0
VERTEX
  5
649
100
AcDbEntity
  8
LAY-9
  6
CONTINUOUS
 62
     1
100
AcDbVertex
100
AcDb2dVertex
 10
451.0
 20
407.822597
 30
0.0
  0
VERTEX
  5
64A
100
AcDbEntity
  8
LAY-9
  6
CONTINUOUS
 62
     1
100
AcDbVertex
100
AcDb2dVertex
 10
451.278953
 20
407.200021
 30
0.0
  0
VERTEX
  5
64B
100
AcDbEntity
  8
LAY-9
  6
CONTINUOUS
 62
     1
100
AcDbVertex
100
AcDb2dVertex
 10
451.536696
 20
406.568894
 30
0.0
  0
VERTEX
  5
64C
100
AcDbEntity
  8
LAY-9
  6
CONTINUOUS
 62
     1
100
AcDbVertex
100
AcDb2dVertex
 10
451.770794
 20
405.925086
 30
0.0
  0
VERTEX
  5
64D
100
AcDbEntity
  8
LAY-9
  6
CONTINUOUS
 62
     1
100
AcDbVertex
100
AcDb2dVertex
 10
451.97881
 20
405.264467
 30
0.0
  0
VERTEX
  5
64E
100
AcDbEntity
  8
LAY-9
  6
CONTINUOUS
 62
     1
100
AcDbVertex
100
AcDb2dVertex
 10
452.158309
 20
404.582909
 30
0.0
  0
VERTEX
  5
64F
100
AcDbEntity
  8
LAY-9
  6
CONTINUOUS
 62
     1
100
AcDbVertex
100
AcDb2dVertex
 10
452.306853
 20
403.876283
 30
0.0
  0
VERTEX
  5
650
100
AcDbEntity
  8
LAY-9
  6
CONTINUOUS
 62
     1
100
AcDbVertex
100
AcDb2dVertex
 10
452.422007
 20
403.140459
 30
0.0
  0
VERTEX
  5
651
100
AcDbEntity
  8
LAY-9
  6
CONTINUOUS
 62
     1
100
AcDbVertex
100
AcDb2dVertex
 10
452.501335
 20
402.371307
 30
0.0
  0
VERTEX
  5
652
100
AcDbEntity
  8
LAY-9
  6
CONTINUOUS
 62
     1
100
AcDbVertex
100
AcDb2dVertex
 10
452.542401
 20
401.564699
 30
0.0
  0
VERTEX
  5
653
100
AcDbEntity
  8
LAY-9
  6
CONTINUOUS
 62
     1
100
AcDbVertex
100
AcDb2dVertex
 10
452.542768
 20
400.716505
 30
0.0
  0
VERTEX
  5
654
100
AcDbEntity
  8
LAY-9
  6
CONTINUOUS
 62
     1
100
AcDbVertex
100
AcDb2dVertex
 10
452.5
 20
399.822597
 30
0.0
  0
VERTEX
  5
655
100
AcDbEntity
  8
LAY-9
  6
CONTINUOUS
 62
     1
100
AcDbVertex
100
AcDb2dVertex
 10
452.386763
 20
398.653176
 30
0.0
  0
VERTEX
  5
656
100
AcDbEntity
  8
LAY-9
  6
CONTINUOUS
 62
     1
100
AcDbVertex
100
AcDb2dVertex
 10
452.217713
 20
397.440037
 30
0.0
  0
VERTEX
  5
657
100
AcDbEntity
  8
LAY-9
  6
CONTINUOUS
 62
     1
100
AcDbVertex
100
AcDb2dVertex
 10
452.006883
 20
396.21586
 30
0.0
  0
VERTEX
  5
658
100
AcDbEntity
  8
LAY-9
  6
CONTINUOUS
 62
     1
100
AcDbVertex
100
AcDb2dVertex
 10
451.768304
 20
395.013322
 30
0.0
  0
VERTEX
  5
659
100
AcDbEntity
  8
LAY-9
  6
CONTINUOUS
 62
     1
100
AcDbVertex
100
AcDb2dVertex
 10
451.516008
 20
393.865101
 30
0.0
  0
VERTEX
  5
65A
100
AcDbEntity
  8
LAY-9
  6
CONTINUOUS
 62
     1
100
AcDbVertex
100
AcDb2dVertex
 10
451.264029
 20
392.803875
 30
0.0
  0
VERTEX
  5
65B
100
AcDbEntity
  8
LAY-9
  6
CONTINUOUS
 62
     1
100
AcDbVertex
100
AcDb2dVertex
 10
451.026398
 20
391.862321
 30
0.0
  0
VERTEX
  5
65C
100
AcDbEntity
  8
LAY-9
  6
CONTINUOUS
 62
     1
100
AcDbVertex
100
AcDb2dVertex
 10
450.817147
 20
391.073117
 30
0.0
  0
VERTEX
  5
65D
100
AcDbEntity
  8
LAY-9
  6
CONTINUOUS
 62
     1
100
AcDbVertex
100
AcDb2dVertex
 10
450.650309
 20
390.468942
 30
0.0
  0
VERTEX
  5
65E
100
AcDbEntity
  8
LAY-9
  6
CONTINUOUS
 62
     1
100
AcDbVertex
100
AcDb2dVertex
 10
450.539916
 20
390.082474
 30
0.0
  0
VERTEX
  5
65F
100
AcDbEntity
  8
LAY-9
  6
CONTINUOUS
 62
     1
100
AcDbVertex
100
AcDb2dVertex
 10
450.5
 20
389.946389
 30
0.0
  0
SEQEND
  5
660
100
AcDbEntity
  8
LAY-9
  6
CONTINUOUS
 62
     1
  0
LINE
  5
661
100
AcDbEntity
  8
LAY-9
  6
CONTINUOUS
 62
     1
100
AcDbLine
 10
43.282069
 20
406.946385
 30
0.0
 11
43.282069
 21
388.546385
 31
0.0
  0
LINE
  5
662
100
AcDbEntity
  8
LAY-9
  6
CONTINUOUS
 62
     1
100
AcDbLine
 10
68.282069
 20
388.546385
 30
0.0
 11
68.282069
 21
431.946385
 31
0.0
  0
LINE
  5
663
100
AcDbEntity
  8
LAY-9
  6
CONTINUOUS
 62
     1
100
AcDbLine
 10
68.282069
 20
431.946385
 30
0.0
 11
81.682069
 21
431.946385
 31
0.0
  0
LINE
  5
664
100
AcDbEntity
  8
LAY-9
  6
CONTINUOUS
 62
     1
100
AcDbLine
 10
71.282093
 20
222.809656
 30
0.0
 11
71.282093
 21
259.609656
 31
0.0
  0
LINE
  5
665
100
AcDbEntity
  8
LAY-9
  6
CONTINUOUS
 62
     1
100
AcDbLine
 10
72.882093
 20
222.809656
 30
0.0
 11
72.882093
 21
259.609656
 31
0.0
  0
LINE
  5
666
100
AcDbEntity
  8
LAY-9
  6
CONTINUOUS
 62
     1
100
AcDbLine
 10
75.182093
 20
225.109656
 30
0.0
 11
75.182093
 21
257.309656
 31
0.0
  0
LINE
  5
667
100
AcDbEntity
  8
LAY-9
  6
CONTINUOUS
 62
     1
100
AcDbLine
 10
72.882093
 20
261.209656
 30
0.0
 11
217.6
 21
261.209656
 31
0.0
  0
LINE
  5
668
100
AcDbEntity
  8
LAY-9
  6
CONTINUOUS
 62
     1
100
AcDbLine
 10
72.882093
 20
259.609656
 30
0.0
 11
216.937708
 21
259.609656
 31
0.0
  0
LINE
  5
669
100
AcDbEntity
  8
LAY-9
  6
CONTINUOUS
 62
     1
100
AcDbLine
 10
75.182093
 20
257.309656
 30
0.0
 11
87.882093
 21
257.309656
 31
0.0
  0
LINE
  5
66A
100
AcDbEntity
  8
LAY-9
  6
CONTINUOUS
 62
     1
100
AcDbLine
 10
87.882093
 20
257.309656
 30
0.0
 11
87.882093
 21
259.609656
 31
0.0
  0
ARC
  5
66B
100
AcDbEntity
  8
LAY-9
  6
CONTINUOUS
 62
     1
100
AcDbCircle
 10
75.182093
 20
257.309656
 30
0.0
 40
2.3
100
AcDbArc
 50
90.0
 51
180.0
  0
ARC
  5
66C
100
AcDbEntity
  8
LAY-9
  6
CONTINUOUS
 62
     1
100
AcDbCircle
 10
72.882093
 20
259.609656
 30
0.0
 40
1.6
100
AcDbArc
 50
90.0
 51
180.0
  0
ARC
  5
66D
100
AcDbEntity
  8
LAY-9
  6
CONTINUOUS
 62
     1
100
AcDbCircle
 10
75.182093
 20
225.109656
 30
0.0
 40
2.3
100
AcDbArc
 50
180.0
 51
270.0
  0
ARC
  5
66E
100
AcDbEntity
  8
LAY-9
  6
CONTINUOUS
 62
     1
100
AcDbCircle
 10
72.882093
 20
222.809656
 30
0.0
 40
1.6
100
AcDbArc
 50
180.0
 51
270.0
  0
LINE
  5
66F
100
AcDbEntity
  8
LAY-9
  6
CONTINUOUS
 62
     1
100
AcDbLine
 10
72.882093
 20
221.209656
 30
0.0
 11
78.282082
 21
221.209656
 31
0.0
  0
LINE
  5
670
100
AcDbEntity
  8
LAY-9
  6
CONTINUOUS
 62
     1
100
AcDbLine
 10
107.282084
 20
221.209656
 30
0.0
 11
217.6
 21
221.209656
 31
0.0
  0
LINE
  5
671
100
AcDbEntity
  8
LAY-9
  6
CONTINUOUS
 62
     1
100
AcDbLine
 10
72.882093
 20
222.809656
 30
0.0
 11
78.282082
 21
222.809656
 31
0.0
  0
LINE
  5
672
100
AcDbEntity
  8
LAY-9
  6
CONTINUOUS
 62
     1
100
AcDbLine
 10
107.28208
 20
222.809656
 30
0.0
 11
217.878453
 21
222.809656
 31
0.0
  0
LINE
  5
673
100
AcDbEntity
  8
LAY-9
  6
CONTINUOUS
 62
     1
100
AcDbLine
 10
75.182093
 20
225.109656
 30
0.0
 11
78.282082
 21
225.109656
 31
0.0
  0
POLYLINE
  5
674
100
AcDbEntity
  8
LAY-9
  6
CONTINUOUS
 62
     1
100
AcDb2dPolyline
 66
     1
 10
0.0
 20
0.0
 30
0.0
 70
   128
  0
VERTEX
  5
675
100
AcDbEntity
  8
LAY-9
  6
CONTINUOUS
 62
     1
100
AcDbVertex
100
AcDb2dVertex
 10
222.7
 20
431.946385
 30
0.0
  0
VERTEX
  5
676
100
AcDbEntity
  8
LAY-9
  6
CONTINUOUS
 62
     1
100
AcDbVertex
100
AcDb2dVertex
 10
222.644777
 20
431.746162
 30
0.0
  0
VERTEX
  5
677
100
AcDbEntity
  8
LAY-9
  6
CONTINUOUS
 62
     1
100
AcDbVertex
100
AcDb2dVertex
 10
222.492933
 20
431.178156
 30
0.0
  0
VERTEX
  5
678
100
AcDbEntity
  8
LAY-9
  6
CONTINUOUS
 62
     1
100
AcDbVertex
100
AcDb2dVertex
 10
222.265206
 20
430.291361
 30
0.0
  0
VERTEX
  5
679
100
AcDbEntity
  8
LAY-9
  6
CONTINUOUS
 62
     1
100
AcDbVertex
100
AcDb2dVertex
 10
221.982331
 20
429.134774
 30
0.0
  0
VERTEX
  5
67A
100
AcDbEntity
  8
LAY-9
  6
CONTINUOUS
 62
     1
100
AcDbVertex
100
AcDb2dVertex
 10
221.665046
 20
427.757387
 30
0.0
  0
VERTEX
  5
67B
100
AcDbEntity
  8
LAY-9
  6
CONTINUOUS
 62
     1
100
AcDbVertex
100
AcDb2dVertex
 10
221.334089
 20
426.208197
 30
0.0
  0
VERTEX
  5
67C
100
AcDbEntity
  8
LAY-9
  6
CONTINUOUS
 62
     1
100
AcDbVertex
100
AcDb2dVertex
 10
221.010195
 20
424.536197
 30
0.0
  0
VERTEX
  5
67D
100
AcDbEntity
  8
LAY-9
  6
CONTINUOUS
 62
     1
100
AcDbVertex
100
AcDb2dVertex
 10
220.714102
 20
422.790383
 30
0.0
  0
VERTEX
  5
67E
100
AcDbEntity
  8
LAY-9
  6
CONTINUOUS
 62
     1
100
AcDbVertex
100
AcDb2dVertex
 10
220.466548
 20
421.019749
 30
0.0
  0
VERTEX
  5
67F
100
AcDbEntity
  8
LAY-9
  6
CONTINUOUS
 62
     1
100
AcDbVertex
100
AcDb2dVertex
 10
220.288268
 20
419.27329
 30
0.0
  0
VERTEX
  5
680
100
AcDbEntity
  8
LAY-9
  6
CONTINUOUS
 62
     1
100
AcDbVertex
100
AcDb2dVertex
 10
220.2
 20
417.6
 30
0.0
  0
VERTEX
  5
681
100
AcDbEntity
  8
LAY-9
  6
CONTINUOUS
 62
     1
100
AcDbVertex
100
AcDb2dVertex
 10
220.202835
 20
416.436731
 30
0.0
  0
VERTEX
  5
682
100
AcDbEntity
  8
LAY-9
  6
CONTINUOUS
 62
     1
100
AcDbVertex
100
AcDb2dVertex
 10
220.263021
 20
415.334232
 30
0.0
  0
VERTEX
  5
683
100
AcDbEntity
  8
LAY-9
  6
CONTINUOUS
 62
     1
100
AcDbVertex
100
AcDb2dVertex
 10
220.377613
 20
414.286768
 30
0.0
  0
VERTEX
  5
684
100
AcDbEntity
  8
LAY-9
  6
CONTINUOUS
 62
     1
100
AcDbVertex
100
AcDb2dVertex
 10
220.543672
 20
413.288602
 30
0.0
  0
VERTEX
  5
685
100
AcDbEntity
  8
LAY-9
  6
CONTINUOUS
 62
     1
100
AcDbVertex
100
AcDb2dVertex
 10
220.758254
 20
412.334
 30
0.0
  0
VERTEX
  5
686
100
AcDbEntity
  8
LAY-9
  6
CONTINUOUS
 62
     1
100
AcDbVertex
100
AcDb2dVertex
 10
221.018419
 20
411.417224
 30
0.0
  0
VERTEX
  5
687
100
AcDbEntity
  8
LAY-9
  6
CONTINUOUS
 62
     1
100
AcDbVertex
100
AcDb2dVertex
 10
221.321223
 20
410.53254
 30
0.0
  0
VERTEX
  5
688
100
AcDbEntity
  8
LAY-9
  6
CONTINUOUS
 62
     1
100
AcDbVertex
100
AcDb2dVertex
 10
221.663725
 20
409.674211
 30
0.0
  0
VERTEX
  5
689
100
AcDbEntity
  8
LAY-9
  6
CONTINUOUS
 62
     1
100
AcDbVertex
100
AcDb2dVertex
 10
222.042983
 20
408.836502
 30
0.0
  0
VERTEX
  5
68A
100
AcDbEntity
  8
LAY-9
  6
CONTINUOUS
 62
     1
100
AcDbVertex
100
AcDb2dVertex
 10
222.456056
 20
408.013677
 30
0.0
  0
VERTEX
  5
68B
100
AcDbEntity
  8
LAY-9
  6
CONTINUOUS
 62
     1
100
AcDbVertex
100
AcDb2dVertex
 10
222.9
 20
407.2
 30
0.0
  0
VERTEX
  5
68C
100
AcDbEntity
  8
LAY-9
  6
CONTINUOUS
 62
     1
100
AcDbVertex
100
AcDb2dVertex
 10
223.401413
 20
406.336607
 30
0.0
  0
VERTEX
  5
68D
100
AcDbEntity
  8
LAY-9
  6
CONTINUOUS
 62
     1
100
AcDbVertex
100
AcDb2dVertex
 10
223.917445
 20
405.469743
 30
0.0
  0
VERTEX
  5
68E
100
AcDbEntity
  8
LAY-9
  6
CONTINUOUS
 62
     1
100
AcDbVertex
100
AcDb2dVertex
 10
224.431007
 20
404.592065
 30
0.0
  0
VERTEX
  5
68F
100
AcDbEntity
  8
LAY-9
  6
CONTINUOUS
 62
     1
100
AcDbVertex
100
AcDb2dVertex
 10
224.92501
 20
403.696227
 30
0.0
  0
VERTEX
  5
690
100
AcDbEntity
  8
LAY-9
  6
CONTINUOUS
 62
     1
100
AcDbVertex
100
AcDb2dVertex
 10
225.382368
 20
402.774887
 30
0.0
  0
VERTEX
  5
691
100
AcDbEntity
  8
LAY-9
  6
CONTINUOUS
 62
     1
100
AcDbVertex
100
AcDb2dVertex
 10
225.785991
 20
401.820699
 30
0.0
  0
VERTEX
  5
692
100
AcDbEntity
  8
LAY-9
  6
CONTINUOUS
 62
     1
100
AcDbVertex
100
AcDb2dVertex
 10
226.118791
 20
400.826319
 30
0.0
  0
VERTEX
  5
693
100
AcDbEntity
  8
LAY-9
  6
CONTINUOUS
 62
     1
100
AcDbVertex
100
AcDb2dVertex
 10
226.36368
 20
399.784404
 30
0.0
  0
VERTEX
  5
694
100
AcDbEntity
  8
LAY-9
  6
CONTINUOUS
 62
     1
100
AcDbVertex
100
AcDb2dVertex
 10
226.50357
 20
398.687608
 30
0.0
  0
VERTEX
  5
695
100
AcDbEntity
  8
LAY-9
  6
CONTINUOUS
 62
     1
100
AcDbVertex
100
AcDb2dVertex
 10
226.521373
 20
397.528588
 30
0.0
  0
VERTEX
  5
696
100
AcDbEntity
  8
LAY-9
  6
CONTINUOUS
 62
     1
100
AcDbVertex
100
AcDb2dVertex
 10
226.4
 20
396.3
 30
0.0
  0
VERTEX
  5
697
100
AcDbEntity
  8
LAY-9
  6
CONTINUOUS
 62
     1
100
AcDbVertex
100
AcDb2dVertex
 10
226.171021
 20
395.16297
 30
0.0
  0
VERTEX
  5
698
100
AcDbEntity
  8
LAY-9
  6
CONTINUOUS
 62
     1
100
AcDbVertex
100
AcDb2dVertex
 10
225.846195
 20
393.995742
 30
0.0
  0
VERTEX
  5
699
100
AcDbEntity
  8
LAY-9
  6
CONTINUOUS
 62
     1
100
AcDbVertex
100
AcDb2dVertex
 10
225.450312
 20
392.827495
 30
0.0
  0
VERTEX
  5
69A
100
AcDbEntity
  8
LAY-9
  6
CONTINUOUS
 62
     1
100
AcDbVertex
100
AcDb2dVertex
 10
225.008161
 20
391.687409
 30
0.0
  0
VERTEX
  5
69B
100
AcDbEntity
  8
LAY-9
  6
CONTINUOUS
 62
     1
100
AcDbVertex
100
AcDb2dVertex
 10
224.544533
 20
390.604663
 30
0.0
  0
VERTEX
  5
69C
100
AcDbEntity
  8
LAY-9
  6
CONTINUOUS
 62
     1
100
AcDbVertex
100
AcDb2dVertex
 10
224.084218
 20
389.608437
 30
0.0
  0
VERTEX
  5
69D
100
AcDbEntity
  8
LAY-9
  6
CONTINUOUS
 62
     1
100
AcDbVertex
100
AcDb2dVertex
 10
223.652007
 20
388.72791
 30
0.0
  0
VERTEX
  5
69E
100
AcDbEntity
  8
LAY-9
  6
CONTINUOUS
 62
     1
100
AcDbVertex
100
AcDb2dVertex
 10
223.272689
 20
387.992262
 30
0.0
  0
VERTEX
  5
69F
100
AcDbEntity
  8
LAY-9
  6
CONTINUOUS
 62
     1
100
AcDbVertex
100
AcDb2dVertex
 10
222.971055
 20
387.430672
 30
0.0
  0
VERTEX
  5
6A0
100
AcDbEntity
  8
LAY-9
  6
CONTINUOUS
 62
     1
100
AcDbVertex
100
AcDb2dVertex
 10
222.771896
 20
387.07232
 30
0.0
  0
VERTEX
  5
6A1
100
AcDbEntity
  8
LAY-9
  6
CONTINUOUS
 62
     1
100
AcDbVertex
100
AcDb2dVertex
 10
222.7
 20
386.946385
 30
0.0
  0
SEQEND
  5
6A2
100
AcDbEntity
  8
LAY-9
  6
CONTINUOUS
 62
     1
  0
LINE
  5
6A3
100
AcDbEntity
  8
LAY-9
  6
CONTINUOUS
 62
     1
100
AcDbLine
 10
44.882069
 20
386.946385
 30
0.0
 11
71.134179
 21
386.946385
 31
0.0
  0
LINE
  5
6A4
100
AcDbEntity
  8
LAY-9
  6
CONTINUOUS
 62
     1
100
AcDbLine
 10
109.444588
 20
386.946385
 30
0.0
 11
222.7
 21
386.946385
 31
0.0
  0
ARC
  5
6A5
100
AcDbEntity
  8
LAY-9
  6
CONTINUOUS
 62
     1
100
AcDbCircle
 10
66.682069
 20
388.546385
 30
0.0
 40
1.6
100
AcDbArc
 50
270.0
 51
0.0
  0
ARC
  5
6A6
100
AcDbEntity
  8
LAY-9
  6
CONTINUOUS
 62
     1
100
AcDbCircle
 10
44.882069
 20
388.546385
 30
0.0
 40
1.6
100
AcDbArc
 50
180.0
 51
270.0
  0
ARC
  5
6A7
100
AcDbEntity
  8
LAY-9
  6
CONTINUOUS
 62
     1
100
AcDbCircle
 10
81.682069
 20
433.546385
 30
0.0
 40
1.6
100
AcDbArc
 50
270.0
 51
0.0
  0
LINE
  5
6A8
100
AcDbEntity
  8
LAY-9
  6
CONTINUOUS
 62
     1
100
AcDbLine
 10
43.282069
 20
406.946385
 30
0.0
 11
44.882069
 21
406.946385
 31
0.0
  0
LINE
  5
6A9
100
AcDbEntity
  8
LAY-9
  6
CONTINUOUS
 62
     1
100
AcDbLine
 10
44.882069
 20
406.946385
 30
0.0
 11
44.882069
 21
388.546385
 31
0.0
  0
LINE
  5
6AA
100
AcDbEntity
  8
LAY-9
  6
CONTINUOUS
 62
     1
100
AcDbLine
 10
44.882069
 20
388.546385
 30
0.0
 11
66.682069
 21
388.546385
 31
0.0
  0
LINE
  5
6AB
100
AcDbEntity
  8
LAY-9
  6
CONTINUOUS
 62
     1
100
AcDbLine
 10
66.682069
 20
388.546385
 30
0.0
 11
66.682069
 21
431.946385
 31
0.0
  0
LINE
  5
6AC
100
AcDbEntity
  8
LAY-9
  6
CONTINUOUS
 62
     1
100
AcDbLine
 10
68.282069
 20
433.546385
 30
0.0
 11
81.682069
 21
433.546385
 31
0.0
  0
ARC
  5
6AD
100
AcDbEntity
  8
LAY-9
  6
CONTINUOUS
 62
     1
100
AcDbCircle
 10
68.282069
 20
431.946385
 30
0.0
 40
1.6
100
AcDbArc
 50
90.0
 51
180.0
  0
POLYLINE
  5
6AE
100
AcDbEntity
  8
LAY-9
  6
CONTINUOUS
 62
     1
100
AcDb2dPolyline
 66
     1
 10
0.0
 20
0.0
 30
0.0
 70
   128
  0
VERTEX
  5
6AF
100
AcDbEntity
  8
LAY-9
  6
CONTINUOUS
 62
     1
100
AcDbVertex
100
AcDb2dVertex
 10
217.6
 20
261.209656
 30
0.0
  0
VERTEX
  5
6B0
100
AcDbEntity
  8
LAY-9
  6
CONTINUOUS
 62
     1
100
AcDbVertex
100
AcDb2dVertex
 10
217.543518
 20
261.039449
 30
0.0
  0
VERTEX
  5
6B1
100
AcDbEntity
  8
LAY-9
  6
CONTINUOUS
 62
     1
100
AcDbVertex
100
AcDb2dVertex
 10
217.389392
 20
260.55721
 30
0.0
  0
VERTEX
  5
6B2
100
AcDbEntity
  8
LAY-9
  6
CONTINUOUS
 62
     1
100
AcDbVertex
100
AcDb2dVertex
 10
217.160603
 20
259.805511
 30
0.0
  0
VERTEX
  5
6B3
100
AcDbEntity
  8
LAY-9
  6
CONTINUOUS
 62
     1
100
AcDbVertex
100
AcDb2dVertex
 10
216.88013
 20
258.826923
 30
0.0
  0
VERTEX
  5
6B4
100
AcDbEntity
  8
LAY-9
  6
CONTINUOUS
 62
     1
100
AcDbVertex
100
AcDb2dVertex
 10
216.570953
 20
257.66402
 30
0.0
  0
VERTEX
  5
6B5
100
AcDbEntity
  8
LAY-9
  6
CONTINUOUS
 62
     1
100
AcDbVertex
100
AcDb2dVertex
 10
216.256053
 20
256.359373
 30
0.0
  0
VERTEX
  5
6B6
100
AcDbEntity
  8
LAY-9
  6
CONTINUOUS
 62
     1
100
AcDbVertex
100
AcDb2dVertex
 10
215.958409
 20
254.955554
 30
0.0
  0
VERTEX
  5
6B7
100
AcDbEntity
  8
LAY-9
  6
CONTINUOUS
 62
     1
100
AcDbVertex
100
AcDb2dVertex
 10
215.701002
 20
253.495135
 30
0.0
  0
VERTEX
  5
6B8
100
AcDbEntity
  8
LAY-9
  6
CONTINUOUS
 62
     1
100
AcDbVertex
100
AcDb2dVertex
 10
215.506811
 20
252.020688
 30
0.0
  0
VERTEX
  5
6B9
100
AcDbEntity
  8
LAY-9
  6
CONTINUOUS
 62
     1
100
AcDbVertex
100
AcDb2dVertex
 10
215.398817
 20
250.574786
 30
0.0
  0
VERTEX
  5
6BA
100
AcDbEntity
  8
LAY-9
  6
CONTINUOUS
 62
     1
100
AcDbVertex
100
AcDb2dVertex
 10
215.4
 20
249.2
 30
0.0
  0
VERTEX
  5
6BB
100
AcDbEntity
  8
LAY-9
  6
CONTINUOUS
 62
     1
100
AcDbVertex
100
AcDb2dVertex
 10
215.465446
 20
248.3842
 30
0.0
  0
VERTEX
  5
6BC
100
AcDbEntity
  8
LAY-9
  6
CONTINUOUS
 62
     1
100
AcDbVertex
100
AcDb2dVertex
 10
215.577248
 20
247.609644
 30
0.0
  0
VERTEX
  5
6BD
100
AcDbEntity
  8
LAY-9
  6
CONTINUOUS
 62
     1
100
AcDbVertex
100
AcDb2dVertex
 10
215.728923
 20
246.872122
 30
0.0
  0
VERTEX
  5
6BE
100
AcDbEntity
  8
LAY-9
  6
CONTINUOUS
 62
     1
100
AcDbVertex
100
AcDb2dVertex
 10
215.913991
 20
246.167424
 30
0.0
  0
VERTEX
  5
6BF
100
AcDbEntity
  8
LAY-9
  6
CONTINUOUS
 62
     1
100
AcDbVertex
100
AcDb2dVertex
 10
216.12597
 20
245.491341
 30
0.0
  0
VERTEX
  5
6C0
100
AcDbEntity
  8
LAY-9
  6
CONTINUOUS
 62
     1
100
AcDbVertex
100
AcDb2dVertex
 10
216.358378
 20
244.839663
 30
0.0
  0
VERTEX
  5
6C1
100
AcDbEntity
  8
LAY-9
  6
CONTINUOUS
 62
     1
100
AcDbVertex
100
AcDb2dVertex
 10
216.604734
 20
244.208179
 30
0.0
  0
VERTEX
  5
6C2
100
AcDbEntity
  8
LAY-9
  6
CONTINUOUS
 62
     1
100
AcDbVertex
100
AcDb2dVertex
 10
216.858555
 20
243.592681
 30
0.0
  0
VERTEX
  5
6C3
100
AcDbEntity
  8
LAY-9
  6
CONTINUOUS
 62
     1
100
AcDbVertex
100
AcDb2dVertex
 10
217.113361
 20
242.988958
 30
0.0
  0
VERTEX
  5
6C4
100
AcDbEntity
  8
LAY-9
  6
CONTINUOUS
 62
     1
100
AcDbVertex
100
AcDb2dVertex
 10
217.36267
 20
242.392801
 30
0.0
  0
VERTEX
  5
6C5
100
AcDbEntity
  8
LAY-9
  6
CONTINUOUS
 62
     1
100
AcDbVertex
100
AcDb2dVertex
 10
217.6
 20
241.8
 30
0.0
  0
VERTEX
  5
6C6
100
AcDbEntity
  8
LAY-9
  6
CONTINUOUS
 62
     1
100
AcDbVertex
100
AcDb2dVertex
 10
217.894078
 20
240.993696
 30
0.0
  0
VERTEX
  5
6C7
100
AcDbEntity
  8
LAY-9
  6
CONTINUOUS
 62
     1
100
AcDbVertex
100
AcDb2dVertex
 10
218.153842
 20
240.179254
 30
0.0
  0
VERTEX
  5
6C8
100
AcDbEntity
  8
LAY-9
  6
CONTINUOUS
 62
     1
100
AcDbVertex
100
AcDb2dVertex
 10
218.379004
 20
239.350111
 30
0.0
  0
VERTEX
  5
6C9
100
AcDbEntity
  8
LAY-9
  6
CONTINUOUS
 62
     1
100
AcDbVertex
100
AcDb2dVertex
 10
218.569276
 20
238.499701
 30
0.0
  0
VERTEX
  5
6CA
100
AcDbEntity
  8
LAY-9
  6
CONTINUOUS
 62
     1
100
AcDbVertex
100
AcDb2dVertex
 10
218.724368
 20
237.621462
 30
0.0
  0
VERTEX
  5
6CB
100
AcDbEntity
  8
LAY-9
  6
CONTINUOUS
 62
     1
100
AcDbVertex
100
AcDb2dVertex
 10
218.843993
 20
236.708828
 30
0.0
  0
VERTEX
  5
6CC
100
AcDbEntity
  8
LAY-9
  6
CONTINUOUS
 62
     1
100
AcDbVertex
100
AcDb2dVertex
 10
218.927862
 20
235.755236
 30
0.0
  0
VERTEX
  5
6CD
100
AcDbEntity
  8
LAY-9
  6
CONTINUOUS
 62
     1
100
AcDbVertex
100
AcDb2dVertex
 10
218.975685
 20
234.754121
 30
0.0
  0
VERTEX
  5
6CE
100
AcDbEntity
  8
LAY-9
  6
CONTINUOUS
 62
     1
100
AcDbVertex
100
AcDb2dVertex
 10
218.987175
 20
233.698919
 30
0.0
  0
VERTEX
  5
6CF
100
AcDbEntity
  8
LAY-9
  6
CONTINUOUS
 62
     1
100
AcDbVertex
100
AcDb2dVertex
 10
218.962043
 20
232.583067
 30
0.0
  0
VERTEX
  5
6D0
100
AcDbEntity
  8
LAY-9
  6
CONTINUOUS
 62
     1
100
AcDbVertex
100
AcDb2dVertex
 10
218.9
 20
231.4
 30
0.0
  0
VERTEX
  5
6D1
100
AcDbEntity
  8
LAY-9
  6
CONTINUOUS
 62
     1
100
AcDbVertex
100
AcDb2dVertex
 10
218.804437
 20
230.175326
 30
0.0
  0
VERTEX
  5
6D2
100
AcDbEntity
  8
LAY-9
  6
CONTINUOUS
 62
     1
100
AcDbVertex
100
AcDb2dVertex
 10
218.68094
 20
228.912406
 30
0.0
  0
VERTEX
  5
6D3
100
AcDbEntity
  8
LAY-9
  6
CONTINUOUS
 62
     1
100
AcDbVertex
100
AcDb2dVertex
 10
218.537312
 20
227.643874
 30
0.0
  0
VERTEX
  5
6D4
100
AcDbEntity
  8
LAY-9
  6
CONTINUOUS
 62
     1
100
AcDbVertex
100
AcDb2dVertex
 10
218.381358
 20
226.402364
 30
0.0
  0
VERTEX
  5
6D5
100
AcDbEntity
  8
LAY-9
  6
CONTINUOUS
 62
     1
100
AcDbVertex
100
AcDb2dVertex
 10
218.220879
 20
225.22051
 30
0.0
  0
VERTEX
  5
6D6
100
AcDbEntity
  8
LAY-9
  6
CONTINUOUS
 62
     1
100
AcDbVertex
100
AcDb2dVertex
 10
218.06368
 20
224.130946
 30
0.0
  0
VERTEX
  5
6D7
100
AcDbEntity
  8
LAY-9
  6
CONTINUOUS
 62
     1
100
AcDbVertex
100
AcDb2dVertex
 10
217.917564
 20
223.166305
 30
0.0
  0
VERTEX
  5
6D8
100
AcDbEntity
  8
LAY-9
  6
CONTINUOUS
 62
     1
100
AcDbVertex
100
AcDb2dVertex
 10
217.790335
 20
222.359222
 30
0.0
  0
VERTEX
  5
6D9
100
AcDbEntity
  8
LAY-9
  6
CONTINUOUS
 62
     1
100
AcDbVertex
100
AcDb2dVertex
 10
217.689796
 20
221.74233
 30
0.0
  0
VERTEX
  5
6DA
100
AcDbEntity
  8
LAY-9
  6
CONTINUOUS
 62
     1
100
AcDbVertex
100
AcDb2dVertex
 10
217.623749
 20
221.348264
 30
0.0
  0
VERTEX
  5
6DB
100
AcDbEntity
  8
LAY-9
  6
CONTINUOUS
 62
     1
100
AcDbVertex
100
AcDb2dVertex
 10
217.6
 20
221.209656
 30
0.0
  0
SEQEND
  5
6DC
100
AcDbEntity
  8
LAY-9
  6
CONTINUOUS
 62
     1
  0
LINE
  5
6DD
100
AcDbEntity
  8
LAY-9
  6
CONTINUOUS
 62
     1
100
AcDbLine
 10
83.282069
 20
433.546385
 30
0.0
 11
83.282069
 21
435.5
 31
0.0
  0
LINE
  5
6DE
100
AcDbEntity
  8
LAY-9
  6
CONTINUOUS
 62
     1
100
AcDbLine
 10
83.282069
 20
441.0
 30
0.0
 11
83.282069
 21
454.946385
 31
0.0
  0
LINE
  5
6DF
100
AcDbEntity
  8
LAY-9
  6
CONTINUOUS
 62
     1
100
AcDbLine
 10
81.682069
 20
433.546385
 30
0.0
 11
81.682069
 21
435.5
 31
0.0
  0
LINE
  5
6E0
100
AcDbEntity
  8
LAY-9
  6
CONTINUOUS
 62
     1
100
AcDbLine
 10
81.682069
 20
441.0
 30
0.0
 11
81.682069
 21
454.946385
 31
0.0
  0
LINE
  5
6E1
100
AcDbEntity
  8
LAY-9
  6
CONTINUOUS
 62
     1
100
AcDbLine
 10
695.712007
 20
376.747904
 30
0.0
 11
695.712007
 21
398.547904
 31
0.0
  0
LINE
  5
6E2
100
AcDbEntity
  8
LAY-9
  6
CONTINUOUS
 62
     1
100
AcDbLine
 10
697.312006
 20
400.147904
 30
0.0
 11
715.712007
 21
400.147904
 31
0.0
  0
LINE
  5
6E3
100
AcDbEntity
  8
LAY-9
  6
CONTINUOUS
 62
     1
100
AcDbLine
 10
715.712007
 20
400.147904
 30
0.0
 11
715.712007
 21
398.547904
 31
0.0
  0
LINE
  5
6E4
100
AcDbEntity
  8
LAY-9
  6
CONTINUOUS
 62
     1
100
AcDbLine
 10
697.312006
 20
375.147904
 30
0.0
 11
740.712007
 21
375.147904
 31
0.0
  0
LINE
  5
6E5
100
AcDbEntity
  8
LAY-9
  6
CONTINUOUS
 62
     1
100
AcDbLine
 10
740.712007
 20
375.147904
 30
0.0
 11
740.712007
 21
361.747904
 31
0.0
  0
LINE
  5
6E6
100
AcDbEntity
  8
LAY-9
  6
CONTINUOUS
 62
     1
100
AcDbLine
 10
742.312007
 20
360.147904
 30
0.0
 11
747.256019
 21
360.147904
 31
0.0
  0
LINE
  5
6E7
100
AcDbEntity
  8
LAY-9
  6
CONTINUOUS
 62
     1
100
AcDbLine
 10
742.312007
 20
361.747904
 30
0.0
 11
742.312007
 21
375.147904
 31
0.0
  0
LINE
  5
6E8
100
AcDbEntity
  8
LAY-9
  6
CONTINUOUS
 62
     1
100
AcDbLine
 10
740.712007
 20
376.747904
 30
0.0
 11
697.312006
 21
376.747904
 31
0.0
  0
LINE
  5
6E9
100
AcDbEntity
  8
LAY-9
  6
CONTINUOUS
 62
     1
100
AcDbLine
 10
697.312006
 20
398.547904
 30
0.0
 11
715.712007
 21
398.547904
 31
0.0
  0
LINE
  5
6EA
100
AcDbEntity
  8
LAY-9
  6
CONTINUOUS
 62
     1
100
AcDbLine
 10
747.256019
 20
361.747904
 30
0.0
 11
742.312007
 21
361.747904
 31
0.0
  0
ARC
  5
6EB
100
AcDbEntity
  8
LAY-9
  6
CONTINUOUS
 62
     1
100
AcDbCircle
 10
697.312006
 20
398.547904
 30
0.0
 40
1.6
100
AcDbArc
 50
90.0
 51
180.0
  0
ARC
  5
6EC
100
AcDbEntity
  8
LAY-9
  6
CONTINUOUS
 62
     1
100
AcDbCircle
 10
697.312006
 20
376.747904
 30
0.0
 40
1.6
100
AcDbArc
 50
180.0
 51
270.0
  0
ARC
  5
6ED
100
AcDbEntity
  8
LAY-9
  6
CONTINUOUS
 62
     1
100
AcDbCircle
 10
740.712007
 20
375.147904
 30
0.0
 40
1.6
100
AcDbArc
 50
0.0
 51
90.0
  0
ARC
  5
6EE
100
AcDbEntity
  8
LAY-9
  6
CONTINUOUS
 62
     1
100
AcDbCircle
 10
742.312007
 20
361.747904
 30
0.0
 40
1.6
100
AcDbArc
 50
180.0
 51
270.0
  0
LINE
  5
6EF
100
AcDbEntity
  8
LAY-9
  6
CONTINUOUS
 62
     1
100
AcDbLine
 10
697.312006
 20
376.747904
 30
0.0
 11
697.312006
 21
380.147934
 31
0.0
  0
LINE
  5
6F0
100
AcDbEntity
  8
LAY-9
  6
CONTINUOUS
 62
     1
100
AcDbLine
 10
697.312006
 20
390.147934
 30
0.0
 11
697.312006
 21
398.547904
 31
0.0
  0
LINE
  5
6F1
100
AcDbEntity
  8
LAY-9
  6
CONTINUOUS
 62
     1
100
AcDbLine
 10
740.712007
 20
376.747904
 30
0.0
 11
740.712007
 21
380.147934
 31
0.0
  0
LINE
  5
6F2
100
AcDbEntity
  8
LAY-9
  6
CONTINUOUS
 62
     1
100
AcDbLine
 10
698.712036
 20
372.147904
 30
0.0
 11
737.112037
 21
372.147904
 31
0.0
  0
LINE
  5
6F3
100
AcDbEntity
  8
LAY-9
  6
CONTINUOUS
 62
     1
100
AcDbLine
 10
737.112037
 20
370.547904
 30
0.0
 11
733.712067
 21
370.547904
 31
0.0
  0
LINE
  5
6F4
100
AcDbEntity
  8
LAY-9
  6
CONTINUOUS
 62
     1
100
AcDbLine
 10
734.812036
 20
368.247904
 30
0.0
 11
733.712067
 21
368.247904
 31
0.0
  0
ARC
  5
6F5
100
AcDbEntity
  8
LAY-9
  6
CONTINUOUS
 62
     1
100
AcDbCircle
 10
737.112037
 20
370.547904
 30
0.0
 40
1.6
100
AcDbArc
 50
0.0
 51
90.0
  0
ARC
  5
6F6
100
AcDbEntity
  8
LAY-9
  6
CONTINUOUS
 62
     1
100
AcDbCircle
 10
734.812036
 20
368.247904
 30
0.0
 40
2.3
100
AcDbArc
 50
0.0
 51
90.0
  0
LINE
  5
6F7
100
AcDbEntity
  8
LAY-9
  6
CONTINUOUS
 62
     1
100
AcDbLine
 10
702.612037
 20
355.647904
 30
0.0
 11
734.812036
 21
355.647904
 31
0.0
  0
LINE
  5
6F8
100
AcDbEntity
  8
LAY-9
  6
CONTINUOUS
 62
     1
100
AcDbLine
 10
695.712007
 20
390.147904
 30
0.0
 11
695.712007
 21
372.147904
 31
0.0
  0
LINE
  5
6F9
100
AcDbEntity
  8
LAY-9
  6
CONTINUOUS
 62
     1
100
AcDbLine
 10
734.812036
 20
210.798186
 30
0.0
 11
734.812036
 21
190.298157
 31
0.0
  0
LINE
  5
6FA
100
AcDbEntity
  8
LAY-9
  6
CONTINUOUS
 62
     1
100
AcDbLine
 10
695.712007
 20
194.298218
 30
0.0
 11
695.712007
 21
184.298249
 31
0.0
  0
LINE
  5
6FB
100
AcDbEntity
  8
LAY-9
  6
CONTINUOUS
 62
     1
100
AcDbLine
 10
698.712036
 20
190.298157
 30
0.0
 11
702.612037
 21
190.298157
 31
0.0
  0
LINE
  5
6FC
100
AcDbEntity
  8
LAY-9
  6
CONTINUOUS
 62
     1
100
AcDbLine
 10
734.812036
 20
190.298157
 30
0.0
 11
738.712036
 21
190.298157
 31
0.0
  0
LINE
  5
6FD
100
AcDbEntity
  8
LAY-9
  6
CONTINUOUS
 62
     1
100
AcDbLine
 10
700.312036
 20
194.298249
 30
0.0
 11
700.312036
 21
190.298157
 31
0.0
  0
LINE
  5
6FE
100
AcDbEntity
  8
LAY-9
  6
CONTINUOUS
 62
     1
100
AcDbLine
 10
702.612037
 20
210.798215
 30
0.0
 11
702.612037
 21
206.298215
 31
0.0
  0
LINE
  5
6FF
100
AcDbEntity
  8
LAY-9
  6
CONTINUOUS
 62
     1
100
AcDbLine
 10
702.612037
 20
194.298249
 30
0.0
 11
702.612037
 21
190.298157
 31
0.0
  0
LINE
  5
700
100
AcDbEntity
  8
LAY-9
  6
CONTINUOUS
 62
     1
100
AcDbLine
 10
702.612037
 20
210.798215
 30
0.0
 11
734.812036
 21
210.798186
 31
0.0
  0
LINE
  5
701
100
AcDbEntity
  8
LAY-9
  6
CONTINUOUS
 62
     1
100
AcDbLine
 10
702.612039
 20
213.098215
 30
0.0
 11
734.812039
 21
213.098186
 31
0.0
  0
ARC
  5
702
100
AcDbEntity
  8
LAY-9
  6
CONTINUOUS
 62
     1
100
AcDbCircle
 10
702.612037
 20
210.798215
 30
0.0
 40
2.3
100
AcDbArc
 50
89.999949
 51
180.0
  0
ARC
  5
703
100
AcDbEntity
  8
LAY-9
  6
CONTINUOUS
 62
     1
100
AcDbCircle
 10
734.812036
 20
210.798186
 30
0.0
 40
2.3
100
AcDbArc
 50
0.0
 51
89.999949
  0
LINE
  5
704
100
AcDbEntity
  8
LAY-9
  6
CONTINUOUS
 62
     1
100
AcDbLine
 10
737.112037
 20
350.547904
 30
0.0
 11
734.812036
 21
350.547904
 31
0.0
  0
LINE
  5
705
100
AcDbEntity
  8
LAY-9
  6
CONTINUOUS
 62
     1
100
AcDbLine
 10
734.812036
 20
368.247904
 30
0.0
 11
734.812036
 21
350.547904
 31
0.0
  0
LINE
  5
706
100
AcDbEntity
  8
LAY-9
  6
CONTINUOUS
 62
     1
100
AcDbLine
 10
700.312036
 20
352.147904
 30
0.0
 11
702.612037
 21
352.147904
 31
0.0
  0
LINE
  5
707
100
AcDbEntity
  8
LAY-9
  6
CONTINUOUS
 62
     1
100
AcDbLine
 10
702.612037
 20
352.147904
 30
0.0
 11
702.612037
 21
360.147904
 31
0.0
  0
LINE
  5
708
100
AcDbEntity
  8
LAY-9
  6
DIVIDE
 62
     1
100
AcDbLine
 10
690.656018
 20
298.1
 30
0.0
 11
744.156018
 21
298.1
 31
0.0
  0
LINE
  5
709
100
AcDbEntity
  8
LAY-9
  6
DIVIDE
 62
     1
100
AcDbLine
 10
690.656018
 20
293.1
 30
0.0
 11
744.156018
 21
293.1
 31
0.0
  0
LINE
  5
70A
100
AcDbEntity
  8
LAY-9
  6
CONTINUOUS
 62
     1
100
AcDbLine
 10
695.712007
 20
357.147904
 30
0.0
 11
695.712007
 21
298.1
 31
0.0
  0
LINE
  5
70B
100
AcDbEntity
  8
LAY-9
  6
CONTINUOUS
 62
     1
100
AcDbLine
 10
698.712036
 20
372.147904
 30
0.0
 11
698.712036
 21
298.1
 31
0.0
  0
LINE
  5
70C
100
AcDbEntity
  8
LAY-9
  6
CONTINUOUS
 62
     1
100
AcDbLine
 10
698.712036
 20
372.147904
 30
0.0
 11
698.712036
 21
298.1
 31
0.0
  0
LINE
  5
70D
100
AcDbEntity
  8
LAY-9
  6
CONTINUOUS
 62
     1
100
AcDbLine
 10
737.112037
 20
370.547904
 30
0.0
 11
737.112037
 21
298.1
 31
0.0
  0
LINE
  5
70E
100
AcDbEntity
  8
LAY-9
  6
CONTINUOUS
 62
     1
100
AcDbLine
 10
737.112037
 20
293.1
 30
0.0
 11
737.112037
 21
190.298157
 31
0.0
  0
LINE
  5
70F
100
AcDbEntity
  8
LAY-9
  6
CONTINUOUS
 62
     1
100
AcDbLine
 10
738.712036
 20
370.547904
 30
0.0
 11
738.712036
 21
298.1
 31
0.0
  0
LINE
  5
710
100
AcDbEntity
  8
LAY-9
  6
CONTINUOUS
 62
     1
100
AcDbLine
 10
738.712036
 20
293.1
 30
0.0
 11
738.712036
 21
190.298157
 31
0.0
  0
LINE
  5
711
100
AcDbEntity
  8
LAY-9
  6
CONTINUOUS
 62
     1
100
AcDbLine
 10
737.112037
 20
370.547904
 30
0.0
 11
737.112037
 21
298.1
 31
0.0
  0
LINE
  5
712
100
AcDbEntity
  8
LAY-9
  6
CONTINUOUS
 62
     1
100
AcDbLine
 10
737.112037
 20
293.1
 30
0.0
 11
737.112037
 21
190.298157
 31
0.0
  0
LINE
  5
713
100
AcDbEntity
  8
LAY-9
  6
CONTINUOUS
 62
     1
100
AcDbLine
 10
700.312036
 20
360.147904
 30
0.0
 11
700.312036
 21
298.1
 31
0.0
  0
LINE
  5
714
100
AcDbEntity
  8
LAY-9
  6
CONTINUOUS
 62
     1
100
AcDbLine
 10
700.312036
 20
293.1
 30
0.0
 11
700.312036
 21
206.298217
 31
0.0
  0
LINE
  5
715
100
AcDbEntity
  8
LAY-9
  6
CONTINUOUS
 62
     1
100
AcDbLine
 10
740.712007
 20
361.747904
 30
0.0
 11
740.712007
 21
298.1
 31
0.0
  0
LINE
  5
716
100
AcDbEntity
  8
LAY-9
  6
CONTINUOUS
 62
     1
100
AcDbLine
 10
740.712007
 20
293.1
 30
0.0
 11
740.712007
 21
184.298249
 31
0.0
  0
LINE
  5
717
100
AcDbEntity
  8
LAY-9
  6
CONTINUOUS
 62
     1
100
AcDbLine
 10
691.712007
 20
184.298249
 30
0.0
 11
781.356019
 21
184.298249
 31
0.0
  0
LINE
  5
718
100
AcDbEntity
  8
LAY-9
  6
CONTINUOUS
 62
     1
100
AcDbLine
 10
655.712067
 20
184.298249
 30
0.0
 11
607.556019
 21
184.298249
 31
0.0
  0
POLYLINE
  5
719
100
AcDbEntity
  8
LAY-9
  6
CONTINUOUS
 62
     1
100
AcDb2dPolyline
 66
     1
 10
0.0
 20
0.0
 30
0.0
 70
   128
  0
VERTEX
  5
71A
100
AcDbEntity
  8
LAY-9
  6
CONTINUOUS
 62
     1
100
AcDbVertex
100
AcDb2dVertex
 10
781.356019
 20
184.298249
 30
0.0
  0
VERTEX
  5
71B
100
AcDbEntity
  8
LAY-9
  6
CONTINUOUS
 62
     1
100
AcDbVertex
100
AcDb2dVertex
 10
781.272374
 20
184.170585
 30
0.0
  0
VERTEX
  5
71C
100
AcDbEntity
  8
LAY-9
  6
CONTINUOUS
 62
     1
100
AcDbVertex
100
AcDb2dVertex
 10
781.044318
 20
183.809902
 30
0.0
  0
VERTEX
  5
71D
100
AcDbEntity
  8
LAY-9
  6
CONTINUOUS
 62
     1
100
AcDbVertex
100
AcDb2dVertex
 10
780.706172
 20
183.249669
 30
0.0
  0
VERTEX
  5
71E
100
AcDbEntity
  8
LAY-9
  6
CONTINUOUS
 62
     1
100
AcDbVertex
100
AcDb2dVertex
 10
780.292254
 20
182.523352
 30
0.0
  0
VERTEX
  5
71F
100
AcDbEntity
  8
LAY-9
  6
CONTINUOUS
 62
     1
100
AcDbVertex
100
AcDb2dVertex
 10
779.836883
 20
181.664418
 30
0.0
  0
VERTEX
  5
720
100
AcDbEntity
  8
LAY-9
  6
CONTINUOUS
 62
     1
100
AcDbVertex
100
AcDb2dVertex
 10
779.374378
 20
180.706334
 30
0.0
  0
VERTEX
  5
721
100
AcDbEntity
  8
LAY-9
  6
CONTINUOUS
 62
     1
100
AcDbVertex
100
AcDb2dVertex
 10
778.939058
 20
179.682566
 30
0.0
  0
VERTEX
  5
722
100
AcDbEntity
  8
LAY-9
  6
CONTINUOUS
 62
     1
100
AcDbVertex
100
AcDb2dVertex
 10
778.565243
 20
178.626582
 30
0.0
  0
VERTEX
  5
723
100
AcDbEntity
  8
LAY-9
  6
CONTINUOUS
 62
     1
100
AcDbVertex
100
AcDb2dVertex
 10
778.287252
 20
177.571849
 30
0.0
  0
VERTEX
  5
724
100
AcDbEntity
  8
LAY-9
  6
CONTINUOUS
 62
     1
100
AcDbVertex
100
AcDb2dVertex
 10
778.139404
 20
176.551832
 30
0.0
  0
VERTEX
  5
725
100
AcDbEntity
  8
LAY-9
  6
CONTINUOUS
 62
     1
100
AcDbVertex
100
AcDb2dVertex
 10
778.156018
 20
175.6
 30
0.0
  0
VERTEX
  5
726
100
AcDbEntity
  8
LAY-9
  6
CONTINUOUS
 62
     1
100
AcDbVertex
100
AcDb2dVertex
 10
778.25152
 20
175.092701
 30
0.0
  0
VERTEX
  5
727
100
AcDbEntity
  8
LAY-9
  6
CONTINUOUS
 62
     1
100
AcDbVertex
100
AcDb2dVertex
 10
778.405171
 20
174.615749
 30
0.0
  0
VERTEX
  5
728
100
AcDbEntity
  8
LAY-9
  6
CONTINUOUS
 62
     1
100
AcDbVertex
100
AcDb2dVertex
 10
778.608796
 20
174.165576
 30
0.0
  0
VERTEX
  5
729
100
AcDbEntity
  8
LAY-9
  6
CONTINUOUS
 62
     1
100
AcDbVertex
100
AcDb2dVertex
 10
778.854221
 20
173.738612
 30
0.0
  0
VERTEX
  5
72A
100
AcDbEntity
  8
LAY-9
  6
CONTINUOUS
 62
     1
100
AcDbVertex
100
AcDb2dVertex
 10
779.133274
 20
173.33129
 30
0.0
  0
VERTEX
  5
72B
100
AcDbEntity
  8
LAY-9
  6
CONTINUOUS
 62
     1
100
AcDbVertex
100
AcDb2dVertex
 10
779.43778
 20
172.940042
 30
0.0
  0
VERTEX
  5
72C
100
AcDbEntity
  8
LAY-9
  6
CONTINUOUS
 62
     1
100
AcDbVertex
100
AcDb2dVertex
 10
779.759565
 20
172.561298
 30
0.0
  0
VERTEX
  5
72D
100
AcDbEntity
  8
LAY-9
  6
CONTINUOUS
 62
     1
100
AcDbVertex
100
AcDb2dVertex
 10
780.090455
 20
172.19149
 30
0.0
  0
VERTEX
  5
72E
100
AcDbEntity
  8
LAY-9
  6
CONTINUOUS
 62
     1
100
AcDbVertex
100
AcDb2dVertex
 10
780.422277
 20
171.82705
 30
0.0
  0
VERTEX
  5
72F
100
AcDbEntity
  8
LAY-9
  6
CONTINUOUS
 62
     1
100
AcDbVertex
100
AcDb2dVertex
 10
780.746856
 20
171.46441
 30
0.0
  0
VERTEX
  5
730
100
AcDbEntity
  8
LAY-9
  6
CONTINUOUS
 62
     1
100
AcDbVertex
100
AcDb2dVertex
 10
781.056018
 20
171.1
 30
0.0
  0
VERTEX
  5
731
100
AcDbEntity
  8
LAY-9
  6
CONTINUOUS
 62
     1
100
AcDbVertex
100
AcDb2dVertex
 10
781.449894
 20
170.582418
 30
0.0
  0
VERTEX
  5
732
100
AcDbEntity
  8
LAY-9
  6
CONTINUOUS
 62
     1
100
AcDbVertex
100
AcDb2dVertex
 10
781.79687
 20
170.049733
 30
0.0
  0
VERTEX
  5
733
100
AcDbEntity
  8
LAY-9
  6
CONTINUOUS
 62
     1
100
AcDbVertex
100
AcDb2dVertex
 10
782.096019
 20
169.497242
 30
0.0
  0
VERTEX
  5
734
100
AcDbEntity
  8
LAY-9
  6
CONTINUOUS
 62
     1
100
AcDbVertex
100
AcDb2dVertex
 10
782.346412
 20
168.920242
 30
0.0
  0
VERTEX
  5
735
100
AcDbEntity
  8
LAY-9
  6
CONTINUOUS
 62
     1
100
AcDbVertex
100
AcDb2dVertex
 10
782.547121
 20
168.314031
 30
0.0
  0
VERTEX
  5
736
100
AcDbEntity
  8
LAY-9
  6
CONTINUOUS
 62
     1
100
AcDbVertex
100
AcDb2dVertex
 10
782.697217
 20
167.673906
 30
0.0
  0
VERTEX
  5
737
100
AcDbEntity
  8
LAY-9
  6
CONTINUOUS
 62
     1
100
AcDbVertex
100
AcDb2dVertex
 10
782.795773
 20
166.995166
 30
0.0
  0
VERTEX
  5
738
100
AcDbEntity
  8
LAY-9
  6
CONTINUOUS
 62
     1
100
AcDbVertex
100
AcDb2dVertex
 10
782.841859
 20
166.273108
 30
0.0
  0
VERTEX
  5
739
100
AcDbEntity
  8
LAY-9
  6
CONTINUOUS
 62
     1
100
AcDbVertex
100
AcDb2dVertex
 10
782.834548
 20
165.503029
 30
0.0
  0
VERTEX
  5
73A
100
AcDbEntity
  8
LAY-9
  6
CONTINUOUS
 62
     1
100
AcDbVertex
100
AcDb2dVertex
 10
782.77291
 20
164.680227
 30
0.0
  0
VERTEX
  5
73B
100
AcDbEntity
  8
LAY-9
  6
CONTINUOUS
 62
     1
100
AcDbVertex
100
AcDb2dVertex
 10
782.656019
 20
163.8
 30
0.0
  0
VERTEX
  5
73C
100
AcDbEntity
  8
LAY-9
  6
CONTINUOUS
 62
     1
100
AcDbVertex
100
AcDb2dVertex
 10
782.578321
 20
163.344827
 30
0.0
  0
VERTEX
  5
73D
100
AcDbEntity
  8
LAY-9
  6
CONTINUOUS
 62
     1
100
AcDbVertex
100
AcDb2dVertex
 10
782.490612
 20
162.884702
 30
0.0
  0
VERTEX
  5
73E
100
AcDbEntity
  8
LAY-9
  6
CONTINUOUS
 62
     1
100
AcDbVertex
100
AcDb2dVertex
 10
782.396559
 20
162.429803
 30
0.0
  0
VERTEX
  5
73F
100
AcDbEntity
  8
LAY-9
  6
CONTINUOUS
 62
     1
100
AcDbVertex
100
AcDb2dVertex
 10
782.299831
 20
161.990307
 30
0.0
  0
VERTEX
  5
740
100
AcDbEntity
  8
LAY-9
  6
CONTINUOUS
 62
     1
100
AcDbVertex
100
AcDb2dVertex
 10
782.204098
 20
161.576391
 30
0.0
  0
VERTEX
  5
741
100
AcDbEntity
  8
LAY-9
  6
CONTINUOUS
 62
     1
100
AcDbVertex
100
AcDb2dVertex
 10
782.113027
 20
161.198232
 30
0.0
  0
VERTEX
  5
742
100
AcDbEntity
  8
LAY-9
  6
CONTINUOUS
 62
     1
100
AcDbVertex
100
AcDb2dVertex
 10
782.030287
 20
160.866008
 30
0.0
  0
VERTEX
  5
743
100
AcDbEntity
  8
LAY-9
  6
CONTINUOUS
 62
     1
100
AcDbVertex
100
AcDb2dVertex
 10
781.959548
 20
160.589895
 30
0.0
  0
VERTEX
  5
744
100
AcDbEntity
  8
LAY-9
  6
CONTINUOUS
 62
     1
100
AcDbVertex
100
AcDb2dVertex
 10
781.904477
 20
160.380071
 30
0.0
  0
VERTEX
  5
745
100
AcDbEntity
  8
LAY-9
  6
CONTINUOUS
 62
     1
100
AcDbVertex
100
AcDb2dVertex
 10
781.868745
 20
160.246714
 30
0.0
  0
VERTEX
  5
746
100
AcDbEntity
  8
LAY-9
  6
CONTINUOUS
 62
     1
100
AcDbVertex
100
AcDb2dVertex
 10
781.856019
 20
160.2
 30
0.0
  0
SEQEND
  5
747
100
AcDbEntity
  8
LAY-9
  6
CONTINUOUS
 62
     1
  0
LINE
  5
748
100
AcDbEntity
  8
LAY-9
  6
CONTINUOUS
 62
     1
100
AcDbLine
 10
732.212036
 20
380.147934
 30
0.0
 11
740.712007
 21
380.147934
 31
0.0
  0
LINE
  5
749
100
AcDbEntity
  8
LAY-9
  6
CONTINUOUS
 62
     1
100
AcDbLine
 10
732.212067
 20
360.147904
 30
0.0
 11
734.812036
 21
360.147904
 31
0.0
  0
LINE
  5
74A
100
AcDbEntity
  8
LAY-9
  6
CONTINUOUS
 62
     1
100
AcDbLine
 10
732.212098
 20
206.298188
 30
0.0
 11
734.812036
 21
206.298188
 31
0.0
  0
LINE
  5
74B
100
AcDbEntity
  8
LAY-9
  6
CONTINUOUS
 62
     1
100
AcDbLine
 10
695.712007
 20
293.1
 30
0.0
 11
695.712007
 21
249.298249
 31
0.0
  0
LINE
  5
74C
100
AcDbEntity
  8
LAY-9
  6
CONTINUOUS
 62
     1
100
AcDbLine
 10
695.712007
 20
244.298249
 30
0.0
 11
695.712007
 21
209.298218
 31
0.0
  0
POLYLINE
  5
74D
100
AcDbEntity
  8
LAY-9
  6
CONTINUOUS
 62
     1
100
AcDb2dPolyline
 66
     1
 10
0.0
 20
0.0
 30
0.0
 70
   128
  0
VERTEX
  5
74E
100
AcDbEntity
  8
LAY-9
  6
CONTINUOUS
 62
     1
100
AcDbVertex
100
AcDb2dVertex
 10
607.556019
 20
184.298249
 30
0.0
  0
VERTEX
  5
74F
100
AcDbEntity
  8
LAY-9
  6
CONTINUOUS
 62
     1
100
AcDbVertex
100
AcDb2dVertex
 10
607.472374
 20
184.170585
 30
0.0
  0
VERTEX
  5
750
100
AcDbEntity
  8
LAY-9
  6
CONTINUOUS
 62
     1
100
AcDbVertex
100
AcDb2dVertex
 10
607.244318
 20
183.809902
 30
0.0
  0
VERTEX
  5
751
100
AcDbEntity
  8
LAY-9
  6
CONTINUOUS
 62
     1
100
AcDbVertex
100
AcDb2dVertex
 10
606.906172
 20
183.249669
 30
0.0
  0
VERTEX
  5
752
100
AcDbEntity
  8
LAY-9
  6
CONTINUOUS
 62
     1
100
AcDbVertex
100
AcDb2dVertex
 10
606.492254
 20
182.523352
 30
0.0
  0
VERTEX
  5
753
100
AcDbEntity
  8
LAY-9
  6
CONTINUOUS
 62
     1
100
AcDbVertex
100
AcDb2dVertex
 10
606.036883
 20
181.664418
 30
0.0
  0
VERTEX
  5
754
100
AcDbEntity
  8
LAY-9
  6
CONTINUOUS
 62
     1
100
AcDbVertex
100
AcDb2dVertex
 10
605.574378
 20
180.706334
 30
0.0
  0
VERTEX
  5
755
100
AcDbEntity
  8
LAY-9
  6
CONTINUOUS
 62
     1
100
AcDbVertex
100
AcDb2dVertex
 10
605.139058
 20
179.682566
 30
0.0
  0
VERTEX
  5
756
100
AcDbEntity
  8
LAY-9
  6
CONTINUOUS
 62
     1
100
AcDbVertex
100
AcDb2dVertex
 10
604.765243
 20
178.626582
 30
0.0
  0
VERTEX
  5
757
100
AcDbEntity
  8
LAY-9
  6
CONTINUOUS
 62
     1
100
AcDbVertex
100
AcDb2dVertex
 10
604.487252
 20
177.571849
 30
0.0
  0
VERTEX
  5
758
100
AcDbEntity
  8
LAY-9
  6
CONTINUOUS
 62
     1
100
AcDbVertex
100
AcDb2dVertex
 10
604.339404
 20
176.551832
 30
0.0
  0
VERTEX
  5
759
100
AcDbEntity
  8
LAY-9
  6
CONTINUOUS
 62
     1
100
AcDbVertex
100
AcDb2dVertex
 10
604.356018
 20
175.6
 30
0.0
  0
VERTEX
  5
75A
100
AcDbEntity
  8
LAY-9
  6
CONTINUOUS
 62
     1
100
AcDbVertex
100
AcDb2dVertex
 10
604.45152
 20
175.092701
 30
0.0
  0
VERTEX
  5
75B
100
AcDbEntity
  8
LAY-9
  6
CONTINUOUS
 62
     1
100
AcDbVertex
100
AcDb2dVertex
 10
604.605171
 20
174.615749
 30
0.0
  0
VERTEX
  5
75C
100
AcDbEntity
  8
LAY-9
  6
CONTINUOUS
 62
     1
100
AcDbVertex
100
AcDb2dVertex
 10
604.808796
 20
174.165576
 30
0.0
  0
VERTEX
  5
75D
100
AcDbEntity
  8
LAY-9
  6
CONTINUOUS
 62
     1
100
AcDbVertex
100
AcDb2dVertex
 10
605.054221
 20
173.738612
 30
0.0
  0
VERTEX
  5
75E
100
AcDbEntity
  8
LAY-9
  6
CONTINUOUS
 62
     1
100
AcDbVertex
100
AcDb2dVertex
 10
605.333274
 20
173.33129
 30
0.0
  0
VERTEX
  5
75F
100
AcDbEntity
  8
LAY-9
  6
CONTINUOUS
 62
     1
100
AcDbVertex
100
AcDb2dVertex
 10
605.63778
 20
172.940042
 30
0.0
  0
VERTEX
  5
760
100
AcDbEntity
  8
LAY-9
  6
CONTINUOUS
 62
     1
100
AcDbVertex
100
AcDb2dVertex
 10
605.959565
 20
172.561298
 30
0.0
  0
VERTEX
  5
761
100
AcDbEntity
  8
LAY-9
  6
CONTINUOUS
 62
     1
100
AcDbVertex
100
AcDb2dVertex
 10
606.290455
 20
172.19149
 30
0.0
  0
VERTEX
  5
762
100
AcDbEntity
  8
LAY-9
  6
CONTINUOUS
 62
     1
100
AcDbVertex
100
AcDb2dVertex
 10
606.622277
 20
171.82705
 30
0.0
  0
VERTEX
  5
763
100
AcDbEntity
  8
LAY-9
  6
CONTINUOUS
 62
     1
100
AcDbVertex
100
AcDb2dVertex
 10
606.946856
 20
171.46441
 30
0.0
  0
VERTEX
  5
764
100
AcDbEntity
  8
LAY-9
  6
CONTINUOUS
 62
     1
100
AcDbVertex
100
AcDb2dVertex
 10
607.256018
 20
171.1
 30
0.0
  0
VERTEX
  5
765
100
AcDbEntity
  8
LAY-9
  6
CONTINUOUS
 62
     1
100
AcDbVertex
100
AcDb2dVertex
 10
607.649894
 20
170.582418
 30
0.0
  0
VERTEX
  5
766
100
AcDbEntity
  8
LAY-9
  6
CONTINUOUS
 62
     1
100
AcDbVertex
100
AcDb2dVertex
 10
607.99687
 20
170.049733
 30
0.0
  0
VERTEX
  5
767
100
AcDbEntity
  8
LAY-9
  6
CONTINUOUS
 62
     1
100
AcDbVertex
100
AcDb2dVertex
 10
608.296019
 20
169.497242
 30
0.0
  0
VERTEX
  5
768
100
AcDbEntity
  8
LAY-9
  6
CONTINUOUS
 62
     1
100
AcDbVertex
100
AcDb2dVertex
 10
608.546412
 20
168.920242
 30
0.0
  0
VERTEX
  5
769
100
AcDbEntity
  8
LAY-9
  6
CONTINUOUS
 62
     1
100
AcDbVertex
100
AcDb2dVertex
 10
608.747121
 20
168.314031
 30
0.0
  0
VERTEX
  5
76A
100
AcDbEntity
  8
LAY-9
  6
CONTINUOUS
 62
     1
100
AcDbVertex
100
AcDb2dVertex
 10
608.897217
 20
167.673906
 30
0.0
  0
VERTEX
  5
76B
100
AcDbEntity
  8
LAY-9
  6
CONTINUOUS
 62
     1
100
AcDbVertex
100
AcDb2dVertex
 10
608.995773
 20
166.995166
 30
0.0
  0
VERTEX
  5
76C
100
AcDbEntity
  8
LAY-9
  6
CONTINUOUS
 62
     1
100
AcDbVertex
100
AcDb2dVertex
 10
609.041859
 20
166.273108
 30
0.0
  0
VERTEX
  5
76D
100
AcDbEntity
  8
LAY-9
  6
CONTINUOUS
 62
     1
100
AcDbVertex
100
AcDb2dVertex
 10
609.034548
 20
165.503029
 30
0.0
  0
VERTEX
  5
76E
100
AcDbEntity
  8
LAY-9
  6
CONTINUOUS
 62
     1
100
AcDbVertex
100
AcDb2dVertex
 10
608.97291
 20
164.680227
 30
0.0
  0
VERTEX
  5
76F
100
AcDbEntity
  8
LAY-9
  6
CONTINUOUS
 62
     1
100
AcDbVertex
100
AcDb2dVertex
 10
608.856019
 20
163.8
 30
0.0
  0
VERTEX
  5
770
100
AcDbEntity
  8
LAY-9
  6
CONTINUOUS
 62
     1
100
AcDbVertex
100
AcDb2dVertex
 10
608.778321
 20
163.344827
 30
0.0
  0
VERTEX
  5
771
100
AcDbEntity
  8
LAY-9
  6
CONTINUOUS
 62
     1
100
AcDbVertex
100
AcDb2dVertex
 10
608.690612
 20
162.884702
 30
0.0
  0
VERTEX
  5
772
100
AcDbEntity
  8
LAY-9
  6
CONTINUOUS
 62
     1
100
AcDbVertex
100
AcDb2dVertex
 10
608.596559
 20
162.429803
 30
0.0
  0
VERTEX
  5
773
100
AcDbEntity
  8
LAY-9
  6
CONTINUOUS
 62
     1
100
AcDbVertex
100
AcDb2dVertex
 10
608.499831
 20
161.990307
 30
0.0
  0
VERTEX
  5
774
100
AcDbEntity
  8
LAY-9
  6
CONTINUOUS
 62
     1
100
AcDbVertex
100
AcDb2dVertex
 10
608.404098
 20
161.576391
 30
0.0
  0
VERTEX
  5
775
100
AcDbEntity
  8
LAY-9
  6
CONTINUOUS
 62
     1
100
AcDbVertex
100
AcDb2dVertex
 10
608.313027
 20
161.198232
 30
0.0
  0
VERTEX
  5
776
100
AcDbEntity
  8
LAY-9
  6
CONTINUOUS
 62
     1
100
AcDbVertex
100
AcDb2dVertex
 10
608.230287
 20
160.866008
 30
0.0
  0
VERTEX
  5
777
100
AcDbEntity
  8
LAY-9
  6
CONTINUOUS
 62
     1
100
AcDbVertex
100
AcDb2dVertex
 10
608.159548
 20
160.589895
 30
0.0
  0
VERTEX
  5
778
100
AcDbEntity
  8
LAY-9
  6
CONTINUOUS
 62
     1
100
AcDbVertex
100
AcDb2dVertex
 10
608.104477
 20
160.380071
 30
0.0
  0
VERTEX
  5
779
100
AcDbEntity
  8
LAY-9
  6
CONTINUOUS
 62
     1
100
AcDbVertex
100
AcDb2dVertex
 10
608.068745
 20
160.246714
 30
0.0
  0
VERTEX
  5
77A
100
AcDbEntity
  8
LAY-9
  6
CONTINUOUS
 62
     1
100
AcDbVertex
100
AcDb2dVertex
 10
608.056019
 20
160.2
 30
0.0
  0
SEQEND
  5
77B
100
AcDbEntity
  8
LAY-9
  6
CONTINUOUS
 62
     1
  0
LINE
  5
77C
100
AcDbEntity
  8
LAY-9
  6
DIVIDE
 62
     1
100
AcDbLine
 10
500.856018
 20
293.1
 30
0.0
 11
554.356018
 21
293.1
 31
0.0
  0
LINE
  5
77D
100
AcDbEntity
  8
LAY-9
  6
CONTINUOUS
 62
     1
100
AcDbLine
 10
550.912006
 20
293.1
 30
0.0
 11
550.912006
 21
184.298249
 31
0.0
  0
LINE
  5
77E
100
AcDbEntity
  8
LAY-9
  6
CONTINUOUS
 62
     1
100
AcDbLine
 10
501.912006
 20
184.298249
 30
0.0
 11
591.556018
 21
184.298249
 31
0.0
  0
LINE
  5
77F
100
AcDbEntity
  8
LAY-9
  6
CONTINUOUS
 62
     1
100
AcDbLine
 10
465.912067
 20
184.298249
 30
0.0
 11
417.756018
 21
184.298249
 31
0.0
  0
POLYLINE
  5
780
100
AcDbEntity
  8
LAY-9
  6
CONTINUOUS
 62
     1
100
AcDb2dPolyline
 66
     1
 10
0.0
 20
0.0
 30
0.0
 70
   128
  0
VERTEX
  5
781
100
AcDbEntity
  8
LAY-9
  6
CONTINUOUS
 62
     1
100
AcDbVertex
100
AcDb2dVertex
 10
591.556018
 20
184.298249
 30
0.0
  0
VERTEX
  5
782
100
AcDbEntity
  8
LAY-9
  6
CONTINUOUS
 62
     1
100
AcDbVertex
100
AcDb2dVertex
 10
591.472374
 20
184.170585
 30
0.0
  0
VERTEX
  5
783
100
AcDbEntity
  8
LAY-9
  6
CONTINUOUS
 62
     1
100
AcDbVertex
100
AcDb2dVertex
 10
591.244318
 20
183.809902
 30
0.0
  0
VERTEX
  5
784
100
AcDbEntity
  8
LAY-9
  6
CONTINUOUS
 62
     1
100
AcDbVertex
100
AcDb2dVertex
 10
590.906172
 20
183.249669
 30
0.0
  0
VERTEX
  5
785
100
AcDbEntity
  8
LAY-9
  6
CONTINUOUS
 62
     1
100
AcDbVertex
100
AcDb2dVertex
 10
590.492254
 20
182.523352
 30
0.0
  0
VERTEX
  5
786
100
AcDbEntity
  8
LAY-9
  6
CONTINUOUS
 62
     1
100
AcDbVertex
100
AcDb2dVertex
 10
590.036883
 20
181.664418
 30
0.0
  0
VERTEX
  5
787
100
AcDbEntity
  8
LAY-9
  6
CONTINUOUS
 62
     1
100
AcDbVertex
100
AcDb2dVertex
 10
589.574378
 20
180.706334
 30
0.0
  0
VERTEX
  5
788
100
AcDbEntity
  8
LAY-9
  6
CONTINUOUS
 62
     1
100
AcDbVertex
100
AcDb2dVertex
 10
589.139058
 20
179.682566
 30
0.0
  0
VERTEX
  5
789
100
AcDbEntity
  8
LAY-9
  6
CONTINUOUS
 62
     1
100
AcDbVertex
100
AcDb2dVertex
 10
588.765243
 20
178.626582
 30
0.0
  0
VERTEX
  5
78A
100
AcDbEntity
  8
LAY-9
  6
CONTINUOUS
 62
     1
100
AcDbVertex
100
AcDb2dVertex
 10
588.487252
 20
177.571849
 30
0.0
  0
VERTEX
  5
78B
100
AcDbEntity
  8
LAY-9
  6
CONTINUOUS
 62
     1
100
AcDbVertex
100
AcDb2dVertex
 10
588.339404
 20
176.551832
 30
0.0
  0
VERTEX
  5
78C
100
AcDbEntity
  8
LAY-9
  6
CONTINUOUS
 62
     1
100
AcDbVertex
100
AcDb2dVertex
 10
588.356018
 20
175.6
 30
0.0
  0
VERTEX
  5
78D
100
AcDbEntity
  8
LAY-9
  6
CONTINUOUS
 62
     1
100
AcDbVertex
100
AcDb2dVertex
 10
588.45152
 20
175.092701
 30
0.0
  0
VERTEX
  5
78E
100
AcDbEntity
  8
LAY-9
  6
CONTINUOUS
 62
     1
100
AcDbVertex
100
AcDb2dVertex
 10
588.605171
 20
174.615749
 30
0.0
  0
VERTEX
  5
78F
100
AcDbEntity
  8
LAY-9
  6
CONTINUOUS
 62
     1
100
AcDbVertex
100
AcDb2dVertex
 10
588.808796
 20
174.165576
 30
0.0
  0
VERTEX
  5
790
100
AcDbEntity
  8
LAY-9
  6
CONTINUOUS
 62
     1
100
AcDbVertex
100
AcDb2dVertex
 10
589.054221
 20
173.738612
 30
0.0
  0
VERTEX
  5
791
100
AcDbEntity
  8
LAY-9
  6
CONTINUOUS
 62
     1
100
AcDbVertex
100
AcDb2dVertex
 10
589.333274
 20
173.33129
 30
0.0
  0
VERTEX
  5
792
100
AcDbEntity
  8
LAY-9
  6
CONTINUOUS
 62
     1
100
AcDbVertex
100
AcDb2dVertex
 10
589.63778
 20
172.940042
 30
0.0
  0
VERTEX
  5
793
100
AcDbEntity
  8
LAY-9
  6
CONTINUOUS
 62
     1
100
AcDbVertex
100
AcDb2dVertex
 10
589.959565
 20
172.561298
 30
0.0
  0
VERTEX
  5
794
100
AcDbEntity
  8
LAY-9
  6
CONTINUOUS
 62
     1
100
AcDbVertex
100
AcDb2dVertex
 10
590.290455
 20
172.19149
 30
0.0
  0
VERTEX
  5
795
100
AcDbEntity
  8
LAY-9
  6
CONTINUOUS
 62
     1
100
AcDbVertex
100
AcDb2dVertex
 10
590.622277
 20
171.82705
 30
0.0
  0
VERTEX
  5
796
100
AcDbEntity
  8
LAY-9
  6
CONTINUOUS
 62
     1
100
AcDbVertex
100
AcDb2dVertex
 10
590.946856
 20
171.46441
 30
0.0
  0
VERTEX
  5
797
100
AcDbEntity
  8
LAY-9
  6
CONTINUOUS
 62
     1
100
AcDbVertex
100
AcDb2dVertex
 10
591.256018
 20
171.1
 30
0.0
  0
VERTEX
  5
798
100
AcDbEntity
  8
LAY-9
  6
CONTINUOUS
 62
     1
100
AcDbVertex
100
AcDb2dVertex
 10
591.649894
 20
170.582418
 30
0.0
  0
VERTEX
  5
799
100
AcDbEntity
  8
LAY-9
  6
CONTINUOUS
 62
     1
100
AcDbVertex
100
AcDb2dVertex
 10
591.99687
 20
170.049733
 30
0.0
  0
VERTEX
  5
79A
100
AcDbEntity
  8
LAY-9
  6
CONTINUOUS
 62
     1
100
AcDbVertex
100
AcDb2dVertex
 10
592.296019
 20
169.497242
 30
0.0
  0
VERTEX
  5
79B
100
AcDbEntity
  8
LAY-9
  6
CONTINUOUS
 62
     1
100
AcDbVertex
100
AcDb2dVertex
 10
592.546412
 20
168.920242
 30
0.0
  0
VERTEX
  5
79C
100
AcDbEntity
  8
LAY-9
  6
CONTINUOUS
 62
     1
100
AcDbVertex
100
AcDb2dVertex
 10
592.747121
 20
168.314031
 30
0.0
  0
VERTEX
  5
79D
100
AcDbEntity
  8
LAY-9
  6
CONTINUOUS
 62
     1
100
AcDbVertex
100
AcDb2dVertex
 10
592.897217
 20
167.673906
 30
0.0
  0
VERTEX
  5
79E
100
AcDbEntity
  8
LAY-9
  6
CONTINUOUS
 62
     1
100
AcDbVertex
100
AcDb2dVertex
 10
592.995773
 20
166.995166
 30
0.0
  0
VERTEX
  5
79F
100
AcDbEntity
  8
LAY-9
  6
CONTINUOUS
 62
     1
100
AcDbVertex
100
AcDb2dVertex
 10
593.041859
 20
166.273108
 30
0.0
  0
VERTEX
  5
7A0
100
AcDbEntity
  8
LAY-9
  6
CONTINUOUS
 62
     1
100
AcDbVertex
100
AcDb2dVertex
 10
593.034548
 20
165.503029
 30
0.0
  0
VERTEX
  5
7A1
100
AcDbEntity
  8
LAY-9
  6
CONTINUOUS
 62
     1
100
AcDbVertex
100
AcDb2dVertex
 10
592.97291
 20
164.680227
 30
0.0
  0
VERTEX
  5
7A2
100
AcDbEntity
  8
LAY-9
  6
CONTINUOUS
 62
     1
100
AcDbVertex
100
AcDb2dVertex
 10
592.856018
 20
163.8
 30
0.0
  0
VERTEX
  5
7A3
100
AcDbEntity
  8
LAY-9
  6
CONTINUOUS
 62
     1
100
AcDbVertex
100
AcDb2dVertex
 10
592.778321
 20
163.344827
 30
0.0
  0
VERTEX
  5
7A4
100
AcDbEntity
  8
LAY-9
  6
CONTINUOUS
 62
     1
100
AcDbVertex
100
AcDb2dVertex
 10
592.690612
 20
162.884702
 30
0.0
  0
VERTEX
  5
7A5
100
AcDbEntity
  8
LAY-9
  6
CONTINUOUS
 62
     1
100
AcDbVertex
100
AcDb2dVertex
 10
592.596559
 20
162.429803
 30
0.0
  0
VERTEX
  5
7A6
100
AcDbEntity
  8
LAY-9
  6
CONTINUOUS
 62
     1
100
AcDbVertex
100
AcDb2dVertex
 10
592.499831
 20
161.990307
 30
0.0
  0
VERTEX
  5
7A7
100
AcDbEntity
  8
LAY-9
  6
CONTINUOUS
 62
     1
100
AcDbVertex
100
AcDb2dVertex
 10
592.404098
 20
161.576391
 30
0.0
  0
VERTEX
  5
7A8
100
AcDbEntity
  8
LAY-9
  6
CONTINUOUS
 62
     1
100
AcDbVertex
100
AcDb2dVertex
 10
592.313027
 20
161.198232
 30
0.0
  0
VERTEX
  5
7A9
100
AcDbEntity
  8
LAY-9
  6
CONTINUOUS
 62
     1
100
AcDbVertex
100
AcDb2dVertex
 10
592.230287
 20
160.866008
 30
0.0
  0
VERTEX
  5
7AA
100
AcDbEntity
  8
LAY-9
  6
CONTINUOUS
 62
     1
100
AcDbVertex
100
AcDb2dVertex
 10
592.159548
 20
160.589895
 30
0.0
  0
VERTEX
  5
7AB
100
AcDbEntity
  8
LAY-9
  6
CONTINUOUS
 62
     1
100
AcDbVertex
100
AcDb2dVertex
 10
592.104477
 20
160.380071
 30
0.0
  0
VERTEX
  5
7AC
100
AcDbEntity
  8
LAY-9
  6
CONTINUOUS
 62
     1
100
AcDbVertex
100
AcDb2dVertex
 10
592.068745
 20
160.246714
 30
0.0
  0
VERTEX
  5
7AD
100
AcDbEntity
  8
LAY-9
  6
CONTINUOUS
 62
     1
100
AcDbVertex
100
AcDb2dVertex
 10
592.056018
 20
160.2
 30
0.0
  0
SEQEND
  5
7AE
100
AcDbEntity
  8
LAY-9
  6
CONTINUOUS
 62
     1
  0
LINE
  5
7AF
100
AcDbEntity
  8
LAY-9
  6
CONTINUOUS
 62
     1
100
AcDbLine
 10
505.912006
 20
293.1
 30
0.0
 11
505.912006
 21
249.298249
 31
0.0
  0
POLYLINE
  5
7B0
100
AcDbEntity
  8
LAY-9
  6
CONTINUOUS
 62
     1
100
AcDb2dPolyline
 66
     1
 10
0.0
 20
0.0
 30
0.0
 70
   128
  0
VERTEX
  5
7B1
100
AcDbEntity
  8
LAY-9
  6
CONTINUOUS
 62
     1
100
AcDbVertex
100
AcDb2dVertex
 10
417.756018
 20
184.298249
 30
0.0
  0
VERTEX
  5
7B2
100
AcDbEntity
  8
LAY-9
  6
CONTINUOUS
 62
     1
100
AcDbVertex
100
AcDb2dVertex
 10
417.672374
 20
184.170585
 30
0.0
  0
VERTEX
  5
7B3
100
AcDbEntity
  8
LAY-9
  6
CONTINUOUS
 62
     1
100
AcDbVertex
100
AcDb2dVertex
 10
417.444318
 20
183.809902
 30
0.0
  0
VERTEX
  5
7B4
100
AcDbEntity
  8
LAY-9
  6
CONTINUOUS
 62
     1
100
AcDbVertex
100
AcDb2dVertex
 10
417.106172
 20
183.249669
 30
0.0
  0
VERTEX
  5
7B5
100
AcDbEntity
  8
LAY-9
  6
CONTINUOUS
 62
     1
100
AcDbVertex
100
AcDb2dVertex
 10
416.692254
 20
182.523352
 30
0.0
  0
VERTEX
  5
7B6
100
AcDbEntity
  8
LAY-9
  6
CONTINUOUS
 62
     1
100
AcDbVertex
100
AcDb2dVertex
 10
416.236883
 20
181.664418
 30
0.0
  0
VERTEX
  5
7B7
100
AcDbEntity
  8
LAY-9
  6
CONTINUOUS
 62
     1
100
AcDbVertex
100
AcDb2dVertex
 10
415.774378
 20
180.706334
 30
0.0
  0
VERTEX
  5
7B8
100
AcDbEntity
  8
LAY-9
  6
CONTINUOUS
 62
     1
100
AcDbVertex
100
AcDb2dVertex
 10
415.339058
 20
179.682566
 30
0.0
  0
VERTEX
  5
7B9
100
AcDbEntity
  8
LAY-9
  6
CONTINUOUS
 62
     1
100
AcDbVertex
100
AcDb2dVertex
 10
414.965243
 20
178.626582
 30
0.0
  0
VERTEX
  5
7BA
100
AcDbEntity
  8
LAY-9
  6
CONTINUOUS
 62
     1
100
AcDbVertex
100
AcDb2dVertex
 10
414.687252
 20
177.571849
 30
0.0
  0
VERTEX
  5
7BB
100
AcDbEntity
  8
LAY-9
  6
CONTINUOUS
 62
     1
100
AcDbVertex
100
AcDb2dVertex
 10
414.539404
 20
176.551832
 30
0.0
  0
VERTEX
  5
7BC
100
AcDbEntity
  8
LAY-9
  6
CONTINUOUS
 62
     1
100
AcDbVertex
100
AcDb2dVertex
 10
414.556018
 20
175.6
 30
0.0
  0
VERTEX
  5
7BD
100
AcDbEntity
  8
LAY-9
  6
CONTINUOUS
 62
     1
100
AcDbVertex
100
AcDb2dVertex
 10
414.65152
 20
175.092701
 30
0.0
  0
VERTEX
  5
7BE
100
AcDbEntity
  8
LAY-9
  6
CONTINUOUS
 62
     1
100
AcDbVertex
100
AcDb2dVertex
 10
414.805171
 20
174.615749
 30
0.0
  0
VERTEX
  5
7BF
100
AcDbEntity
  8
LAY-9
  6
CONTINUOUS
 62
     1
100
AcDbVertex
100
AcDb2dVertex
 10
415.008796
 20
174.165576
 30
0.0
  0
VERTEX
  5
7C0
100
AcDbEntity
  8
LAY-9
  6
CONTINUOUS
 62
     1
100
AcDbVertex
100
AcDb2dVertex
 10
415.254221
 20
173.738612
 30
0.0
  0
VERTEX
  5
7C1
100
AcDbEntity
  8
LAY-9
  6
CONTINUOUS
 62
     1
100
AcDbVertex
100
AcDb2dVertex
 10
415.533274
 20
173.33129
 30
0.0
  0
VERTEX
  5
7C2
100
AcDbEntity
  8
LAY-9
  6
CONTINUOUS
 62
     1
100
AcDbVertex
100
AcDb2dVertex
 10
415.83778
 20
172.940042
 30
0.0
  0
VERTEX
  5
7C3
100
AcDbEntity
  8
LAY-9
  6
CONTINUOUS
 62
     1
100
AcDbVertex
100
AcDb2dVertex
 10
416.159565
 20
172.561298
 30
0.0
  0
VERTEX
  5
7C4
100
AcDbEntity
  8
LAY-9
  6
CONTINUOUS
 62
     1
100
AcDbVertex
100
AcDb2dVertex
 10
416.490455
 20
172.19149
 30
0.0
  0
VERTEX
  5
7C5
100
AcDbEntity
  8
LAY-9
  6
CONTINUOUS
 62
     1
100
AcDbVertex
100
AcDb2dVertex
 10
416.822277
 20
171.82705
 30
0.0
  0
VERTEX
  5
7C6
100
AcDbEntity
  8
LAY-9
  6
CONTINUOUS
 62
     1
100
AcDbVertex
100
AcDb2dVertex
 10
417.146856
 20
171.46441
 30
0.0
  0
VERTEX
  5
7C7
100
AcDbEntity
  8
LAY-9
  6
CONTINUOUS
 62
     1
100
AcDbVertex
100
AcDb2dVertex
 10
417.456018
 20
171.1
 30
0.0
  0
VERTEX
  5
7C8
100
AcDbEntity
  8
LAY-9
  6
CONTINUOUS
 62
     1
100
AcDbVertex
100
AcDb2dVertex
 10
417.849894
 20
170.582418
 30
0.0
  0
VERTEX
  5
7C9
100
AcDbEntity
  8
LAY-9
  6
CONTINUOUS
 62
     1
100
AcDbVertex
100
AcDb2dVertex
 10
418.19687
 20
170.049733
 30
0.0
  0
VERTEX
  5
7CA
100
AcDbEntity
  8
LAY-9
  6
CONTINUOUS
 62
     1
100
AcDbVertex
100
AcDb2dVertex
 10
418.496019
 20
169.497242
 30
0.0
  0
VERTEX
  5
7CB
100
AcDbEntity
  8
LAY-9
  6
CONTINUOUS
 62
     1
100
AcDbVertex
100
AcDb2dVertex
 10
418.746412
 20
168.920242
 30
0.0
  0
VERTEX
  5
7CC
100
AcDbEntity
  8
LAY-9
  6
CONTINUOUS
 62
     1
100
AcDbVertex
100
AcDb2dVertex
 10
418.947121
 20
168.314031
 30
0.0
  0
VERTEX
  5
7CD
100
AcDbEntity
  8
LAY-9
  6
CONTINUOUS
 62
     1
100
AcDbVertex
100
AcDb2dVertex
 10
419.097217
 20
167.673906
 30
0.0
  0
VERTEX
  5
7CE
100
AcDbEntity
  8
LAY-9
  6
CONTINUOUS
 62
     1
100
AcDbVertex
100
AcDb2dVertex
 10
419.195773
 20
166.995166
 30
0.0
  0
VERTEX
  5
7CF
100
AcDbEntity
  8
LAY-9
  6
CONTINUOUS
 62
     1
100
AcDbVertex
100
AcDb2dVertex
 10
419.241859
 20
166.273108
 30
0.0
  0
VERTEX
  5
7D0
100
AcDbEntity
  8
LAY-9
  6
CONTINUOUS
 62
     1
100
AcDbVertex
100
AcDb2dVertex
 10
419.234548
 20
165.503029
 30
0.0
  0
VERTEX
  5
7D1
100
AcDbEntity
  8
LAY-9
  6
CONTINUOUS
 62
     1
100
AcDbVertex
100
AcDb2dVertex
 10
419.17291
 20
164.680227
 30
0.0
  0
VERTEX
  5
7D2
100
AcDbEntity
  8
LAY-9
  6
CONTINUOUS
 62
     1
100
AcDbVertex
100
AcDb2dVertex
 10
419.056018
 20
163.8
 30
0.0
  0
VERTEX
  5
7D3
100
AcDbEntity
  8
LAY-9
  6
CONTINUOUS
 62
     1
100
AcDbVertex
100
AcDb2dVertex
 10
418.978321
 20
163.344827
 30
0.0
  0
VERTEX
  5
7D4
100
AcDbEntity
  8
LAY-9
  6
CONTINUOUS
 62
     1
100
AcDbVertex
100
AcDb2dVertex
 10
418.890612
 20
162.884702
 30
0.0
  0
VERTEX
  5
7D5
100
AcDbEntity
  8
LAY-9
  6
CONTINUOUS
 62
     1
100
AcDbVertex
100
AcDb2dVertex
 10
418.796559
 20
162.429803
 30
0.0
  0
VERTEX
  5
7D6
100
AcDbEntity
  8
LAY-9
  6
CONTINUOUS
 62
     1
100
AcDbVertex
100
AcDb2dVertex
 10
418.699831
 20
161.990307
 30
0.0
  0
VERTEX
  5
7D7
100
AcDbEntity
  8
LAY-9
  6
CONTINUOUS
 62
     1
100
AcDbVertex
100
AcDb2dVertex
 10
418.604098
 20
161.576391
 30
0.0
  0
VERTEX
  5
7D8
100
AcDbEntity
  8
LAY-9
  6
CONTINUOUS
 62
     1
100
AcDbVertex
100
AcDb2dVertex
 10
418.513027
 20
161.198232
 30
0.0
  0
VERTEX
  5
7D9
100
AcDbEntity
  8
LAY-9
  6
CONTINUOUS
 62
     1
100
AcDbVertex
100
AcDb2dVertex
 10
418.430287
 20
160.866008
 30
0.0
  0
VERTEX
  5
7DA
100
AcDbEntity
  8
LAY-9
  6
CONTINUOUS
 62
     1
100
AcDbVertex
100
AcDb2dVertex
 10
418.359548
 20
160.589895
 30
0.0
  0
VERTEX
  5
7DB
100
AcDbEntity
  8
LAY-9
  6
CONTINUOUS
 62
     1
100
AcDbVertex
100
AcDb2dVertex
 10
418.304477
 20
160.380071
 30
0.0
  0
VERTEX
  5
7DC
100
AcDbEntity
  8
LAY-9
  6
CONTINUOUS
 62
     1
100
AcDbVertex
100
AcDb2dVertex
 10
418.268745
 20
160.246714
 30
0.0
  0
VERTEX
  5
7DD
100
AcDbEntity
  8
LAY-9
  6
CONTINUOUS
 62
     1
100
AcDbVertex
100
AcDb2dVertex
 10
418.256018
 20
160.2
 30
0.0
  0
SEQEND
  5
7DE
100
AcDbEntity
  8
LAY-9
  6
CONTINUOUS
 62
     1
  0
LINE
  5
7DF
100
AcDbEntity
  8
LAY-9
  6
CONTINUOUS
 62
     1
100
AcDbLine
 10
505.912006
 20
194.298249
 30
0.0
 11
505.912006
 21
184.298249
 31
0.0
  0
LINE
  5
7E0
100
AcDbEntity
  8
LAY-9
  6
CONTINUOUS
 62
     1
100
AcDbLine
 10
698.712036
 20
293.1
 30
0.0
 11
698.712036
 21
209.298218
 31
0.0
  0
LINE
  5
7E1
100
AcDbEntity
  8
LAY-9
  6
CONTINUOUS
 62
     1
100
AcDbLine
 10
698.712036
 20
190.298157
 30
0.0
 11
698.712036
 21
194.298218
 31
0.0
  0
LINE
  5
7E2
100
AcDbEntity
  8
LAY-10
  6
CONTINUOUS
 62
     5
100
AcDbLine
 10
15.0
 20
15.0
 30
0.0
 11
826.0
 21
15.0
 31
0.0
  0
LINE
  5
7E3
100
AcDbEntity
  8
LAY-10
  6
CONTINUOUS
 62
     5
100
AcDbLine
 10
826.0
 20
15.0
 30
0.0
 11
826.0
 21
579.0
 31
0.0
  0
LINE
  5
7E4
100
AcDbEntity
  8
LAY-10
  6
CONTINUOUS
 62
     5
100
AcDbLine
 10
15.0
 20
15.0
 30
0.0
 11
15.0
 21
579.0
 31
0.0
  0
LINE
  5
7E5
100
AcDbEntity
  8
LAY-10
  6
CONTINUOUS
 62
     5
100
AcDbLine
 10
15.0
 20
579.0
 30
0.0
 11
826.0
 21
579.0
 31
0.0
  0
LINE
  5
7E6
100
AcDbEntity
  8
LAY-10
  6
CONTINUOUS
 62
     5
100
AcDbLine
 10
15.0
 20
40.0
 30
0.0
 11
826.0
 21
40.0
 31
0.0
  0
LINE
  5
7E7
100
AcDbEntity
  8
LAY-10
  6
CONTINUOUS
 62
     1
100
AcDbLine
 10
224.0
 20
40.0
 30
0.0
 11
224.0
 21
15.0
 31
0.0
  0
LINE
  5
7E8
100
AcDbEntity
  8
LAY-10
  6
CONTINUOUS
 62
     1
100
AcDbLine
 10
249.5
 20
40.0
 30
0.0
 11
249.5
 21
15.0
 31
0.0
  0
LINE
  5
7E9
100
AcDbEntity
  8
LAY-10
  6
CONTINUOUS
 62
     1
100
AcDbLine
 10
275.0
 20
40.0
 30
0.0
 11
275.0
 21
15.0
 31
0.0
  0
LINE
  5
7EA
100
AcDbEntity
  8
LAY-10
  6
CONTINUOUS
 62
     1
100
AcDbLine
 10
300.5
 20
40.0
 30
0.0
 11
300.5
 21
15.0
 31
0.0
  0
LINE
  5
7EB
100
AcDbEntity
  8
LAY-10
  6
CONTINUOUS
 62
     1
100
AcDbLine
 10
326.0
 20
40.0
 30
0.0
 11
326.0
 21
15.0
 31
0.0
  0
LINE
  5
7EC
100
AcDbEntity
  8
LAY-10
  6
CONTINUOUS
 62
     1
100
AcDbLine
 10
377.0
 20
40.0
 30
0.0
 11
377.0
 21
15.0
 31
0.0
  0
LINE
  5
7ED
100
AcDbEntity
  8
LAY-10
  6
CONTINUOUS
 62
     1
100
AcDbLine
 10
738.0
 20
40.0
 30
0.0
 11
738.0
 21
15.0
 31
0.0
  0
LINE
  5
7EE
100
AcDbEntity
  8
LAY-10
  6
CONTINUOUS
 62
     1
100
AcDbLine
 10
224.0
 20
32.0
 30
0.0
 11
377.0
 21
32.0
 31
0.0
  0
TEXT
  5
7EF
100
AcDbEntity
  8
LAY-10
  6
CONTINUOUS
 62
     4
100
AcDbText
 10
227.5
 20
33.0
 30
0.0
 40
6.0
  1
検　  図
 41
0.57856
  7
EXCADSTD
 72
     5
 11
246.700001
 21
33.0
 31
0.0
100
AcDbText
  0
TEXT
  5
7F0
100
AcDbEntity
  8
LAY-10
  6
CONTINUOUS
 62
     4
100
AcDbText
 10
253.2
 20
33.0
 30
0.0
 40
6.0
  1
担　　当
 41
0.672
  7
EXCADSTD
 72
     5
 11
272.400001
 21
33.0
 31
0.0
100
AcDbText
  0
TEXT
  5
7F1
100
AcDbEntity
  8
LAY-10
  6
CONTINUOUS
 62
     4
100
AcDbText
 10
278.4
 20
33.0
 30
0.0
 40
6.0
  1
製　　図
 41
0.672
  7
EXCADSTD
 72
     5
 11
297.600001
 21
33.0
 31
0.0
100
AcDbText
  0
TEXT
  5
7F2
100
AcDbEntity
  8
LAY-10
  6
CONTINUOUS
 62
     4
100
AcDbText
 10
303.9
 20
33.0
 30
0.0
 40
6.0
  1
尺　　度
 41
0.672
  7
EXCADSTD
 72
     5
 11
323.100001
 21
33.0
 31
0.0
100
AcDbText
  0
TEXT
  5
7F3
100
AcDbEntity
  8
LAY-10
  6
CONTINUOUS
 62
     4
100
AcDbText
 10
339.5
 20
33.0
 30
0.0
 40
6.0
  1
作成年月日
 41
0.672
  7
EXCADSTD
 72
     5
 11
363.500001
 21
33.0
 31
0.0
100
AcDbText
  0
TEXT
  5
7F4
100
AcDbEntity
  8
LAY-10
  6
CONTINUOUS
 62
   134
100
AcDbText
 10
42.98
 20
20.91
 30
0.0
 40
13.0
  1
日本ドアーチエック製造株式会社
 41
0.653908
  7
EXCADSTD
 72
     5
 11
194.779994
 21
20.91
 31
0.0
100
AcDbText
  0
LINE
  5
7F5
100
AcDbEntity
  8
LAY-10
  6
CONTINUOUS
 62
     1
100
AcDbLine
 10
841.0
 20
0.0
 30
0.0
 11
841.0
 21
2.0
 31
0.0
  0
LINE
  5
7F6
100
AcDbEntity
  8
LAY-10
  6
CONTINUOUS
 62
     1
100
AcDbLine
 10
841.0
 20
592.0
 30
0.0
 11
841.0
 21
594.0
 31
0.0
  0
LINE
  5
7F7
100
AcDbEntity
  8
LAY-10
  6
CONTINUOUS
 62
     1
100
AcDbLine
 10
841.0
 20
594.0
 30
0.0
 11
839.0
 21
594.0
 31
0.0
  0
LINE
  5
7F8
100
AcDbEntity
  8
LAY-10
  6
CONTINUOUS
 62
     1
100
AcDbLine
 10
2.0
 20
594.0
 30
0.0
 11
0.0
 21
594.0
 31
0.0
  0
LINE
  5
7F9
100
AcDbEntity
  8
LAY-10
  6
CONTINUOUS
 62
     1
100
AcDbLine
 10
0.0
 20
594.0
 30
0.0
 11
0.0
 21
592.0
 31
0.0
  0
LINE
  5
7FA
100
AcDbEntity
  8
LAY-10
  6
CONTINUOUS
 62
     1
100
AcDbLine
 10
0.0
 20
2.0
 30
0.0
 11
0.0
 21
0.0
 31
0.0
  0
LINE
  5
7FB
100
AcDbEntity
  8
LAY-10
  6
CONTINUOUS
 62
     1
100
AcDbLine
 10
0.0
 20
0.0
 30
0.0
 11
2.0
 21
0.0
 31
0.0
  0
LINE
  5
7FC
100
AcDbEntity
  8
LAY-10
  6
CONTINUOUS
 62
     1
100
AcDbLine
 10
839.0
 20
0.0
 30
0.0
 11
841.0
 21
0.0
 31
0.0
  0
TEXT
  5
7FD
100
AcDbEntity
  8
LAY-10
  6
CONTINUOUS
 62
     4
100
AcDbText
 10
383.0
 20
33.0
 30
0.0
 40
6.0
  1
図 面 名
 41
0.57856
  7
EXCADSTD
 72
     5
 11
402.200001
 21
33.0
 31
0.0
100
AcDbText
  0
TEXT
  5
7FE
100
AcDbEntity
  8
LAY-10
  6
CONTINUOUS
 62
     4
100
AcDbText
 10
744.0
 20
33.0
 30
0.0
 40
6.0
  1
図面番号
 41
0.672
  7
EXCADSTD
 72
     5
 11
763.200001
 21
33.0
 31
0.0
100
AcDbText
  0
TEXT
  5
7FF
100
AcDbEntity
  8
LAY-10
  6
CONTINUOUS
 62
     2
100
AcDbText
 10
306.5
 20
20.2
 30
0.0
 40
6.0
  1
１／１
 41
0.672
  7
EXCADSTD
 72
     5
 11
320.900001
 21
20.2
 31
0.0
100
AcDbText
  0
TEXT
  5
800
100
AcDbEntity
  8
LAY-10
  6
CONTINUOUS
 62
     2
100
AcDbText
 10
332.6
 20
20.2
 30
0.0
 40
6.0
  1
Ｈ１３.　７.　２
 41
0.622617
  7
EXCADSTD
 72
     5
 11
371.000002
 21
20.2
 31
0.0
100
AcDbText
  0
TEXT
  5
801
100
AcDbEntity
  8
LAY-10
  6
CONTINUOUS
 62
     2
100
AcDbText
 10
406.828367
 20
19.274519
 30
0.0
 40
10.0
  1
ピボットヒンジ　８Ｃ－５(竪枠取付型 )　納まり図
 41
0.654222
  7
EXCADSTD
 72
     5
 11
590.828367
 21
19.274519
 31
0.0
100
AcDbText
  0
ENDSEC
  0
SECTION
  2
OBJECTS
  0
DICTIONARY
  5
19
100
AcDbDictionary
  3
ACAD_GROUP
350
1A
  3
ACAD_MLINESTYLE
350
1B
  0
DICTIONARY
  5
1A
102
{ACAD_REACTORS
330
19
102
}
100
AcDbDictionary
  0
DICTIONARY
  5
1B
102
{ACAD_REACTORS
330
19
102
}
100
AcDbDictionary
  3
STANDARD
350
1C
  0
MLINESTYLE
  5
1C
102
{ACAD_REACTORS
330
1B
102
}
100
AcDbMlineStyle
  2
Standard
 70
     0
  3

 62
     0
 51
90.0
 52
90.0
 71
     2
 49
0.5
 62
   256
  6
ByLayer
 49
-0.5
 62
   256
  6
ByLayer
  0
ENDSEC
  0
EOF
