  0
SECTION
  2
HEADER
  9
$ACADVER
  1
AC1014
  9
$ACADMAINTVER
 70
     0
  9
$DWGCODEPAGE
  3
ANSI_932
  9
$INSBASE
 10
0.0
 20
0.0
 30
0.0
  9
$EXTMIN
 10
0.0
 20
0.0
 30
0.0
  9
$EXTMAX
 10
841.0
 20
594.0
 30
0.0
  9
$LIMMIN
 10
0.0
 20
0.0
  9
$LIMMAX
 10
841.0
 20
594.0
  9
$ORTHOMODE
 70
     0
  9
$REGENMODE
 70
     1
  9
$FILLMODE
 70
     1
  9
$QTEXTMODE
 70
     0
  9
$MIRRTEXT
 70
     1
  9
$DRAGMODE
 70
     2
  9
$LTSCALE
 40
1.0
  9
$OSMODE
 70
     0
  9
$ATTMODE
 70
     1
  9
$TEXTSIZE
 40
0.2
  9
$TRACEWID
 40
0.05
  9
$TEXTSTYLE
  7
STANDARD
  9
$CLAYER
  8
LAY-1
  9
$CELTYPE
  6
CONTINUOUS
  9
$CECOLOR
 62
   256
  9
$CELTSCALE
 40
1.0
  9
$DELOBJ
 70
     1
  9
$DISPSILH
 70
     0
  9
$DIMSCALE
 40
1.0
  9
$DIMASZ
 40
0.18
  9
$DIMEXO
 40
0.0625
  9
$DIMDLI
 40
0.38
  9
$DIMRND
 40
0.0
  9
$DIMDLE
 40
0.0
  9
$DIMEXE
 40
0.18
  9
$DIMTP
 40
0.0
  9
$DIMTM
 40
0.0
  9
$DIMTXT
 40
0.18
  9
$DIMCEN
 40
0.09
  9
$DIMTSZ
 40
0.0
  9
$DIMTOL
 70
     0
  9
$DIMLIM
 70
     0
  9
$DIMTIH
 70
     1
  9
$DIMTOH
 70
     1
  9
$DIMSE1
 70
     0
  9
$DIMSE2
 70
     0
  9
$DIMTAD
 70
     0
  9
$DIMZIN
 70
     0
  9
$DIMBLK
  1

  9
$DIMASO
 70
     1
  9
$DIMSHO
 70
     1
  9
$DIMPOST
  1

  9
$DIMAPOST
  1

  9
$DIMALT
 70
     0
  9
$DIMALTD
 70
     2
  9
$DIMALTF
 40
25.4
  9
$DIMLFAC
 40
1.0
  9
$DIMTOFL
 70
     0
  9
$DIMTVP
 40
0.0
  9
$DIMTIX
 70
     0
  9
$DIMSOXD
 70
     0
  9
$DIMSAH
 70
     0
  9
$DIMBLK1
  1

  9
$DIMBLK2
  1

  9
$DIMSTYLE
  2
STANDARD
  9
$DIMCLRD
 70
     0
  9
$DIMCLRE
 70
     0
  9
$DIMCLRT
 70
     0
  9
$DIMTFAC
 40
1.0
  9
$DIMGAP
 40
0.09
  9
$DIMJUST
 70
     0
  9
$DIMSD1
 70
     0
  9
$DIMSD2
 70
     0
  9
$DIMTOLJ
 70
     1
  9
$DIMTZIN
 70
     0
  9
$DIMALTZ
 70
     0
  9
$DIMALTTZ
 70
     0
  9
$DIMFIT
 70
     3
  9
$DIMUPT
 70
     0
  9
$DIMUNIT
 70
     2
  9
$DIMDEC
 70
     4
  9
$DIMTDEC
 70
     4
  9
$DIMALTU
 70
     2
  9
$DIMALTTD
 70
     2
  9
$DIMTXSTY
  7
STANDARD
  9
$DIMAUNIT
 70
     0
  9
$LUNITS
 70
     2
  9
$LUPREC
 70
     4
  9
$SKETCHINC
 40
0.1
  9
$FILLETRAD
 40
0.0
  9
$AUNITS
 70
     0
  9
$AUPREC
 70
     0
  9
$MENU
  1
acad
  9
$ELEVATION
 40
0.0
  9
$PELEVATION
 40
0.0
  9
$THICKNESS
 40
0.0
  9
$LIMCHECK
 70
     0
  9
$BLIPMODE
 70
     1
  9
$CHAMFERA
 40
0.0
  9
$CHAMFERB
 40
0.0
  9
$CHAMFERC
 40
0.0
  9
$CHAMFERD
 40
0.0
  9
$SKPOLY
 70
     0
  9
$TDCREATE
 40
2455606.827969653
  9
$TDUPDATE
 40
2455606.827969653
  9
$TDINDWG
 40
0.0000000000
  9
$TDUSRTIMER
 40
0.0000000000
  9
$USRTIMER
 70
     1
  9
$ANGBASE
 50
0.0
  9
$ANGDIR
 70
     0
  9
$PDMODE
 70
     0
  9
$PDSIZE
 40
0.0
  9
$PLINEWID
 40
0.0
  9
$COORDS
 70
     1
  9
$SPLFRAME
 70
     0
  9
$SPLINETYPE
 70
     6
  9
$SPLINESEGS
 70
     8
  9
$ATTDIA
 70
     0
  9
$ATTREQ
 70
     1
  9
$HANDLING
 70
     1
  9
$HANDSEED
  5
6DE
  9
$SURFTAB1
 70
     6
  9
$SURFTAB2
 70
     6
  9
$SURFTYPE
 70
     6
  9
$SURFU
 70
     6
  9
$SURFV
 70
     6
  9
$UCSNAME
  2

  9
$UCSORG
 10
0.0
 20
0.0
 30
0.0
  9
$UCSXDIR
 10
1.0
 20
0.0
 30
0.0
  9
$UCSYDIR
 10
0.0
 20
1.0
 30
0.0
  9
$PUCSNAME
  2

  9
$PUCSORG
 10
0.0
 20
0.0
 30
0.0
  9
$PUCSXDIR
 10
1.0
 20
0.0
 30
0.0
  9
$PUCSYDIR
 10
0.0
 20
1.0
 30
0.0
  9
$USERI1
 70
     0
  9
$USERI2
 70
     0
  9
$USERI3
 70
     0
  9
$USERI4
 70
     0
  9
$USERI5
 70
     0
  9
$USERR1
 40
0.0
  9
$USERR2
 40
0.0
  9
$USERR3
 40
0.0
  9
$USERR4
 40
0.0
  9
$USERR5
 40
0.0
  9
$WORLDVIEW
 70
     1
  9
$SHADEDGE
 70
     3
  9
$SHADEDIF
 70
    70
  9
$TILEMODE
 70
     1
  9
$MAXACTVP
 70
    16
  9
$PINSBASE
 10
0.0
 20
0.0
 30
0.0
  9
$PLIMCHECK
 70
     0
  9
$PEXTMIN
 10
1.000000E+20
 20
1.000000E+20
 30
1.000000E+20
  9
$PEXTMAX
 10
-1.000000E+20
 20
-1.000000E+20
 30
-1.000000E+20
  9
$PLIMMIN
 10
0.0
 20
0.0
  9
$PLIMMAX
 10
12.0
 20
9.0
  9
$UNITMODE
 70
     0
  9
$VISRETAIN
 70
     0
  9
$PLINEGEN
 70
     1
  9
$PSLTSCALE
 70
     0
  9
$TREEDEPTH
 70
  3020
  9
$PICKSTYLE
 70
     1
  9
$CMLSTYLE
  2
Standard
  9
$CMLJUST
 70
     0
  9
$CMLSCALE
 40
1.0
  9
$PROXYGRAPHICS
 70
     0
  9
$MEASUREMENT
 70
     0
  0
ENDSEC
  0
SECTION
  2
CLASSES
  0
CLASS
  1
LWPOLYLINE
  2
AcDbPolyline
  3
"AutoCAD"
 90
        0
280
     0
281
     1
  0
CLASS
  1
IMAGE
  2
AcDbRasterImage
  3
ISM
 90
      127
280
     0
281
     1
  0
CLASS
  1
OLE2FRAME
  2
AcDbOle2Frame
  3
""
 90
        0
280
     0
281
     1
  0
CLASS
  1
HATCH
  2
AcDbHatch
  3
"ACAD_SEDONA"
 90
        0
280
     0
281
     1
  0
CLASS
  1
DICTIONARYVAR
  2
AcDbDictionaryVar
  3
"AutoCAD"
 90
        0
280
     0
281
     0
  0
CLASS
  1
RASTERVARIABLES
  2
AcDbRasterVariables
  3
ISM
 90
        0
280
     0
281
     0
  0
CLASS
  1
IMAGEDEF
  2
AcDbRasterImageDef
  3
ISM
 90
        0
280
     0
281
     0
  0
CLASS
  1
IMAGEDEF_REACTOR
  2
AcDbRasterImageDefReactor
  3
ISM
 90
        1
280
     0
281
     0
  0
CLASS
  1
IDBUFFER
  2
AcDbIdBuffer
  3
"Acad"
 90
        0
280
     0
281
     0
  0
CLASS
  1
SPATIAL_FILTER
  2
AcDbSpatialFilter
  3
"Acad"
 90
        0
280
     0
281
     0
  0
CLASS
  1
XRECORD
  2
AcDbXrecord
  3
"<Built In>"
 90
        0
280
     0
281
     0
  0
CLASS
  1
SORTENTSTABLE
  2
AcDbSortentsTable
  3
"AutoCAD"
 90
        0
280
     0
281
     0
  0
CLASS
  1
LAYER_INDEX
  2
AcDbLayerIndex
  3
"Acad"
 90
        0
280
     0
281
     0
  0
CLASS
  1
SPATIAL_INDEX
  2
AcDbSpatialIndex
  3
"Acad"
 90
        0
280
     0
281
     0
  0
CLASS
  1
OBJECT_PTR
  2
CAseDLPNTableRecord
  3
"ASE-LPNTableRecord"
 90
        1
280
     0
281
     0
  0
CLASS
  1
LAYOUT
  2
AcDbLayout
  3
"AutoCAD 2000"
 90
        0
280
     0
281
     0
  0
CLASS
  1
PLOTSETTINGS
  2
AcDbPlotSettings
  3
"AutoCAD 2000"
 90
        0
280
     0
281
     0
  0
CLASS
  1
ACDBDICTIONARYWDFLT
  2
AcDbDictionaryWithDefault
  3
"AutoCAD 2000"
 90
        0
280
     0
281
     0
  0
CLASS
  1
ACDBPLACEHOLDER
  2
AcDbPlaceHolder
  3
"AutoCAD 2000"
 90
        0
280
     0
281
     0
  0
CLASS
  1
VBA_PROJECT
  2
AcDbVbaProject
  3
"acadvba"
 90
        0
280
     0
281
     0
  0
CLASS
  1
WIPEOUT
  2
AcDbWipeout
  3
WipeOut|AutoCAD Express Tool|expresstools@autodesk.com
 90
      127
280
     0
281
     1
  0
CLASS
  1
WIPEOUTVARIABLES
  2
AcDbWipeoutVariables
  3
WipeOut|AutoCAD Express Tool|expresstools@autodesk.com
 90
        0
280
     0
281
     0
  0
CLASS
  1
RTEXT
  2
RText
  3
RText|AutoCAD Express Tool|expresstools@autodesk.com
 90
        0
280
     0
281
     1
  0
CLASS
  1
ARCALIGNEDTEXT
  2
AcDbArcAlignedText
  3
ATEXT|AutoCAD Express Tool|expresstools@autodesk.com
 90
        0
280
     0
281
     1
  0
ENDSEC
  0
SECTION
  2
TABLES
  0
TABLE
  2
VPORT
  5
7
100
AcDbSymbolTable
 70
     1
  0
VPORT
  5
15
100
AcDbSymbolTableRecord
100
AcDbViewportTableRecord
  2
*ACTIVE
 70
     0
 10
0.0
 20
0.0
 11
1.0
 21
1.0
 12
420.5
 22
297.0
 13
0.0
 23
0.0
 14
1.0
 24
1.0
 15
0.0
 25
0.0
 16
0.0
 26
0.0
 36
1.0
 17
0.0
 27
0.0
 37
0.0
 40
594.0
 41
1.722533
 42
50.0
 43
0.0
 44
0.0
 50
0.0
 51
0.0
 71
     0
 72
   100
 73
     1
 74
     1
 75
     0
 76
     0
 77
     0
 78
     0
  0
ENDTAB
  0
TABLE
  2
LTYPE
  5
4
100
AcDbSymbolTable
 70
     9
  0
LTYPE
  5
11
100
AcDbSymbolTableRecord
100
AcDbLinetypeTableRecord
  2
BYBLOCK
 70
    64
  3

 72
    65
 73
     0
 40
0.0
  0
LTYPE
  5
12
100
AcDbSymbolTableRecord
100
AcDbLinetypeTableRecord
  2
BYLAYER
 70
    64
  3

 72
    65
 73
     0
 40
0.0
  0
LTYPE
  5
13
100
AcDbSymbolTableRecord
100
AcDbLinetypeTableRecord
  2
CONTINUOUS
 70
    64
  3
実線
 72
    65
 73
     0
 40
0.0
  0
LTYPE
  5
1D
100
AcDbSymbolTableRecord
100
AcDbLinetypeTableRecord
  2
DASHED
 70
    64
  3
Dashed __ __ __ __ __ __ __ __ __ __ __ __ __ _
 72
    65
 73
     2
 40
19.05
 49
12.7
 74
     0
 49
-6.35
 74
     0
  0
LTYPE
  5
1E
100
AcDbSymbolTableRecord
100
AcDbLinetypeTableRecord
  2
DASHED2
 70
    64
  3
Dashed (.5x) _ _ _ _ _ _ _ _ _ _ _ _ _ _ _ _ _ 
 72
    65
 73
     2
 40
9.525
 49
6.35
 74
     0
 49
-3.175
 74
     0
  0
LTYPE
  5
1F
100
AcDbSymbolTableRecord
100
AcDbLinetypeTableRecord
  2
DASHDOT
 70
    64
  3
Dash dot __ . __ . __ . __ . __ . __ . __ . __
 72
    65
 73
     4
 40
25.4
 49
12.7
 74
     0
 49
-6.35
 74
     0
 49
0.0
 74
     0
 49
-6.35
 74
     0
  0
LTYPE
  5
20
100
AcDbSymbolTableRecord
100
AcDbLinetypeTableRecord
  2
DIVIDE
 70
    64
  3
Divide ____ . . ____ . . ____ . . ____ . . ____
 72
    65
 73
     6
 40
31.75
 49
12.7
 74
     0
 49
-6.35
 74
     0
 49
0.0
 74
     0
 49
-6.35
 74
     0
 49
0.0
 74
     0
 49
-6.35
 74
     0
  0
LTYPE
  5
21
100
AcDbSymbolTableRecord
100
AcDbLinetypeTableRecord
  2
ACAD_ISO06W100
 70
    64
  3
ISO long-dash triple-dot ____ ... ____ ... ____
 72
    65
 73
     8
 40
36.0
 49
24.0
 74
     0
 49
-3.0
 74
     0
 49
0.0
 74
     0
 49
-3.0
 74
     0
 49
0.0
 74
     0
 49
-3.0
 74
     0
 49
0.0
 74
     0
 49
-3.0
 74
     0
  0
LTYPE
  5
22
100
AcDbSymbolTableRecord
100
AcDbLinetypeTableRecord
  2
ACAD_ISO15W100
 70
    64
  3
ISO double-dash triple-dot __ __ . . . __ __ . .
 72
    65
 73
    10
 40
39.0
 49
12.0
 74
     0
 49
-3.0
 74
     0
 49
12.0
 74
     0
 49
-3.0
 74
     0
 49
0.0
 74
     0
 49
-3.0
 74
     0
 49
0.0
 74
     0
 49
-3.0
 74
     0
 49
0.0
 74
     0
 49
-3.0
 74
     0
  0
ENDTAB
  0
TABLE
  2
LAYER
  5
2
100
AcDbSymbolTable
 70
     9
  0
LAYER
  5
14
100
AcDbSymbolTableRecord
100
AcDbLayerTableRecord
  2
0
 70
     0
 62
     7
  6
CONTINUOUS
  0
LAYER
  5
25
100
AcDbSymbolTableRecord
100
AcDbLayerTableRecord
  2
LAY-1
 70
    64
 62
     3
  6
CONTINUOUS
  0
LAYER
  5
26
100
AcDbSymbolTableRecord
100
AcDbLayerTableRecord
  2
LAY-2
 70
    64
 62
     3
  6
CONTINUOUS
  0
LAYER
  5
27
100
AcDbSymbolTableRecord
100
AcDbLayerTableRecord
  2
LAY-3
 70
    64
 62
     3
  6
CONTINUOUS
  0
LAYER
  5
28
100
AcDbSymbolTableRecord
100
AcDbLayerTableRecord
  2
LAY-4
 70
    64
 62
     3
  6
CONTINUOUS
  0
LAYER
  5
29
100
AcDbSymbolTableRecord
100
AcDbLayerTableRecord
  2
LAY-5
 70
    64
 62
     1
  6
DASHDOT
  0
LAYER
  5
2A
100
AcDbSymbolTableRecord
100
AcDbLayerTableRecord
  2
LAY-6
 70
    64
 62
     2
  6
CONTINUOUS
  0
LAYER
  5
2B
100
AcDbSymbolTableRecord
100
AcDbLayerTableRecord
  2
LAY-9
 70
    64
 62
     1
  6
CONTINUOUS
  0
LAYER
  5
2C
100
AcDbSymbolTableRecord
100
AcDbLayerTableRecord
  2
LAY-10
 70
    64
 62
     5
  6
CONTINUOUS
  0
ENDTAB
  0
TABLE
  2
STYLE
  5
3
100
AcDbSymbolTable
 70
     3
  0
STYLE
  5
17
100
AcDbSymbolTableRecord
100
AcDbTextStyleTableRecord
  2
STANDARD
 70
     0
 40
0.0
 41
1.0
 50
0.0
 71
     0
 42
0.0
  3
monotxt
  4
extfont
  0
STYLE
  5
23
100
AcDbSymbolTableRecord
100
AcDbTextStyleTableRecord
  2
EXCADSTD
 70
    64
 40
0.0
 41
1.0
 50
0.0
 71
     0
 42
0.2
  3
monotxt
  4
extfont
  0
STYLE
  5
24
100
AcDbSymbolTableRecord
100
AcDbTextStyleTableRecord
  2
EXCADVERT
 70
    68
 40
0.0
 41
1.0
 50
0.0
 71
     0
 42
0.286885
  3
monotxt
  4
extfont
  0
ENDTAB
  0
TABLE
  2
VIEW
  5
5
100
AcDbSymbolTable
 70
     0
  0
ENDTAB
  0
TABLE
  2
UCS
  5
6
100
AcDbSymbolTable
 70
     0
  0
ENDTAB
  0
TABLE
  2
APPID
  5
8
100
AcDbSymbolTable
 70
     1
  0
APPID
  5
16
100
AcDbSymbolTableRecord
100
AcDbRegAppTableRecord
  2
ACAD
 70
     0
  0
ENDTAB
  0
TABLE
  2
DIMSTYLE
  5
9
100
AcDbSymbolTable
 70
     1
  0
DIMSTYLE
105
18
100
AcDbSymbolTableRecord
100
AcDbDimStyleTableRecord
  2
STANDARD
 70
     0
  3

  4

  5

  6

  7

 40
1.0
 41
0.18
 42
0.0625
 43
0.38
 44
0.18
 45
0.0
 46
0.0
 47
0.0
 48
0.0
 71
     0
 72
     0
 73
     1
 74
     1
 75
     0
 76
     0
 77
     0
 78
     0
140
0.18
141
0.09
142
0.0
143
25.4
144
1.0
145
0.0
146
1.0
147
0.09
170
     0
171
     2
172
     1
173
     0
174
     0
175
     0
176
     0
177
     0
178
     0
270
     2
271
     4
272
     4
273
     2
274
     2
275
     0
280
     0
281
     0
282
     0
283
     1
284
     0
285
     0
286
     0
287
     3
288
     0
340
17
  0
ENDTAB
  0
TABLE
  2
BLOCK_RECORD
  5
1
100
AcDbSymbolTable
 70
    19
  0
BLOCK_RECORD
  5
A
100
AcDbSymbolTableRecord
100
AcDbBlockTableRecord
  2
*MODEL_SPACE
  0
BLOCK_RECORD
  5
B
100
AcDbSymbolTableRecord
100
AcDbBlockTableRecord
  2
*PAPER_SPACE
  0
BLOCK_RECORD
  5
2D
100
AcDbSymbolTableRecord
100
AcDbBlockTableRecord
  2
_EX_NORM
  0
BLOCK_RECORD
  5
2E
100
AcDbSymbolTableRecord
100
AcDbBlockTableRecord
  2
_EX_BNORM
  0
BLOCK_RECORD
  5
2F
100
AcDbSymbolTableRecord
100
AcDbBlockTableRecord
  2
_EX_BCIR
  0
BLOCK_RECORD
  5
30
100
AcDbSymbolTableRecord
100
AcDbBlockTableRecord
  2
_EX_RCIVIL
  0
BLOCK_RECORD
  5
31
100
AcDbSymbolTableRecord
100
AcDbBlockTableRecord
  2
_EX_SLANT
  0
BLOCK_RECORD
  5
32
100
AcDbSymbolTableRecord
100
AcDbBlockTableRecord
  2
_EX_NONE
  0
BLOCK_RECORD
  5
33
100
AcDbSymbolTableRecord
100
AcDbBlockTableRecord
  2
_EX_CIVIL
  0
BLOCK_RECORD
  5
34
100
AcDbSymbolTableRecord
100
AcDbBlockTableRecord
  2
_EX_WCIR
  0
BLOCK_RECORD
  5
35
100
AcDbSymbolTableRecord
100
AcDbBlockTableRecord
  2
_EX_WCIR2
  0
BLOCK_RECORD
  5
36
100
AcDbSymbolTableRecord
100
AcDbBlockTableRecord
  2
_EX_WNORM
  0
BLOCK_RECORD
  5
37
100
AcDbSymbolTableRecord
100
AcDbBlockTableRecord
  2
_EX_NNORM
  0
BLOCK_RECORD
  5
38
100
AcDbSymbolTableRecord
100
AcDbBlockTableRecord
  2
_EX_BBOX
  0
BLOCK_RECORD
  5
39
100
AcDbSymbolTableRecord
100
AcDbBlockTableRecord
  2
_EX_WBOX
  0
BLOCK_RECORD
  5
3A
100
AcDbSymbolTableRecord
100
AcDbBlockTableRecord
  2
_EX_INTEGRAL
  0
BLOCK_RECORD
  5
3B
100
AcDbSymbolTableRecord
100
AcDbBlockTableRecord
  2
SYM-1
  0
BLOCK_RECORD
  5
3C
100
AcDbSymbolTableRecord
100
AcDbBlockTableRecord
  2
SYM-2
  0
BLOCK_RECORD
  5
3D
100
AcDbSymbolTableRecord
100
AcDbBlockTableRecord
  2
SYM-3
  0
BLOCK_RECORD
  5
3E
100
AcDbSymbolTableRecord
100
AcDbBlockTableRecord
  2
SYM-4
  0
BLOCK_RECORD
  5
3F
100
AcDbSymbolTableRecord
100
AcDbBlockTableRecord
  2
SYM-5
  0
ENDTAB
  0
ENDSEC
  0
SECTION
  2
BLOCKS
  0
BLOCK
  5
D
100
AcDbEntity
  8
0
100
AcDbBlockBegin
  2
*MODEL_SPACE
 70
     0
 10
0.0
 20
0.0
 30
0.0
  3
*MODEL_SPACE
  1

  0
ENDBLK
  5
E
100
AcDbEntity
  8
0
100
AcDbBlockEnd
  0
BLOCK
  5
F
100
AcDbEntity
 67
     1
  8
0
100
AcDbBlockBegin
  2
*PAPER_SPACE
 70
     0
 10
0.0
 20
0.0
 30
0.0
  3
*PAPER_SPACE
  1

  0
ENDBLK
  5
10
100
AcDbEntity
 67
     1
  8
0
100
AcDbBlockEnd
  0
BLOCK
  5
40
100
AcDbEntity
  8
0
100
AcDbBlockBegin
  2
_EX_NORM
 70
     0
 10
0.0
 20
0.0
 30
0.0
  3
_EX_NORM
  1

  0
LINE
  5
41
100
AcDbEntity
  8
0
  6
CONTINUOUS
 62
     0
100
AcDbLine
 10
0.0
 20
0.0
 30
0.0
 11
-1.0
 21
0.0
 31
0.0
  0
LINE
  5
42
100
AcDbEntity
  8
0
  6
CONTINUOUS
 62
     0
100
AcDbLine
 10
0.0
 20
0.0
 30
0.0
 11
-1.0
 21
0.166667
 31
0.0
  0
LINE
  5
43
100
AcDbEntity
  8
0
  6
CONTINUOUS
 62
     0
100
AcDbLine
 10
0.0
 20
0.0
 30
0.0
 11
-1.0
 21
-0.166667
 31
0.0
  0
ENDBLK
  5
44
100
AcDbEntity
  8
0
100
AcDbBlockEnd
  0
BLOCK
  5
45
100
AcDbEntity
  8
0
100
AcDbBlockBegin
  2
_EX_BNORM
 70
     0
 10
0.0
 20
0.0
 30
0.0
  3
_EX_BNORM
  1

  0
LINE
  5
46
100
AcDbEntity
  8
0
  6
CONTINUOUS
 62
     0
100
AcDbLine
 10
0.0
 20
0.0
 30
0.0
 11
-1.0
 21
0.0
 31
0.0
  0
LINE
  5
47
100
AcDbEntity
  8
0
  6
CONTINUOUS
 62
     0
100
AcDbLine
 10
0.0
 20
0.0
 30
0.0
 11
-1.0
 21
0.166667
 31
0.0
  0
LINE
  5
48
100
AcDbEntity
  8
0
  6
CONTINUOUS
 62
     0
100
AcDbLine
 10
0.0
 20
0.0
 30
0.0
 11
-1.0
 21
-0.166667
 31
0.0
  0
LINE
  5
49
100
AcDbEntity
  8
0
  6
CONTINUOUS
 62
     0
100
AcDbLine
 10
0.0
 20
0.0
 30
0.0
 11
-1.0
 21
0.083333
 31
0.0
  0
LINE
  5
4A
100
AcDbEntity
  8
0
  6
CONTINUOUS
 62
     0
100
AcDbLine
 10
0.0
 20
0.0
 30
0.0
 11
-1.0
 21
-0.083333
 31
0.0
  0
LINE
  5
4B
100
AcDbEntity
  8
0
  6
CONTINUOUS
 62
     0
100
AcDbLine
 10
-1.0
 20
0.166667
 30
0.0
 11
-1.0
 21
-0.166667
 31
0.0
  0
ENDBLK
  5
4C
100
AcDbEntity
  8
0
100
AcDbBlockEnd
  0
BLOCK
  5
4D
100
AcDbEntity
  8
0
100
AcDbBlockBegin
  2
_EX_BCIR
 70
     0
 10
0.0
 20
0.0
 30
0.0
  3
_EX_BCIR
  1

  0
LINE
  5
4E
100
AcDbEntity
  8
0
  6
CONTINUOUS
 62
     0
100
AcDbLine
 10
0.0
 20
0.0
 30
0.0
 11
-1.0
 21
0.0
 31
0.0
  0
CIRCLE
  5
4F
100
AcDbEntity
  8
0
  6
CONTINUOUS
 62
     0
100
AcDbCircle
 10
0.0
 20
0.0
 30
0.0
 40
0.5
  0
CIRCLE
  5
50
100
AcDbEntity
  8
0
  6
CONTINUOUS
 62
     0
100
AcDbCircle
 10
0.0
 20
0.0
 30
0.0
 40
0.25
  0
ENDBLK
  5
51
100
AcDbEntity
  8
0
100
AcDbBlockEnd
  0
BLOCK
  5
52
100
AcDbEntity
  8
0
100
AcDbBlockBegin
  2
_EX_RCIVIL
 70
     0
 10
0.0
 20
0.0
 30
0.0
  3
_EX_RCIVIL
  1

  0
LINE
  5
53
100
AcDbEntity
  8
0
  6
CONTINUOUS
 62
     0
100
AcDbLine
 10
0.0
 20
0.0
 30
0.0
 11
-1.0
 21
0.0
 31
0.0
  0
LINE
  5
54
100
AcDbEntity
  8
0
  6
CONTINUOUS
 62
     0
100
AcDbLine
 10
-1.0
 20
-0.25
 30
0.0
 11
0.0
 21
-0.25
 31
0.0
  0
LINE
  5
55
100
AcDbEntity
  8
0
  6
CONTINUOUS
 62
     0
100
AcDbLine
 10
-1.0
 20
-0.125
 30
0.0
 11
0.0
 21
-0.125
 31
0.0
  0
ENDBLK
  5
56
100
AcDbEntity
  8
0
100
AcDbBlockEnd
  0
BLOCK
  5
57
100
AcDbEntity
  8
0
100
AcDbBlockBegin
  2
_EX_SLANT
 70
     0
 10
0.0
 20
0.0
 30
0.0
  3
_EX_SLANT
  1

  0
LINE
  5
58
100
AcDbEntity
  8
0
  6
CONTINUOUS
 62
     0
100
AcDbLine
 10
0.0
 20
0.0
 30
0.0
 11
-1.0
 21
0.0
 31
0.0
  0
LINE
  5
59
100
AcDbEntity
  8
0
  6
CONTINUOUS
 62
     0
100
AcDbLine
 10
0.707107
 20
0.707107
 30
0.0
 11
-0.707107
 21
-0.707107
 31
0.0
  0
ENDBLK
  5
5A
100
AcDbEntity
  8
0
100
AcDbBlockEnd
  0
BLOCK
  5
5B
100
AcDbEntity
  8
0
100
AcDbBlockBegin
  2
_EX_NONE
 70
     0
 10
0.0
 20
0.0
 30
0.0
  3
_EX_NONE
  1

  0
LINE
  5
5C
100
AcDbEntity
  8
0
  6
CONTINUOUS
 62
     0
100
AcDbLine
 10
0.0
 20
0.0
 30
0.0
 11
-1.0
 21
0.0
 31
0.0
  0
ENDBLK
  5
5D
100
AcDbEntity
  8
0
100
AcDbBlockEnd
  0
BLOCK
  5
5E
100
AcDbEntity
  8
0
100
AcDbBlockBegin
  2
_EX_CIVIL
 70
     0
 10
0.0
 20
0.0
 30
0.0
  3
_EX_CIVIL
  1

  0
LINE
  5
5F
100
AcDbEntity
  8
0
  6
CONTINUOUS
 62
     0
100
AcDbLine
 10
0.0
 20
0.0
 30
0.0
 11
-1.0
 21
0.0
 31
0.0
  0
LINE
  5
60
100
AcDbEntity
  8
0
  6
CONTINUOUS
 62
     0
100
AcDbLine
 10
-1.0
 20
0.25
 30
0.0
 11
0.0
 21
0.25
 31
0.0
  0
LINE
  5
61
100
AcDbEntity
  8
0
  6
CONTINUOUS
 62
     0
100
AcDbLine
 10
-1.0
 20
0.125
 30
0.0
 11
0.0
 21
0.125
 31
0.0
  0
ENDBLK
  5
62
100
AcDbEntity
  8
0
100
AcDbBlockEnd
  0
BLOCK
  5
63
100
AcDbEntity
  8
0
100
AcDbBlockBegin
  2
_EX_WCIR
 70
     0
 10
0.0
 20
0.0
 30
0.0
  3
_EX_WCIR
  1

  0
LINE
  5
64
100
AcDbEntity
  8
0
  6
CONTINUOUS
 62
     0
100
AcDbLine
 10
0.0
 20
0.0
 30
0.0
 11
-1.0
 21
0.0
 31
0.0
  0
CIRCLE
  5
65
100
AcDbEntity
  8
0
  6
CONTINUOUS
 62
     0
100
AcDbCircle
 10
0.0
 20
0.0
 30
0.0
 40
0.5
  0
ENDBLK
  5
66
100
AcDbEntity
  8
0
100
AcDbBlockEnd
  0
BLOCK
  5
67
100
AcDbEntity
  8
0
100
AcDbBlockBegin
  2
_EX_WCIR2
 70
     0
 10
0.0
 20
0.0
 30
0.0
  3
_EX_WCIR2
  1

  0
LINE
  5
68
100
AcDbEntity
  8
0
  6
CONTINUOUS
 62
     0
100
AcDbLine
 10
-0.5
 20
0.0
 30
0.0
 11
-1.0
 21
0.0
 31
0.0
  0
CIRCLE
  5
69
100
AcDbEntity
  8
0
  6
CONTINUOUS
 62
     0
100
AcDbCircle
 10
0.0
 20
0.0
 30
0.0
 40
0.5
  0
ENDBLK
  5
6A
100
AcDbEntity
  8
0
100
AcDbBlockEnd
  0
BLOCK
  5
6B
100
AcDbEntity
  8
0
100
AcDbBlockBegin
  2
_EX_WNORM
 70
     0
 10
0.0
 20
0.0
 30
0.0
  3
_EX_WNORM
  1

  0
LINE
  5
6C
100
AcDbEntity
  8
0
  6
CONTINUOUS
 62
     0
100
AcDbLine
 10
-1.0
 20
0.0
 30
0.0
 11
-1.0
 21
0.0
 31
0.0
  0
LINE
  5
6D
100
AcDbEntity
  8
0
  6
CONTINUOUS
 62
     0
100
AcDbLine
 10
0.0
 20
0.0
 30
0.0
 11
-1.0
 21
0.166667
 31
0.0
  0
LINE
  5
6E
100
AcDbEntity
  8
0
  6
CONTINUOUS
 62
     0
100
AcDbLine
 10
0.0
 20
0.0
 30
0.0
 11
-1.0
 21
-0.166667
 31
0.0
  0
LINE
  5
6F
100
AcDbEntity
  8
0
  6
CONTINUOUS
 62
     0
100
AcDbLine
 10
-1.0
 20
0.166667
 30
0.0
 11
-1.0
 21
-0.166667
 31
0.0
  0
ENDBLK
  5
70
100
AcDbEntity
  8
0
100
AcDbBlockEnd
  0
BLOCK
  5
71
100
AcDbEntity
  8
0
100
AcDbBlockBegin
  2
_EX_NNORM
 70
     0
 10
0.0
 20
0.0
 30
0.0
  3
_EX_NNORM
  1

  0
LINE
  5
72
100
AcDbEntity
  8
0
  6
CONTINUOUS
 62
     0
100
AcDbLine
 10
0.0
 20
0.0
 30
0.0
 11
-1.0
 21
0.0
 31
0.0
  0
LINE
  5
73
100
AcDbEntity
  8
0
  6
CONTINUOUS
 62
     0
100
AcDbLine
 10
0.0
 20
0.0
 30
0.0
 11
-1.0
 21
0.166667
 31
0.0
  0
LINE
  5
74
100
AcDbEntity
  8
0
  6
CONTINUOUS
 62
     0
100
AcDbLine
 10
0.0
 20
0.0
 30
0.0
 11
-1.0
 21
-0.166667
 31
0.0
  0
LINE
  5
75
100
AcDbEntity
  8
0
  6
CONTINUOUS
 62
     0
100
AcDbLine
 10
-1.0
 20
0.166667
 30
0.0
 11
-1.0
 21
-0.166667
 31
0.0
  0
ENDBLK
  5
76
100
AcDbEntity
  8
0
100
AcDbBlockEnd
  0
BLOCK
  5
77
100
AcDbEntity
  8
0
100
AcDbBlockBegin
  2
_EX_BBOX
 70
     0
 10
0.0
 20
0.0
 30
0.0
  3
_EX_BBOX
  1

  0
LINE
  5
78
100
AcDbEntity
  8
0
  6
CONTINUOUS
 62
     0
100
AcDbLine
 10
0.0
 20
0.0
 30
0.0
 11
-1.0
 21
0.0
 31
0.0
  0
LINE
  5
79
100
AcDbEntity
  8
0
  6
CONTINUOUS
 62
     0
100
AcDbLine
 10
-0.5
 20
0.5
 30
0.0
 11
0.5
 21
0.5
 31
0.0
  0
LINE
  5
7A
100
AcDbEntity
  8
0
  6
CONTINUOUS
 62
     0
100
AcDbLine
 10
0.5
 20
0.5
 30
0.0
 11
0.5
 21
-0.5
 31
0.0
  0
LINE
  5
7B
100
AcDbEntity
  8
0
  6
CONTINUOUS
 62
     0
100
AcDbLine
 10
0.5
 20
-0.5
 30
0.0
 11
-0.5
 21
-0.5
 31
0.0
  0
LINE
  5
7C
100
AcDbEntity
  8
0
  6
CONTINUOUS
 62
     0
100
AcDbLine
 10
-0.5
 20
-0.5
 30
0.0
 11
-0.5
 21
0.5
 31
0.0
  0
LINE
  5
7D
100
AcDbEntity
  8
0
  6
CONTINUOUS
 62
     0
100
AcDbLine
 10
-0.25
 20
0.25
 30
0.0
 11
0.25
 21
0.25
 31
0.0
  0
LINE
  5
7E
100
AcDbEntity
  8
0
  6
CONTINUOUS
 62
     0
100
AcDbLine
 10
0.25
 20
0.25
 30
0.0
 11
0.25
 21
-0.25
 31
0.0
  0
LINE
  5
7F
100
AcDbEntity
  8
0
  6
CONTINUOUS
 62
     0
100
AcDbLine
 10
0.25
 20
-0.25
 30
0.0
 11
-0.25
 21
-0.25
 31
0.0
  0
LINE
  5
80
100
AcDbEntity
  8
0
  6
CONTINUOUS
 62
     0
100
AcDbLine
 10
-0.25
 20
-0.25
 30
0.0
 11
-0.25
 21
0.25
 31
0.0
  0
ENDBLK
  5
81
100
AcDbEntity
  8
0
100
AcDbBlockEnd
  0
BLOCK
  5
82
100
AcDbEntity
  8
0
100
AcDbBlockBegin
  2
_EX_WBOX
 70
     0
 10
0.0
 20
0.0
 30
0.0
  3
_EX_WBOX
  1

  0
LINE
  5
83
100
AcDbEntity
  8
0
  6
CONTINUOUS
 62
     0
100
AcDbLine
 10
-0.5
 20
0.0
 30
0.0
 11
-1.0
 21
0.0
 31
0.0
  0
LINE
  5
84
100
AcDbEntity
  8
0
  6
CONTINUOUS
 62
     0
100
AcDbLine
 10
-0.5
 20
0.5
 30
0.0
 11
0.5
 21
0.5
 31
0.0
  0
LINE
  5
85
100
AcDbEntity
  8
0
  6
CONTINUOUS
 62
     0
100
AcDbLine
 10
0.5
 20
0.5
 30
0.0
 11
0.5
 21
-0.5
 31
0.0
  0
LINE
  5
86
100
AcDbEntity
  8
0
  6
CONTINUOUS
 62
     0
100
AcDbLine
 10
0.5
 20
-0.5
 30
0.0
 11
-0.5
 21
-0.5
 31
0.0
  0
LINE
  5
87
100
AcDbEntity
  8
0
  6
CONTINUOUS
 62
     0
100
AcDbLine
 10
-0.5
 20
-0.5
 30
0.0
 11
-0.5
 21
0.5
 31
0.0
  0
ENDBLK
  5
88
100
AcDbEntity
  8
0
100
AcDbBlockEnd
  0
BLOCK
  5
89
100
AcDbEntity
  8
0
100
AcDbBlockBegin
  2
_EX_INTEGRAL
 70
     0
 10
0.0
 20
0.0
 30
0.0
  3
_EX_INTEGRAL
  1

  0
LINE
  5
8A
100
AcDbEntity
  8
0
  6
CONTINUOUS
 62
     0
100
AcDbLine
 10
0.0
 20
0.0
 30
0.0
 11
-1.0
 21
0.0
 31
0.0
  0
ARC
  5
8B
100
AcDbEntity
  8
0
  6
CONTINUOUS
 62
     0
100
AcDbCircle
 10
0.542115
 20
0.164992
 30
0.0
 40
0.56667
100
AcDbArc
 50
73.07249
 51
196.927513
  0
ARC
  5
8C
100
AcDbEntity
  8
0
  6
CONTINUOUS
 62
     0
100
AcDbCircle
 10
-0.542115
 20
-0.164992
 30
0.0
 40
0.56667
100
AcDbArc
 50
253.072487
 51
16.927513
  0
ENDBLK
  5
8D
100
AcDbEntity
  8
0
100
AcDbBlockEnd
  0
BLOCK
  5
8E
100
AcDbEntity
  8
0
100
AcDbBlockBegin
  2
SYM-1
 70
     0
 10
0.0
 20
0.0
 30
0.0
  3
SYM-1
  1

  0
ARC
  5
8F
100
AcDbEntity
  8
0
  6
CONTINUOUS
 62
     3
100
AcDbCircle
 10
1.5
 20
1.5
 30
0.0
 40
1.0
100
AcDbArc
 50
180.0
 51
270.0
  0
ARC
  5
90
100
AcDbEntity
  8
0
  6
CONTINUOUS
 62
     3
100
AcDbCircle
 10
-1.5
 20
-1.5
 30
0.0
 40
1.0
100
AcDbArc
 50
0.0
 51
90.0
  0
ARC
  5
91
100
AcDbEntity
  8
0
  6
CONTINUOUS
 62
     3
100
AcDbCircle
 10
-1.5
 20
1.5
 30
0.0
 40
1.0
100
AcDbArc
 50
270.0
 51
0.0
  0
ARC
  5
92
100
AcDbEntity
  8
0
  6
CONTINUOUS
 62
     3
100
AcDbCircle
 10
1.5
 20
-1.5
 30
0.0
 40
1.0
100
AcDbArc
 50
90.0
 51
180.0
  0
ARC
  5
93
100
AcDbEntity
  8
0
  6
CONTINUOUS
 62
     3
100
AcDbCircle
 10
1.5
 20
1.5
 30
0.0
 40
1.0
100
AcDbArc
 50
180.0
 51
270.0
  0
ARC
  5
94
100
AcDbEntity
  8
0
  6
CONTINUOUS
 62
     3
100
AcDbCircle
 10
1.5
 20
-1.5
 30
0.0
 40
1.0
100
AcDbArc
 50
90.0
 51
180.0
  0
CIRCLE
  5
95
100
AcDbEntity
  8
0
  6
CONTINUOUS
 62
     3
100
AcDbCircle
 10
0.0
 20
0.0
 30
0.0
 40
4.0
  0
LINE
  5
96
100
AcDbEntity
  8
0
  6
CONTINUOUS
 62
     3
100
AcDbLine
 10
0.5
 20
1.5
 30
0.0
 11
0.5
 21
2.25
 31
0.0
  0
LINE
  5
97
100
AcDbEntity
  8
0
  6
CONTINUOUS
 62
     3
100
AcDbLine
 10
-0.5
 20
2.25
 30
0.0
 11
0.5
 21
2.25
 31
0.0
  0
LINE
  5
98
100
AcDbEntity
  8
0
  6
CONTINUOUS
 62
     3
100
AcDbLine
 10
-0.5
 20
1.5
 30
0.0
 11
-0.5
 21
2.25
 31
0.0
  0
LINE
  5
99
100
AcDbEntity
  8
0
  6
CONTINUOUS
 62
     3
100
AcDbLine
 10
-0.5
 20
1.5
 30
0.0
 11
-0.5
 21
2.25
 31
0.0
  0
LINE
  5
9A
100
AcDbEntity
  8
0
  6
CONTINUOUS
 62
     3
100
AcDbLine
 10
0.5
 20
2.25
 30
0.0
 11
-0.5
 21
2.25
 31
0.0
  0
LINE
  5
9B
100
AcDbEntity
  8
0
  6
CONTINUOUS
 62
     3
100
AcDbLine
 10
0.5
 20
1.5
 30
0.0
 11
0.5
 21
2.25
 31
0.0
  0
LINE
  5
9C
100
AcDbEntity
  8
0
  6
CONTINUOUS
 62
     3
100
AcDbLine
 10
-2.25
 20
-0.5
 30
0.0
 11
-2.25
 21
0.5
 31
0.0
  0
LINE
  5
9D
100
AcDbEntity
  8
0
  6
CONTINUOUS
 62
     3
100
AcDbLine
 10
0.5
 20
-2.25
 30
0.0
 11
-0.5
 21
-2.25
 31
0.0
  0
LINE
  5
9E
100
AcDbEntity
  8
0
  6
CONTINUOUS
 62
     3
100
AcDbLine
 10
2.25
 20
0.5
 30
0.0
 11
2.25
 21
-0.5
 31
0.0
  0
LINE
  5
9F
100
AcDbEntity
  8
0
  6
CONTINUOUS
 62
     3
100
AcDbLine
 10
-1.5
 20
-0.5
 30
0.0
 11
-2.25
 21
-0.5
 31
0.0
  0
LINE
  5
A0
100
AcDbEntity
  8
0
  6
CONTINUOUS
 62
     3
100
AcDbLine
 10
-1.5
 20
0.5
 30
0.0
 11
-2.25
 21
0.5
 31
0.0
  0
LINE
  5
A1
100
AcDbEntity
  8
0
  6
CONTINUOUS
 62
     3
100
AcDbLine
 10
0.5
 20
-1.5
 30
0.0
 11
0.5
 21
-2.25
 31
0.0
  0
LINE
  5
A2
100
AcDbEntity
  8
0
  6
CONTINUOUS
 62
     3
100
AcDbLine
 10
-0.5
 20
-1.5
 30
0.0
 11
-0.5
 21
-2.25
 31
0.0
  0
LINE
  5
A3
100
AcDbEntity
  8
0
  6
CONTINUOUS
 62
     3
100
AcDbLine
 10
-0.5
 20
-1.5
 30
0.0
 11
-0.5
 21
-2.25
 31
0.0
  0
LINE
  5
A4
100
AcDbEntity
  8
0
  6
CONTINUOUS
 62
     3
100
AcDbLine
 10
0.5
 20
-1.5
 30
0.0
 11
0.5
 21
-2.25
 31
0.0
  0
LINE
  5
A5
100
AcDbEntity
  8
0
  6
CONTINUOUS
 62
     3
100
AcDbLine
 10
1.5
 20
-0.5
 30
0.0
 11
2.25
 21
-0.5
 31
0.0
  0
LINE
  5
A6
100
AcDbEntity
  8
0
  6
CONTINUOUS
 62
     3
100
AcDbLine
 10
1.5
 20
0.5
 30
0.0
 11
2.25
 21
0.5
 31
0.0
  0
LINE
  5
A7
100
AcDbEntity
  8
0
  6
CONTINUOUS
 62
     3
100
AcDbLine
 10
1.5
 20
0.5
 30
0.0
 11
2.25
 21
0.5
 31
0.0
  0
ENDBLK
  5
A8
100
AcDbEntity
  8
0
100
AcDbBlockEnd
  0
BLOCK
  5
A9
100
AcDbEntity
  8
0
100
AcDbBlockBegin
  2
SYM-2
 70
     0
 10
0.0
 20
0.0
 30
0.0
  3
SYM-2
  1

  0
TEXT
  5
AA
100
AcDbEntity
  8
0
  6
CONTINUOUS
 62
     2
100
AcDbText
 10
-2.828427
 20
-2.828427
 30
0.0
 40
5.656854
  1
２
 41
0.84
  7
EXCADSTD
 72
     5
 11
1.697056
 21
-2.828427
 31
0.0
100
AcDbText
  0
CIRCLE
  5
AB
100
AcDbEntity
  8
0
  6
CONTINUOUS
 62
     1
100
AcDbCircle
 10
0.0
 20
0.0
 30
0.0
 40
4.0
  0
TEXT
  5
AC
100
AcDbEntity
  8
0
  6
CONTINUOUS
 62
     2
100
AcDbText
 10
6.6
 20
-3.2
 30
0.0
 40
7.0
  1
トップピボット（ドア側）
 41
0.672
  7
EXCADSTD
 72
     5
 11
73.799999
 21
-3.2
 31
0.0
100
AcDbText
  0
LINE
  5
AD
100
AcDbEntity
  8
0
  6
CONTINUOUS
 62
     1
100
AcDbLine
 10
4.0
 20
-3.7
 30
0.0
 11
71.0
 21
-3.7
 31
0.0
  0
ENDBLK
  5
AE
100
AcDbEntity
  8
0
100
AcDbBlockEnd
  0
BLOCK
  5
AF
100
AcDbEntity
  8
0
100
AcDbBlockBegin
  2
SYM-3
 70
     0
 10
0.0
 20
0.0
 30
0.0
  3
SYM-3
  1

  0
TEXT
  5
B0
100
AcDbEntity
  8
0
  6
CONTINUOUS
 62
     2
100
AcDbText
 10
-2.828427
 20
-2.828427
 30
0.0
 40
5.656854
  1
３
 41
0.84
  7
EXCADSTD
 72
     5
 11
1.697056
 21
-2.828427
 31
0.0
100
AcDbText
  0
CIRCLE
  5
B1
100
AcDbEntity
  8
0
  6
CONTINUOUS
 62
     1
100
AcDbCircle
 10
0.0
 20
0.0
 30
0.0
 40
4.0
  0
TEXT
  5
B2
100
AcDbEntity
  8
0
  6
CONTINUOUS
 62
     2
100
AcDbText
 10
6.6
 20
-3.2
 30
0.0
 40
7.0
  1
ア　ー　ム
 41
0.672
  7
EXCADSTD
 72
     5
 11
34.6
 21
-3.2
 31
0.0
100
AcDbText
  0
LINE
  5
B3
100
AcDbEntity
  8
0
  6
CONTINUOUS
 62
     1
100
AcDbLine
 10
4.0
 20
-3.7
 30
0.0
 11
34.9
 21
-3.7
 31
0.0
  0
ENDBLK
  5
B4
100
AcDbEntity
  8
0
100
AcDbBlockEnd
  0
BLOCK
  5
B5
100
AcDbEntity
  8
0
100
AcDbBlockBegin
  2
SYM-4
 70
     0
 10
0.0
 20
0.0
 30
0.0
  3
SYM-4
  1

  0
TEXT
  5
B6
100
AcDbEntity
  8
0
  6
CONTINUOUS
 62
     2
100
AcDbText
 10
-2.7
 20
-1.0
 30
0.0
 40
5.0
  1
Ｐ
 41
0.672
  7
EXCADSTD
 72
     5
 11
0.5
 21
-1.0
 31
0.0
100
AcDbText
  0
TEXT
  5
B7
100
AcDbEntity
  8
0
  6
CONTINUOUS
 62
     2
100
AcDbText
 10
-1.8
 20
-0.9
 30
0.0
 40
5.0
  1
Ｌ
 41
0.672
  7
EXCADSTD
 72
     5
 11
1.4
 21
-0.9
 31
0.0
100
AcDbText
  0
ENDBLK
  5
B8
100
AcDbEntity
  8
0
100
AcDbBlockEnd
  0
BLOCK
  5
B9
100
AcDbEntity
  8
0
100
AcDbBlockBegin
  2
SYM-5
 70
     0
 10
0.0
 20
0.0
 30
0.0
  3
SYM-5
  1

  0
TEXT
  5
BA
100
AcDbEntity
  8
0
  6
CONTINUOUS
 62
     2
100
AcDbText
 10
-2.828427
 20
-2.828427
 30
0.0
 40
5.656854
  1
１
 41
0.84
  7
EXCADSTD
 72
     5
 11
1.697056
 21
-2.828427
 31
0.0
100
AcDbText
  0
CIRCLE
  5
BB
100
AcDbEntity
  8
0
  6
CONTINUOUS
 62
     1
100
AcDbCircle
 10
0.0
 20
0.0
 30
0.0
 40
4.0
  0
TEXT
  5
BC
100
AcDbEntity
  8
0
  6
CONTINUOUS
 62
     2
100
AcDbText
 10
6.6
 20
-3.2
 30
0.0
 40
7.0
  1
トップピボット（上枠側）
 41
0.672
  7
EXCADSTD
 72
     5
 11
73.799999
 21
-3.2
 31
0.0
100
AcDbText
  0
LINE
  5
BD
100
AcDbEntity
  8
0
  6
CONTINUOUS
 62
     1
100
AcDbLine
 10
4.0
 20
-3.7
 30
0.0
 11
70.1
 21
-3.7
 31
0.0
  0
ENDBLK
  5
BE
100
AcDbEntity
  8
0
100
AcDbBlockEnd
  0
ENDSEC
  0
SECTION
  2
ENTITIES
  0
LINE
  5
BF
100
AcDbEntity
  8
LAY-1
  6
DASHED2
 62
     3
100
AcDbLine
 10
657.0
 20
487.854431
 30
0.0
 11
645.0
 21
487.854431
 31
0.0
  0
LINE
  5
C0
100
AcDbEntity
  8
LAY-1
  6
DASHED2
 62
     3
100
AcDbLine
 10
654.349976
 20
490.854431
 30
0.0
 11
647.649963
 21
490.854431
 31
0.0
  0
LINE
  5
C1
100
AcDbEntity
  8
LAY-1
  6
DASHED2
 62
     3
100
AcDbLine
 10
647.649963
 20
490.854431
 30
0.0
 11
645.0
 21
487.854431
 31
0.0
  0
LINE
  5
C2
100
AcDbEntity
  8
LAY-1
  6
DASHED2
 62
     3
100
AcDbLine
 10
654.349976
 20
490.854431
 30
0.0
 11
657.0
 21
487.854431
 31
0.0
  0
LINE
  5
C3
100
AcDbEntity
  8
LAY-1
  6
DASHED2
 62
     3
100
AcDbLine
 10
645.0
 20
487.854431
 30
0.0
 11
645.0
 21
487.454468
 31
0.0
  0
LINE
  5
C4
100
AcDbEntity
  8
LAY-1
  6
DASHED2
 62
     3
100
AcDbLine
 10
657.0
 20
487.854431
 30
0.0
 11
657.0
 21
487.454468
 31
0.0
  0
LINE
  5
C5
100
AcDbEntity
  8
LAY-1
  6
DASHED2
 62
     3
100
AcDbLine
 10
667.0
 20
487.854431
 30
0.0
 11
655.0
 21
487.854431
 31
0.0
  0
LINE
  5
C6
100
AcDbEntity
  8
LAY-1
  6
DASHED2
 62
     3
100
AcDbLine
 10
664.349976
 20
490.854431
 30
0.0
 11
657.649963
 21
490.854431
 31
0.0
  0
LINE
  5
C7
100
AcDbEntity
  8
LAY-1
  6
DASHED2
 62
     3
100
AcDbLine
 10
657.649963
 20
490.854431
 30
0.0
 11
655.0
 21
487.854431
 31
0.0
  0
LINE
  5
C8
100
AcDbEntity
  8
LAY-1
  6
DASHED2
 62
     3
100
AcDbLine
 10
664.349976
 20
490.854431
 30
0.0
 11
667.0
 21
487.854431
 31
0.0
  0
LINE
  5
C9
100
AcDbEntity
  8
LAY-1
  6
DASHED2
 62
     3
100
AcDbLine
 10
655.0
 20
487.854431
 30
0.0
 11
655.0
 21
487.454468
 31
0.0
  0
LINE
  5
CA
100
AcDbEntity
  8
LAY-1
  6
DASHED2
 62
     3
100
AcDbLine
 10
667.0
 20
487.854431
 30
0.0
 11
667.0
 21
487.454468
 31
0.0
  0
LINE
  5
CB
100
AcDbEntity
  8
LAY-1
  6
CONTINUOUS
 62
     3
100
AcDbLine
 10
590.000122
 20
503.954437
 30
0.0
 11
632.993713
 21
503.954437
 31
0.0
  0
LINE
  5
CC
100
AcDbEntity
  8
LAY-1
  6
CONTINUOUS
 62
     3
100
AcDbLine
 10
632.993713
 20
503.954437
 30
0.0
 11
632.993713
 21
487.954437
 31
0.0
  0
LINE
  5
CD
100
AcDbEntity
  8
LAY-1
  6
CONTINUOUS
 62
     3
100
AcDbLine
 10
590.000122
 20
503.954437
 30
0.0
 11
590.000122
 21
488.954437
 31
0.0
  0
LINE
  5
CE
100
AcDbEntity
  8
LAY-1
  6
CONTINUOUS
 62
     3
100
AcDbLine
 10
591.000122
 20
487.954437
 30
0.0
 11
632.993713
 21
487.954437
 31
0.0
  0
LINE
  5
CF
100
AcDbEntity
  8
LAY-1
  6
CONTINUOUS
 62
     3
100
AcDbLine
 10
632.993713
 20
501.954437
 30
0.0
 11
667.733277
 21
501.954376
 31
0.0
  0
LINE
  5
D0
100
AcDbEntity
  8
LAY-1
  6
CONTINUOUS
 62
     3
100
AcDbLine
 10
632.993713
 20
493.954376
 30
0.0
 11
669.312134
 21
493.954376
 31
0.0
  0
ARC
  5
D1
100
AcDbEntity
  8
LAY-1
  6
CONTINUOUS
 62
     3
100
AcDbCircle
 10
643.000061
 20
500.954376
 30
0.0
 40
1.0
100
AcDbArc
 50
89.999981
 51
180.00002
  0
LINE
  5
D2
100
AcDbEntity
  8
LAY-1
  6
CONTINUOUS
 62
     3
100
AcDbLine
 10
642.000061
 20
494.954407
 30
0.0
 11
642.000061
 21
501.954376
 31
0.0
  0
ARC
  5
D3
100
AcDbEntity
  8
LAY-1
  6
CONTINUOUS
 62
     3
100
AcDbCircle
 10
643.000061
 20
494.954407
 30
0.0
 40
1.0
100
AcDbArc
 50
180.00002
 51
270.0
  0
LINE
  5
D4
100
AcDbEntity
  8
LAY-1
  6
CONTINUOUS
 62
     3
100
AcDbLine
 10
632.993713
 20
503.954437
 30
0.0
 11
632.993713
 21
487.954437
 31
0.0
  0
LINE
  5
D5
100
AcDbEntity
  8
LAY-1
  6
DASHED2
 62
     3
100
AcDbLine
 10
647.650024
 20
491.354431
 30
0.0
 11
647.650024
 21
502.477203
 31
0.0
  0
LINE
  5
D6
100
AcDbEntity
  8
LAY-1
  6
DASHED2
 62
     3
100
AcDbLine
 10
654.350037
 20
502.477203
 30
0.0
 11
654.349976
 21
491.354431
 31
0.0
  0
LINE
  5
D7
100
AcDbEntity
  8
LAY-1
  6
DASHED2
 62
     1
100
AcDbLine
 10
648.399963
 20
491.354431
 30
0.0
 11
648.399963
 21
502.477203
 31
0.0
  0
LINE
  5
D8
100
AcDbEntity
  8
LAY-1
  6
DASHED2
 62
     1
100
AcDbLine
 10
653.599976
 20
491.354431
 30
0.0
 11
653.599976
 21
502.477203
 31
0.0
  0
LINE
  5
D9
100
AcDbEntity
  8
LAY-1
  6
DASHED2
 62
     3
100
AcDbLine
 10
657.650024
 20
491.354431
 30
0.0
 11
657.650024
 21
502.477203
 31
0.0
  0
LINE
  5
DA
100
AcDbEntity
  8
LAY-1
  6
DASHED2
 62
     3
100
AcDbLine
 10
664.350037
 20
502.477203
 30
0.0
 11
664.349976
 21
491.354431
 31
0.0
  0
LINE
  5
DB
100
AcDbEntity
  8
LAY-1
  6
DASHED2
 62
     1
100
AcDbLine
 10
658.399963
 20
491.354431
 30
0.0
 11
658.399963
 21
502.477203
 31
0.0
  0
LINE
  5
DC
100
AcDbEntity
  8
LAY-1
  6
DASHED2
 62
     1
100
AcDbLine
 10
663.599976
 20
491.354431
 30
0.0
 11
663.599976
 21
502.477203
 31
0.0
  0
LINE
  5
DD
100
AcDbEntity
  8
LAY-1
  6
DASHED2
 62
     3
100
AcDbLine
 10
647.650024
 20
491.418518
 30
0.0
 11
647.650024
 21
490.854431
 31
0.0
  0
LINE
  5
DE
100
AcDbEntity
  8
LAY-1
  6
DASHED2
 62
     1
100
AcDbLine
 10
648.399963
 20
491.374542
 30
0.0
 11
648.399963
 21
490.854431
 31
0.0
  0
LINE
  5
DF
100
AcDbEntity
  8
LAY-1
  6
DASHED2
 62
     1
100
AcDbLine
 10
653.599976
 20
491.228149
 30
0.0
 11
653.599976
 21
490.854431
 31
0.0
  0
LINE
  5
E0
100
AcDbEntity
  8
LAY-1
  6
DASHED2
 62
     3
100
AcDbLine
 10
654.349976
 20
491.313934
 30
0.0
 11
654.349976
 21
490.854431
 31
0.0
  0
LINE
  5
E1
100
AcDbEntity
  8
LAY-1
  6
DASHED2
 62
     3
100
AcDbLine
 10
657.650024
 20
491.691345
 30
0.0
 11
657.650024
 21
490.854431
 31
0.0
  0
LINE
  5
E2
100
AcDbEntity
  8
LAY-1
  6
DASHED2
 62
     1
100
AcDbLine
 10
658.399963
 20
491.266632
 30
0.0
 11
658.399963
 21
490.854431
 31
0.0
  0
LINE
  5
E3
100
AcDbEntity
  8
LAY-1
  6
DASHED2
 62
     1
100
AcDbLine
 10
663.599976
 20
491.433167
 30
0.0
 11
663.599976
 21
490.854431
 31
0.0
  0
LINE
  5
E4
100
AcDbEntity
  8
LAY-1
  6
DASHED2
 62
     3
100
AcDbLine
 10
664.349976
 20
491.506409
 30
0.0
 11
664.349976
 21
490.854431
 31
0.0
  0
LINE
  5
E5
100
AcDbEntity
  8
LAY-1
  6
CONTINUOUS
 62
     3
100
AcDbLine
 10
669.993896
 20
497.954376
 30
0.0
 11
669.718368
 21
495.710635
 31
0.0
  0
LINE
  5
E6
100
AcDbEntity
  8
LAY-1
  6
CONTINUOUS
 62
     3
100
AcDbLine
 10
647.650024
 20
507.454468
 30
0.0
 11
654.349976
 21
507.454468
 31
0.0
  0
LINE
  5
E7
100
AcDbEntity
  8
LAY-1
  6
CONTINUOUS
 62
     3
100
AcDbLine
 10
657.650024
 20
507.454468
 30
0.0
 11
664.349976
 21
507.454468
 31
0.0
  0
LINE
  5
E8
100
AcDbEntity
  8
LAY-1
  6
CONTINUOUS
 62
     3
100
AcDbLine
 10
647.650024
 20
502.477203
 30
0.0
 11
647.650024
 21
507.454468
 31
0.0
  0
LINE
  5
E9
100
AcDbEntity
  8
LAY-1
  6
CONTINUOUS
 62
     3
100
AcDbLine
 10
654.349976
 20
507.454468
 30
0.0
 11
654.350037
 21
502.477203
 31
0.0
  0
LINE
  5
EA
100
AcDbEntity
  8
LAY-1
  6
CONTINUOUS
 62
     1
100
AcDbLine
 10
648.399963
 20
502.477203
 30
0.0
 11
648.400024
 21
507.454468
 31
0.0
  0
LINE
  5
EB
100
AcDbEntity
  8
LAY-1
  6
CONTINUOUS
 62
     1
100
AcDbLine
 10
653.599976
 20
502.477203
 30
0.0
 11
653.599976
 21
507.454468
 31
0.0
  0
LINE
  5
EC
100
AcDbEntity
  8
LAY-1
  6
CONTINUOUS
 62
     3
100
AcDbLine
 10
657.650024
 20
502.477203
 30
0.0
 11
657.650024
 21
507.454468
 31
0.0
  0
LINE
  5
ED
100
AcDbEntity
  8
LAY-1
  6
CONTINUOUS
 62
     3
100
AcDbLine
 10
664.349976
 20
507.454468
 30
0.0
 11
664.350037
 21
502.477203
 31
0.0
  0
LINE
  5
EE
100
AcDbEntity
  8
LAY-1
  6
CONTINUOUS
 62
     1
100
AcDbLine
 10
658.399963
 20
502.477203
 30
0.0
 11
658.400024
 21
507.454468
 31
0.0
  0
LINE
  5
EF
100
AcDbEntity
  8
LAY-1
  6
CONTINUOUS
 62
     1
100
AcDbLine
 10
663.599976
 20
502.477203
 30
0.0
 11
663.599976
 21
507.454468
 31
0.0
  0
LINE
  5
F0
100
AcDbEntity
  8
LAY-1
  6
CONTINUOUS
 62
     3
100
AcDbLine
 10
669.993896
 20
497.954376
 30
0.0
 11
669.718383
 21
500.19812
 31
0.0
  0
ARC
  5
F1
100
AcDbEntity
  8
LAY-1
  6
CONTINUOUS
 62
     3
100
AcDbCircle
 10
667.733276
 20
499.954376
 30
0.0
 40
2.0
100
AcDbArc
 50
6.99994
 51
89.999981
  0
ARC
  5
F2
100
AcDbEntity
  8
LAY-1
  6
CONTINUOUS
 62
     3
100
AcDbCircle
 10
667.733276
 20
495.954376
 30
0.0
 40
2.0
100
AcDbArc
 50
270.0
 51
352.999928
  0
LINE
  5
F3
100
AcDbEntity
  8
LAY-1
  6
CONTINUOUS
 62
     3
100
AcDbLine
 10
608.000061
 20
507.954437
 30
0.0
 11
613.400061
 21
507.954437
 31
0.0
  0
ARC
  5
F4
100
AcDbEntity
  8
LAY-1
  6
CONTINUOUS
 62
     3
100
AcDbCircle
 10
613.400061
 20
503.954437
 30
0.0
 40
4.0
100
AcDbArc
 50
0.0
 51
90.0
  0
LINE
  5
F5
100
AcDbEntity
  8
LAY-1
  6
CONTINUOUS
 62
     3
100
AcDbLine
 10
608.000061
 20
507.954437
 30
0.0
 11
602.600061
 21
507.954437
 31
0.0
  0
ARC
  5
F6
100
AcDbEntity
  8
LAY-1
  6
CONTINUOUS
 62
     3
100
AcDbCircle
 10
602.600061
 20
503.954437
 30
0.0
 40
4.0
100
AcDbArc
 50
90.0
 51
180.0
  0
LINE
  5
F7
100
AcDbEntity
  8
LAY-1
  6
DASHED2
 62
     3
100
AcDbLine
 10
601.500061
 20
506.754437
 30
0.0
 11
608.000061
 21
506.754437
 31
0.0
  0
LINE
  5
F8
100
AcDbEntity
  8
LAY-1
  6
DASHED2
 62
     3
100
AcDbLine
 10
601.200061
 20
506.454437
 30
0.0
 11
601.200061
 21
503.954437
 31
0.0
  0
ARC
  5
F9
100
AcDbEntity
  8
LAY-1
  6
DASHED2
 62
     3
100
AcDbCircle
 10
601.500061
 20
506.454437
 30
0.0
 40
0.3
100
AcDbArc
 50
90.0
 51
180.0
  0
LINE
  5
FA
100
AcDbEntity
  8
LAY-1
  6
DASHED2
 62
     3
100
AcDbLine
 10
614.500061
 20
506.754437
 30
0.0
 11
608.000061
 21
506.754437
 31
0.0
  0
LINE
  5
FB
100
AcDbEntity
  8
LAY-1
  6
DASHED2
 62
     3
100
AcDbLine
 10
614.800061
 20
506.454437
 30
0.0
 11
614.800061
 21
503.954437
 31
0.0
  0
ARC
  5
FC
100
AcDbEntity
  8
LAY-1
  6
DASHED2
 62
     3
100
AcDbCircle
 10
614.500061
 20
506.454437
 30
0.0
 40
0.3
100
AcDbArc
 50
0.0
 51
90.0
  0
LINE
  5
FD
100
AcDbEntity
  8
LAY-1
  6
CONTINUOUS
 62
     3
100
AcDbLine
 10
125.999969
 20
469.22998
 30
0.0
 11
125.999969
 21
470.428192
 31
0.0
  0
LINE
  5
FE
100
AcDbEntity
  8
LAY-1
  6
CONTINUOUS
 62
     3
100
AcDbLine
 10
166.999969
 20
471.499938
 30
0.0
 11
166.999969
 21
468.428192
 31
0.0
  0
LINE
  5
FF
100
AcDbEntity
  8
LAY-1
  6
CONTINUOUS
 62
     3
100
AcDbLine
 10
135.521637
 20
501.999938
 30
0.0
 11
224.0
 21
501.999938
 31
0.0
  0
LINE
  5
100
100
AcDbEntity
  8
LAY-1
  6
CONTINUOUS
 62
     3
100
AcDbLine
 10
226.0
 20
499.999938
 30
0.0
 11
226.0
 21
475.999938
 31
0.0
  0
LINE
  5
101
100
AcDbEntity
  8
LAY-1
  6
CONTINUOUS
 62
     3
100
AcDbLine
 10
224.0
 20
473.999938
 30
0.0
 11
168.999969
 21
473.999938
 31
0.0
  0
ARC
  5
102
100
AcDbEntity
  8
LAY-1
  6
CONTINUOUS
 62
     3
100
AcDbCircle
 10
166.199951
 20
474.799926
 30
0.0
 40
41.0
100
AcDbArc
 50
138.439208
 51
168.662961
  0
ARC
  5
103
100
AcDbEntity
  8
LAY-1
  6
CONTINUOUS
 62
     3
100
AcDbCircle
 10
224.0
 20
499.999938
 30
0.0
 40
2.0
100
AcDbArc
 50
0.0
 51
90.000039
  0
ARC
  5
104
100
AcDbEntity
  8
LAY-1
  6
CONTINUOUS
 62
     3
100
AcDbCircle
 10
224.0
 20
475.999938
 30
0.0
 40
2.0
100
AcDbArc
 50
270.0
 51
359.999982
  0
CIRCLE
  5
105
100
AcDbEntity
  8
LAY-1
  6
CONTINUOUS
 62
     1
100
AcDbCircle
 10
216.000092
 20
492.999969
 30
0.0
 40
3.0
  0
CIRCLE
  5
106
100
AcDbEntity
  8
LAY-1
  6
CONTINUOUS
 62
     3
100
AcDbCircle
 10
216.000092
 20
492.999969
 30
0.0
 40
2.5
  0
CIRCLE
  5
107
100
AcDbEntity
  8
LAY-1
  6
CONTINUOUS
 62
     1
100
AcDbCircle
 10
196.000031
 20
482.999969
 30
0.0
 40
3.0
  0
CIRCLE
  5
108
100
AcDbEntity
  8
LAY-1
  6
CONTINUOUS
 62
     3
100
AcDbCircle
 10
196.000031
 20
482.999969
 30
0.0
 40
2.5
  0
CIRCLE
  5
109
100
AcDbEntity
  8
LAY-1
  6
CONTINUOUS
 62
     1
100
AcDbCircle
 10
156.000092
 20
492.999969
 30
0.0
 40
3.0
  0
CIRCLE
  5
10A
100
AcDbEntity
  8
LAY-1
  6
CONTINUOUS
 62
     3
100
AcDbCircle
 10
156.000092
 20
492.999969
 30
0.0
 40
2.5
  0
CIRCLE
  5
10B
100
AcDbEntity
  8
LAY-1
  6
CONTINUOUS
 62
     1
100
AcDbCircle
 10
141.000031
 20
482.999969
 30
0.0
 40
3.0
  0
CIRCLE
  5
10C
100
AcDbEntity
  8
LAY-1
  6
CONTINUOUS
 62
     3
100
AcDbCircle
 10
141.000031
 20
482.999969
 30
0.0
 40
2.5
  0
CIRCLE
  5
10D
100
AcDbEntity
  8
LAY-1
  6
DASHED2
 62
     3
100
AcDbCircle
 10
122.0
 20
440.0
 30
0.0
 40
11.9
  0
CIRCLE
  5
10E
100
AcDbEntity
  8
LAY-1
  6
CONTINUOUS
 62
     3
100
AcDbCircle
 10
122.0
 20
440.0
 30
0.0
 40
9.4
  0
CIRCLE
  5
10F
100
AcDbEntity
  8
LAY-1
  6
DASHED2
 62
     3
100
AcDbCircle
 10
122.0
 20
440.0
 30
0.0
 40
6.25
  0
ARC
  5
110
100
AcDbEntity
  8
LAY-1
  6
CONTINUOUS
 62
     3
100
AcDbCircle
 10
121.999969
 20
439.999938
 30
0.0
 40
16.0
100
AcDbArc
 50
135.000029
 51
314.999992
  0
LINE
  5
111
100
AcDbEntity
  8
LAY-1
  6
CONTINUOUS
 62
     3
100
AcDbLine
 10
166.999969
 20
464.226379
 30
0.0
 11
166.999969
 21
471.999938
 31
0.0
  0
LINE
  5
112
100
AcDbEntity
  8
LAY-1
  6
CONTINUOUS
 62
     3
100
AcDbLine
 10
166.999969
 20
462.999938
 30
0.0
 11
125.999969
 21
462.999938
 31
0.0
  0
LINE
  5
113
100
AcDbEntity
  8
LAY-1
  6
CONTINUOUS
 62
     3
100
AcDbLine
 10
167.000007
 20
462.999938
 30
0.0
 11
133.31366
 21
428.686218
 31
0.0
  0
LINE
  5
114
100
AcDbEntity
  8
LAY-1
  6
CONTINUOUS
 62
     3
100
AcDbLine
 10
124.819946
 20
462.099426
 30
0.0
 11
110.686279
 21
451.313629
 31
0.0
  0
LINE
  5
115
100
AcDbEntity
  8
LAY-1
  6
CONTINUOUS
 62
     3
100
AcDbLine
 10
125.999969
 20
482.85971
 30
0.0
 11
125.999969
 21
464.484313
 31
0.0
  0
ARC
  5
116
100
AcDbEntity
  8
LAY-1
  6
CONTINUOUS
 62
     3
100
AcDbCircle
 10
168.999969
 20
471.999938
 30
0.0
 40
2.0
100
AcDbArc
 50
90.000039
 51
180.00002
  0
ARC
  5
117
100
AcDbEntity
  8
LAY-1
  6
CONTINUOUS
 62
     3
100
AcDbCircle
 10
163.999969
 20
464.226379
 30
0.0
 40
3.0
100
AcDbArc
 50
315.52866
 51
359.999982
  0
ARC
  5
118
100
AcDbEntity
  8
LAY-1
  6
CONTINUOUS
 62
     3
100
AcDbCircle
 10
122.999969
 20
464.484313
 30
0.0
 40
3.0
100
AcDbArc
 50
307.348198
 51
359.999982
  0
ARC
  5
119
100
AcDbEntity
  8
LAY-1
  6
CONTINUOUS
 62
     3
100
AcDbCircle
 10
122.0
 20
439.999969
 30
0.0
 40
18.0
100
AcDbArc
 50
135.000029
 51
314.999992
  0
LINE
  5
11A
100
AcDbEntity
  8
LAY-1
  6
CONTINUOUS
 62
     3
100
AcDbLine
 10
172.455811
 20
464.999969
 30
0.0
 11
134.727905
 21
427.272033
 31
0.0
  0
LINE
  5
11B
100
AcDbEntity
  8
LAY-1
  6
CONTINUOUS
 62
     3
100
AcDbLine
 10
121.544189
 20
464.999969
 30
0.0
 11
109.272095
 21
452.727905
 31
0.0
  0
LINE
  5
11C
100
AcDbEntity
  8
LAY-1
  6
CONTINUOUS
 62
     3
100
AcDbLine
 10
122.675568
 20
465.0
 30
0.0
 11
109.837769
 21
452.1622
 31
0.0
  0
ARC
  5
11D
100
AcDbEntity
  8
LAY-1
  6
CONTINUOUS
 62
     3
100
AcDbCircle
 10
122.0
 20
439.999969
 30
0.0
 40
17.200001
100
AcDbArc
 50
135.000029
 51
314.999992
  0
LINE
  5
11E
100
AcDbEntity
  8
LAY-1
  6
CONTINUOUS
 62
     3
100
AcDbLine
 10
171.324463
 20
464.999969
 30
0.0
 11
134.162231
 21
427.837738
 31
0.0
  0
LINE
  5
11F
100
AcDbEntity
  8
LAY-1
  6
CONTINUOUS
 62
     3
100
AcDbLine
 10
121.544189
 20
464.999969
 30
0.0
 11
125.999969
 21
464.999969
 31
0.0
  0
LINE
  5
120
100
AcDbEntity
  8
LAY-1
  6
CONTINUOUS
 62
     3
100
AcDbLine
 10
172.455811
 20
464.999969
 30
0.0
 11
166.999969
 21
464.999969
 31
0.0
  0
LINE
  5
121
100
AcDbEntity
  8
LAY-1
  6
DASHED2
 62
     3
100
AcDbLine
 10
125.999969
 20
464.999969
 30
0.0
 11
166.999969
 21
464.999969
 31
0.0
  0
LINE
  5
122
100
AcDbEntity
  8
LAY-1
  6
DASHED2
 62
     3
100
AcDbLine
 10
591.80011
 20
488.754425
 30
0.0
 11
632.993713
 21
488.754456
 31
0.0
  0
LINE
  5
123
100
AcDbEntity
  8
LAY-1
  6
DASHED2
 62
     3
100
AcDbLine
 10
590.80011
 20
503.954437
 30
0.0
 11
590.80011
 21
489.754425
 31
0.0
  0
ARC
  5
124
100
AcDbEntity
  8
LAY-1
  6
CONTINUOUS
 62
     3
100
AcDbCircle
 10
591.000122
 20
488.954437
 30
0.0
 40
1.0
100
AcDbArc
 50
180.00002
 51
270.0
  0
ARC
  5
125
100
AcDbEntity
  8
LAY-1
  6
CONTINUOUS
 62
     3
100
AcDbCircle
 10
591.80011
 20
489.754425
 30
0.0
 40
1.0
100
AcDbArc
 50
180.00002
 51
270.0
  0
LINE
  5
126
100
AcDbEntity
  8
LAY-2
  6
CONTINUOUS
 62
     3
100
AcDbLine
 10
124.544189
 20
303.000062
 30
0.0
 11
129.000031
 21
303.000062
 31
0.0
  0
LINE
  5
127
100
AcDbEntity
  8
LAY-2
  6
CONTINUOUS
 62
     3
100
AcDbLine
 10
645.000061
 20
484.454407
 30
0.0
 11
657.000061
 21
484.454407
 31
0.0
  0
LINE
  5
128
100
AcDbEntity
  8
LAY-2
  6
DASHED2
 62
     3
100
AcDbLine
 10
657.000061
 20
484.054443
 30
0.0
 11
645.000061
 21
484.054443
 31
0.0
  0
LINE
  5
129
100
AcDbEntity
  8
LAY-2
  6
DASHED2
 62
     3
100
AcDbLine
 10
654.350037
 20
481.054443
 30
0.0
 11
647.650024
 21
481.054443
 31
0.0
  0
LINE
  5
12A
100
AcDbEntity
  8
LAY-2
  6
DASHED2
 62
     3
100
AcDbLine
 10
647.650024
 20
481.054443
 30
0.0
 11
645.000061
 21
484.054443
 31
0.0
  0
LINE
  5
12B
100
AcDbEntity
  8
LAY-2
  6
DASHED2
 62
     3
100
AcDbLine
 10
654.350037
 20
481.054443
 30
0.0
 11
657.000061
 21
484.054443
 31
0.0
  0
LINE
  5
12C
100
AcDbEntity
  8
LAY-2
  6
DASHED2
 62
     3
100
AcDbLine
 10
645.000061
 20
484.054443
 30
0.0
 11
645.000061
 21
484.454407
 31
0.0
  0
LINE
  5
12D
100
AcDbEntity
  8
LAY-2
  6
DASHED2
 62
     3
100
AcDbLine
 10
657.000061
 20
484.054443
 30
0.0
 11
657.000061
 21
484.454407
 31
0.0
  0
LINE
  5
12E
100
AcDbEntity
  8
LAY-2
  6
CONTINUOUS
 62
     3
100
AcDbLine
 10
655.000061
 20
484.454407
 30
0.0
 11
667.000061
 21
484.454407
 31
0.0
  0
LINE
  5
12F
100
AcDbEntity
  8
LAY-2
  6
DASHED2
 62
     3
100
AcDbLine
 10
667.000061
 20
484.054443
 30
0.0
 11
655.000061
 21
484.054443
 31
0.0
  0
LINE
  5
130
100
AcDbEntity
  8
LAY-2
  6
DASHED2
 62
     3
100
AcDbLine
 10
664.350037
 20
481.054443
 30
0.0
 11
657.650024
 21
481.054443
 31
0.0
  0
LINE
  5
131
100
AcDbEntity
  8
LAY-2
  6
DASHED2
 62
     3
100
AcDbLine
 10
657.650024
 20
481.054443
 30
0.0
 11
655.000061
 21
484.054443
 31
0.0
  0
LINE
  5
132
100
AcDbEntity
  8
LAY-2
  6
DASHED2
 62
     3
100
AcDbLine
 10
664.350037
 20
481.054443
 30
0.0
 11
667.000061
 21
484.054443
 31
0.0
  0
LINE
  5
133
100
AcDbEntity
  8
LAY-2
  6
DASHED2
 62
     3
100
AcDbLine
 10
655.000061
 20
484.054443
 30
0.0
 11
655.000061
 21
484.454407
 31
0.0
  0
LINE
  5
134
100
AcDbEntity
  8
LAY-2
  6
DASHED2
 62
     3
100
AcDbLine
 10
667.000061
 20
484.054443
 30
0.0
 11
667.000061
 21
484.454407
 31
0.0
  0
LINE
  5
135
100
AcDbEntity
  8
LAY-2
  6
CONTINUOUS
 62
     3
100
AcDbLine
 10
647.650085
 20
468.454407
 30
0.0
 11
654.350037
 21
468.454407
 31
0.0
  0
LINE
  5
136
100
AcDbEntity
  8
LAY-2
  6
CONTINUOUS
 62
     3
100
AcDbLine
 10
657.650085
 20
468.454407
 30
0.0
 11
664.350037
 21
468.454407
 31
0.0
  0
LINE
  5
137
100
AcDbEntity
  8
LAY-2
  6
CONTINUOUS
 62
     3
100
AcDbLine
 10
590.000061
 20
484.454407
 30
0.0
 11
636.000061
 21
484.454407
 31
0.0
  0
LINE
  5
138
100
AcDbEntity
  8
LAY-2
  6
CONTINUOUS
 62
     3
100
AcDbLine
 10
591.000061
 20
468.454407
 30
0.0
 11
636.000061
 21
468.454407
 31
0.0
  0
LINE
  5
139
100
AcDbEntity
  8
LAY-2
  6
CONTINUOUS
 62
     3
100
AcDbLine
 10
636.000061
 20
468.454407
 30
0.0
 11
636.000061
 21
484.454437
 31
0.0
  0
LINE
  5
13A
100
AcDbEntity
  8
LAY-2
  6
CONTINUOUS
 62
     3
100
AcDbLine
 10
590.000061
 20
469.454407
 30
0.0
 11
590.000061
 21
484.454407
 31
0.0
  0
LINE
  5
13B
100
AcDbEntity
  8
LAY-2
  6
CONTINUOUS
 62
     3
100
AcDbLine
 10
667.739441
 20
476.454407
 30
0.0
 11
636.000061
 21
476.454407
 31
0.0
  0
LINE
  5
13C
100
AcDbEntity
  8
LAY-2
  6
CONTINUOUS
 62
     3
100
AcDbLine
 10
670.000061
 20
480.454407
 30
0.0
 11
669.724548
 21
482.698151
 31
0.0
  0
LINE
  5
13D
100
AcDbEntity
  8
LAY-2
  6
CONTINUOUS
 62
     3
100
AcDbLine
 10
670.000061
 20
480.454407
 30
0.0
 11
669.724548
 21
478.210663
 31
0.0
  0
ARC
  5
13E
100
AcDbEntity
  8
LAY-2
  6
CONTINUOUS
 62
     3
100
AcDbCircle
 10
667.739441
 20
482.454407
 30
0.0
 40
2.0
100
AcDbArc
 50
6.99994
 51
89.999981
  0
ARC
  5
13F
100
AcDbEntity
  8
LAY-2
  6
CONTINUOUS
 62
     3
100
AcDbCircle
 10
667.739441
 20
478.454407
 30
0.0
 40
2.0
100
AcDbArc
 50
270.0
 51
352.999928
  0
LINE
  5
140
100
AcDbEntity
  8
LAY-2
  6
CONTINUOUS
 62
     3
100
AcDbLine
 10
667.739441
 20
484.454407
 30
0.0
 11
636.000061
 21
484.454407
 31
0.0
  0
LINE
  5
141
100
AcDbEntity
  8
LAY-2
  6
CONTINUOUS
 62
     3
100
AcDbLine
 10
642.000061
 20
477.454407
 30
0.0
 11
642.000061
 21
483.454407
 31
0.0
  0
ARC
  5
142
100
AcDbEntity
  8
LAY-2
  6
CONTINUOUS
 62
     3
100
AcDbCircle
 10
643.000061
 20
483.454407
 30
0.0
 40
1.0
100
AcDbArc
 50
89.999981
 51
180.00002
  0
ARC
  5
143
100
AcDbEntity
  8
LAY-2
  6
CONTINUOUS
 62
     3
100
AcDbCircle
 10
643.000061
 20
477.454407
 30
0.0
 40
1.0
100
AcDbArc
 50
180.00002
 51
270.0
  0
CIRCLE
  5
144
100
AcDbEntity
  8
LAY-2
  6
CONTINUOUS
 62
     3
100
AcDbCircle
 10
122.000031
 20
275.000031
 30
0.0
 40
6.25
  0
CIRCLE
  5
145
100
AcDbEntity
  8
LAY-2
  6
CONTINUOUS
 62
     3
100
AcDbCircle
 10
122.000031
 20
275.000031
 30
0.0
 40
8.0
  0
LINE
  5
146
100
AcDbEntity
  8
LAY-2
  6
CONTINUOUS
 62
     3
100
AcDbLine
 10
664.350037
 20
468.454407
 30
0.0
 11
664.350064
 21
471.954407
 31
0.0
  0
LINE
  5
147
100
AcDbEntity
  8
LAY-2
  6
CONTINUOUS
 62
     3
100
AcDbLine
 10
657.650085
 20
471.954407
 30
0.0
 11
657.650085
 21
468.454407
 31
0.0
  0
LINE
  5
148
100
AcDbEntity
  8
LAY-2
  6
CONTINUOUS
 62
     3
100
AcDbLine
 10
654.350037
 20
468.454407
 30
0.0
 11
654.350064
 21
471.954407
 31
0.0
  0
LINE
  5
149
100
AcDbEntity
  8
LAY-2
  6
CONTINUOUS
 62
     3
100
AcDbLine
 10
647.650085
 20
471.954407
 30
0.0
 11
647.650085
 21
468.454407
 31
0.0
  0
LINE
  5
14A
100
AcDbEntity
  8
LAY-2
  6
DASHED2
 62
     3
100
AcDbLine
 10
664.350158
 20
471.954407
 30
0.0
 11
664.350037
 21
481.054443
 31
0.0
  0
LINE
  5
14B
100
AcDbEntity
  8
LAY-2
  6
DASHED2
 62
     3
100
AcDbLine
 10
657.650085
 20
481.054443
 30
0.0
 11
657.650085
 21
471.954407
 31
0.0
  0
LINE
  5
14C
100
AcDbEntity
  8
LAY-2
  6
DASHED2
 62
     3
100
AcDbLine
 10
654.350158
 20
471.954407
 30
0.0
 11
654.350037
 21
481.054443
 31
0.0
  0
LINE
  5
14D
100
AcDbEntity
  8
LAY-2
  6
DASHED2
 62
     3
100
AcDbLine
 10
647.650085
 20
481.054443
 30
0.0
 11
647.650085
 21
471.954407
 31
0.0
  0
LINE
  5
14E
100
AcDbEntity
  8
LAY-2
  6
CONTINUOUS
 62
     1
100
AcDbLine
 10
663.600037
 20
471.954407
 30
0.0
 11
663.600037
 21
468.454407
 31
0.0
  0
LINE
  5
14F
100
AcDbEntity
  8
LAY-2
  6
CONTINUOUS
 62
     1
100
AcDbLine
 10
658.400058
 20
471.954407
 30
0.0
 11
658.400085
 21
468.454407
 31
0.0
  0
LINE
  5
150
100
AcDbEntity
  8
LAY-2
  6
CONTINUOUS
 62
     1
100
AcDbLine
 10
653.600037
 20
471.954407
 30
0.0
 11
653.600037
 21
468.454407
 31
0.0
  0
LINE
  5
151
100
AcDbEntity
  8
LAY-2
  6
CONTINUOUS
 62
     1
100
AcDbLine
 10
648.400058
 20
471.954407
 30
0.0
 11
648.400085
 21
468.454407
 31
0.0
  0
LINE
  5
152
100
AcDbEntity
  8
LAY-2
  6
DASHED2
 62
     1
100
AcDbLine
 10
663.600037
 20
481.054443
 30
0.0
 11
663.600037
 21
471.954407
 31
0.0
  0
LINE
  5
153
100
AcDbEntity
  8
LAY-2
  6
DASHED2
 62
     1
100
AcDbLine
 10
658.400024
 20
481.054443
 30
0.0
 11
658.400024
 21
471.954407
 31
0.0
  0
LINE
  5
154
100
AcDbEntity
  8
LAY-2
  6
DASHED2
 62
     1
100
AcDbLine
 10
653.600037
 20
481.054443
 30
0.0
 11
653.600037
 21
471.954407
 31
0.0
  0
LINE
  5
155
100
AcDbEntity
  8
LAY-2
  6
DASHED2
 62
     1
100
AcDbLine
 10
648.400024
 20
481.054443
 30
0.0
 11
648.400024
 21
471.954407
 31
0.0
  0
LINE
  5
156
100
AcDbEntity
  8
LAY-2
  6
CONTINUOUS
 62
     3
100
AcDbLine
 10
137.000031
 20
337.000031
 30
0.0
 11
227.000031
 21
337.000031
 31
0.0
  0
LINE
  5
157
100
AcDbEntity
  8
LAY-2
  6
CONTINUOUS
 62
     3
100
AcDbLine
 10
229.000031
 20
335.000031
 30
0.0
 11
229.000031
 21
311.000031
 31
0.0
  0
LINE
  5
158
100
AcDbEntity
  8
LAY-2
  6
CONTINUOUS
 62
     3
100
AcDbLine
 10
129.000031
 20
329.000031
 30
0.0
 11
129.000031
 21
302.439728
 31
0.0
  0
LINE
  5
159
100
AcDbEntity
  8
LAY-2
  6
CONTINUOUS
 62
     3
100
AcDbLine
 10
170.000031
 20
307.000031
 30
0.0
 11
170.000031
 21
301.615265
 31
0.0
  0
LINE
  5
15A
100
AcDbEntity
  8
LAY-2
  6
CONTINUOUS
 62
     3
100
AcDbLine
 10
227.000031
 20
309.000031
 30
0.0
 11
172.000031
 21
309.000031
 31
0.0
  0
ARC
  5
15B
100
AcDbEntity
  8
LAY-2
  6
CONTINUOUS
 62
     3
100
AcDbCircle
 10
172.000031
 20
307.000031
 30
0.0
 40
2.0
100
AcDbArc
 50
89.999981
 51
179.999963
  0
ARC
  5
15C
100
AcDbEntity
  8
LAY-2
  6
CONTINUOUS
 62
     3
100
AcDbCircle
 10
137.000031
 20
329.000031
 30
0.0
 40
8.0
100
AcDbArc
 50
89.999981
 51
180.00002
  0
LINE
  5
15D
100
AcDbEntity
  8
LAY-2
  6
DASHED2
 62
     3
100
AcDbLine
 10
170.000031
 20
301.000031
 30
0.0
 11
129.000031
 21
301.000031
 31
0.0
  0
CIRCLE
  5
15E
100
AcDbEntity
  8
LAY-2
  6
CONTINUOUS
 62
     3
100
AcDbCircle
 10
139.000031
 20
328.000031
 30
0.0
 40
3.25
  0
CIRCLE
  5
15F
100
AcDbEntity
  8
LAY-2
  6
CONTINUOUS
 62
     3
100
AcDbCircle
 10
139.000031
 20
328.000031
 30
0.0
 40
6.0
  0
CIRCLE
  5
160
100
AcDbEntity
  8
LAY-2
  6
CONTINUOUS
 62
     3
100
AcDbCircle
 10
219.000031
 20
328.000031
 30
0.0
 40
3.25
  0
CIRCLE
  5
161
100
AcDbEntity
  8
LAY-2
  6
CONTINUOUS
 62
     3
100
AcDbCircle
 10
219.000031
 20
328.000031
 30
0.0
 40
6.0
  0
CIRCLE
  5
162
100
AcDbEntity
  8
LAY-2
  6
CONTINUOUS
 62
     3
100
AcDbCircle
 10
159.000031
 20
318.000031
 30
0.0
 40
3.25
  0
CIRCLE
  5
163
100
AcDbEntity
  8
LAY-2
  6
CONTINUOUS
 62
     3
100
AcDbCircle
 10
159.000031
 20
318.000031
 30
0.0
 40
6.0
  0
CIRCLE
  5
164
100
AcDbEntity
  8
LAY-2
  6
CONTINUOUS
 62
     3
100
AcDbCircle
 10
199.000031
 20
318.000031
 30
0.0
 40
3.25
  0
CIRCLE
  5
165
100
AcDbEntity
  8
LAY-2
  6
CONTINUOUS
 62
     3
100
AcDbCircle
 10
199.000031
 20
318.000031
 30
0.0
 40
6.0
  0
LINE
  5
166
100
AcDbEntity
  8
LAY-2
  6
DASHED2
 62
     3
100
AcDbLine
 10
108.610748
 20
283.75943
 30
0.0
 11
115.971972
 21
276.650789
 31
0.0
  0
LINE
  5
167
100
AcDbEntity
  8
LAY-2
  6
DASHED2
 62
     1
100
AcDbLine
 10
108.953644
 20
284.262421
 30
0.0
 11
116.181664
 21
277.282378
 31
0.0
  0
LINE
  5
168
100
AcDbEntity
  8
LAY-2
  6
DASHED2
 62
     1
100
AcDbLine
 10
112.354218
 20
287.651276
 30
0.0
 11
119.516015
 21
280.7352
 31
0.0
  0
LINE
  5
169
100
AcDbEntity
  8
LAY-2
  6
DASHED2
 62
     3
100
AcDbLine
 10
112.826111
 20
288.029694
 30
0.0
 11
120.139921
 21
280.966813
 31
0.0
  0
ARC
  5
16A
100
AcDbEntity
  8
LAY-2
  6
CONTINUOUS
 62
     3
100
AcDbCircle
 10
227.000031
 20
311.000031
 30
0.0
 40
2.0
100
AcDbArc
 50
270.0
 51
359.999982
  0
ARC
  5
16B
100
AcDbEntity
  8
LAY-2
  6
CONTINUOUS
 62
     3
100
AcDbCircle
 10
227.000031
 20
335.000031
 30
0.0
 40
2.0
100
AcDbArc
 50
0.0
 51
89.999981
  0
LINE
  5
16C
100
AcDbEntity
  8
LAY-2
  6
DASHED2
 62
     3
100
AcDbLine
 10
129.000031
 20
303.000062
 30
0.0
 11
170.000031
 21
303.000062
 31
0.0
  0
ARC
  5
16D
100
AcDbEntity
  8
LAY-2
  6
CONTINUOUS
 62
     3
100
AcDbCircle
 10
167.000031
 20
301.615265
 30
0.0
 40
3.0
100
AcDbArc
 50
314.999992
 51
359.999982
  0
LINE
  5
16E
100
AcDbEntity
  8
LAY-2
  6
CONTINUOUS
 62
     3
100
AcDbLine
 10
175.455841
 20
303.000062
 30
0.0
 11
134.727936
 21
262.272156
 31
0.0
  0
LINE
  5
16F
100
AcDbEntity
  8
LAY-2
  6
CONTINUOUS
 62
     3
100
AcDbLine
 10
133.313751
 20
263.68631
 30
0.0
 11
169.121368
 21
299.493927
 31
0.0
  0
LINE
  5
170
100
AcDbEntity
  8
LAY-2
  6
CONTINUOUS
 62
     3
100
AcDbLine
 10
174.324463
 20
303.000062
 30
0.0
 11
134.162262
 21
262.83783
 31
0.0
  0
LINE
  5
171
100
AcDbEntity
  8
LAY-2
  6
CONTINUOUS
 62
     3
100
AcDbLine
 10
175.455841
 20
303.000062
 30
0.0
 11
170.000031
 21
303.000062
 31
0.0
  0
ARC
  5
172
100
AcDbEntity
  8
LAY-2
  6
CONTINUOUS
 62
     3
100
AcDbCircle
 10
122.000031
 20
275.000062
 30
0.0
 40
18.0
100
AcDbArc
 50
135.000029
 51
314.999992
  0
ARC
  5
173
100
AcDbEntity
  8
LAY-2
  6
CONTINUOUS
 62
     3
100
AcDbCircle
 10
122.000031
 20
275.000031
 30
0.0
 40
16.0
100
AcDbArc
 50
135.000029
 51
314.999992
  0
ARC
  5
174
100
AcDbEntity
  8
LAY-2
  6
CONTINUOUS
 62
     3
100
AcDbCircle
 10
122.000031
 20
275.000062
 30
0.0
 40
17.200001
100
AcDbArc
 50
134.999972
 51
315.000049
  0
LINE
  5
175
100
AcDbEntity
  8
LAY-2
  6
CONTINUOUS
 62
     3
100
AcDbLine
 10
124.544189
 20
303.000062
 30
0.0
 11
109.272095
 21
287.727997
 31
0.0
  0
LINE
  5
176
100
AcDbEntity
  8
LAY-2
  6
CONTINUOUS
 62
     3
100
AcDbLine
 10
125.675537
 20
303.000062
 30
0.0
 11
109.837799
 21
287.162323
 31
0.0
  0
LINE
  5
177
100
AcDbEntity
  8
LAY-2
  6
CONTINUOUS
 62
     3
100
AcDbLine
 10
127.876862
 20
300.099335
 30
0.0
 11
110.68634
 21
286.313752
 31
0.0
  0
ARC
  5
178
100
AcDbEntity
  8
LAY-2
  6
CONTINUOUS
 62
     3
100
AcDbCircle
 10
126.000031
 20
302.439728
 30
0.0
 40
3.0
100
AcDbArc
 50
308.727135
 51
359.999982
  0
LINE
  5
179
100
AcDbEntity
  8
LAY-2
  6
CONTINUOUS
 62
     3
100
AcDbLine
 10
614.243713
 20
487.954437
 30
0.0
 11
614.243713
 21
484.454407
 31
0.0
  0
LINE
  5
17A
100
AcDbEntity
  8
LAY-2
  6
CONTINUOUS
 62
     3
100
AcDbLine
 10
601.743713
 20
487.954437
 30
0.0
 11
601.743713
 21
484.454407
 31
0.0
  0
LINE
  5
17B
100
AcDbEntity
  8
LAY-2
  6
DASHED2
 62
     3
100
AcDbLine
 10
590.800049
 20
470.254395
 30
0.0
 11
590.800049
 21
484.454407
 31
0.0
  0
ARC
  5
17C
100
AcDbEntity
  8
LAY-2
  6
CONTINUOUS
 62
     3
100
AcDbCircle
 10
591.000061
 20
469.454407
 30
0.0
 40
1.0
100
AcDbArc
 50
180.00002
 51
270.0
  0
ARC
  5
17D
100
AcDbEntity
  8
LAY-2
  6
CONTINUOUS
 62
     3
100
AcDbCircle
 10
591.800049
 20
470.254395
 30
0.0
 40
1.0
100
AcDbArc
 50
180.00002
 51
270.0
  0
LINE
  5
17E
100
AcDbEntity
  8
LAY-2
  6
DASHED2
 62
     3
100
AcDbLine
 10
636.000061
 20
469.254425
 30
0.0
 11
591.800049
 21
469.254395
 31
0.0
  0
LINE
  5
17F
100
AcDbEntity
  8
LAY-3
  6
CONTINUOUS
 62
     3
100
AcDbLine
 10
174.999969
 20
140.5
 30
0.0
 11
174.999969
 21
144.204987
 31
0.0
  0
LINE
  5
180
100
AcDbEntity
  8
LAY-3
  6
CONTINUOUS
 62
     3
100
AcDbLine
 10
587.000061
 20
345.166718
 30
0.0
 11
636.0
 21
345.166718
 31
0.0
  0
LINE
  5
181
100
AcDbEntity
  8
LAY-3
  6
CONTINUOUS
 62
     3
100
AcDbLine
 10
636.000061
 20
324.166718
 30
0.0
 11
586.000061
 21
324.166718
 31
0.0
  0
LINE
  5
182
100
AcDbEntity
  8
LAY-3
  6
CONTINUOUS
 62
     3
100
AcDbLine
 10
636.000061
 20
324.166718
 30
0.0
 11
636.0
 21
345.166718
 31
0.0
  0
LINE
  5
183
100
AcDbEntity
  8
LAY-3
  6
CONTINUOUS
 62
     3
100
AcDbLine
 10
586.000061
 20
324.166718
 30
0.0
 11
586.000061
 21
344.166718
 31
0.0
  0
LINE
  5
184
100
AcDbEntity
  8
LAY-3
  6
CONTINUOUS
 62
     3
100
AcDbLine
 10
667.432495
 20
324.166748
 30
0.0
 11
590.567627
 21
324.166748
 31
0.0
  0
LINE
  5
185
100
AcDbEntity
  8
LAY-3
  6
CONTINUOUS
 62
     3
100
AcDbLine
 10
670.000061
 20
330.666748
 30
0.0
 11
669.417603
 21
335.410492
 31
0.0
  0
LINE
  5
186
100
AcDbEntity
  8
LAY-3
  6
CONTINUOUS
 62
     3
100
AcDbLine
 10
670.000061
 20
330.666748
 30
0.0
 11
669.417603
 21
325.923004
 31
0.0
  0
ARC
  5
187
100
AcDbEntity
  8
LAY-3
  6
CONTINUOUS
 62
     3
100
AcDbCircle
 10
667.432495
 20
335.166779
 30
0.0
 40
2.0
100
AcDbArc
 50
6.99994
 51
89.999981
  0
ARC
  5
188
100
AcDbEntity
  8
LAY-3
  6
CONTINUOUS
 62
     3
100
AcDbCircle
 10
667.432495
 20
326.166748
 30
0.0
 40
2.0
100
AcDbArc
 50
270.0
 51
353.000042
  0
LINE
  5
189
100
AcDbEntity
  8
LAY-3
  6
CONTINUOUS
 62
     3
100
AcDbLine
 10
645.000061
 20
324.166809
 30
0.0
 11
657.000061
 21
324.166809
 31
0.0
  0
LINE
  5
18A
100
AcDbEntity
  8
LAY-3
  6
DASHED2
 62
     3
100
AcDbLine
 10
657.000061
 20
324.566772
 30
0.0
 11
645.000061
 21
324.566772
 31
0.0
  0
LINE
  5
18B
100
AcDbEntity
  8
LAY-3
  6
DASHED2
 62
     3
100
AcDbLine
 10
654.350037
 20
327.566772
 30
0.0
 11
647.650024
 21
327.566772
 31
0.0
  0
LINE
  5
18C
100
AcDbEntity
  8
LAY-3
  6
DASHED2
 62
     3
100
AcDbLine
 10
647.650024
 20
327.566772
 30
0.0
 11
645.000061
 21
324.566772
 31
0.0
  0
LINE
  5
18D
100
AcDbEntity
  8
LAY-3
  6
DASHED2
 62
     3
100
AcDbLine
 10
654.350037
 20
327.566772
 30
0.0
 11
657.000061
 21
324.566772
 31
0.0
  0
LINE
  5
18E
100
AcDbEntity
  8
LAY-3
  6
CONTINUOUS
 62
     3
100
AcDbLine
 10
645.000061
 20
324.566772
 30
0.0
 11
645.000061
 21
324.166809
 31
0.0
  0
LINE
  5
18F
100
AcDbEntity
  8
LAY-3
  6
CONTINUOUS
 62
     3
100
AcDbLine
 10
657.000061
 20
324.566772
 30
0.0
 11
657.000061
 21
324.166809
 31
0.0
  0
LINE
  5
190
100
AcDbEntity
  8
LAY-3
  6
DASHED2
 62
     3
100
AcDbLine
 10
647.650085
 20
344.166809
 30
0.0
 11
654.350037
 21
344.166809
 31
0.0
  0
LINE
  5
191
100
AcDbEntity
  8
LAY-3
  6
DASHED2
 62
     3
100
AcDbLine
 10
647.650085
 20
327.566772
 30
0.0
 11
647.650085
 21
337.166748
 31
0.0
  0
LINE
  5
192
100
AcDbEntity
  8
LAY-3
  6
DASHED2
 62
     3
100
AcDbLine
 10
654.350098
 20
337.166748
 30
0.0
 11
654.350037
 21
327.566772
 31
0.0
  0
LINE
  5
193
100
AcDbEntity
  8
LAY-3
  6
DASHED2
 62
     1
100
AcDbLine
 10
648.400024
 20
327.566772
 30
0.0
 11
648.400024
 21
337.166748
 31
0.0
  0
LINE
  5
194
100
AcDbEntity
  8
LAY-3
  6
DASHED2
 62
     1
100
AcDbLine
 10
653.600037
 20
327.566772
 30
0.0
 11
653.600037
 21
337.166748
 31
0.0
  0
LINE
  5
195
100
AcDbEntity
  8
LAY-3
  6
DASHED2
 62
     3
100
AcDbLine
 10
647.650085
 20
337.166748
 30
0.0
 11
647.650085
 21
344.166809
 31
0.0
  0
LINE
  5
196
100
AcDbEntity
  8
LAY-3
  6
DASHED2
 62
     3
100
AcDbLine
 10
654.350037
 20
344.166809
 30
0.0
 11
654.350098
 21
337.166748
 31
0.0
  0
LINE
  5
197
100
AcDbEntity
  8
LAY-3
  6
DASHED2
 62
     1
100
AcDbLine
 10
648.400024
 20
337.166748
 30
0.0
 11
648.400085
 21
344.166809
 31
0.0
  0
LINE
  5
198
100
AcDbEntity
  8
LAY-3
  6
DASHED2
 62
     1
100
AcDbLine
 10
653.600037
 20
337.166748
 30
0.0
 11
653.600037
 21
344.166809
 31
0.0
  0
LINE
  5
199
100
AcDbEntity
  8
LAY-3
  6
CONTINUOUS
 62
     3
100
AcDbLine
 10
655.000061
 20
324.166809
 30
0.0
 11
667.000061
 21
324.166809
 31
0.0
  0
LINE
  5
19A
100
AcDbEntity
  8
LAY-3
  6
DASHED2
 62
     3
100
AcDbLine
 10
667.000061
 20
324.566772
 30
0.0
 11
655.000061
 21
324.566772
 31
0.0
  0
LINE
  5
19B
100
AcDbEntity
  8
LAY-3
  6
DASHED2
 62
     3
100
AcDbLine
 10
664.350037
 20
327.566772
 30
0.0
 11
657.650024
 21
327.566772
 31
0.0
  0
LINE
  5
19C
100
AcDbEntity
  8
LAY-3
  6
DASHED2
 62
     3
100
AcDbLine
 10
657.650024
 20
327.566772
 30
0.0
 11
655.000061
 21
324.566772
 31
0.0
  0
LINE
  5
19D
100
AcDbEntity
  8
LAY-3
  6
DASHED2
 62
     3
100
AcDbLine
 10
664.350037
 20
327.566772
 30
0.0
 11
667.000061
 21
324.566772
 31
0.0
  0
LINE
  5
19E
100
AcDbEntity
  8
LAY-3
  6
CONTINUOUS
 62
     3
100
AcDbLine
 10
655.000061
 20
324.566772
 30
0.0
 11
655.000061
 21
324.166809
 31
0.0
  0
LINE
  5
19F
100
AcDbEntity
  8
LAY-3
  6
CONTINUOUS
 62
     3
100
AcDbLine
 10
667.000061
 20
324.566772
 30
0.0
 11
667.000061
 21
324.166809
 31
0.0
  0
LINE
  5
1A0
100
AcDbEntity
  8
LAY-3
  6
DASHED2
 62
     3
100
AcDbLine
 10
657.650085
 20
344.166809
 30
0.0
 11
664.350037
 21
344.166809
 31
0.0
  0
LINE
  5
1A1
100
AcDbEntity
  8
LAY-3
  6
DASHED2
 62
     3
100
AcDbLine
 10
657.650085
 20
327.566772
 30
0.0
 11
657.650085
 21
337.166748
 31
0.0
  0
LINE
  5
1A2
100
AcDbEntity
  8
LAY-3
  6
DASHED2
 62
     3
100
AcDbLine
 10
664.350098
 20
337.166748
 30
0.0
 11
664.350037
 21
327.566772
 31
0.0
  0
LINE
  5
1A3
100
AcDbEntity
  8
LAY-3
  6
DASHED2
 62
     1
100
AcDbLine
 10
658.400024
 20
327.566772
 30
0.0
 11
658.400024
 21
337.166748
 31
0.0
  0
LINE
  5
1A4
100
AcDbEntity
  8
LAY-3
  6
DASHED2
 62
     1
100
AcDbLine
 10
663.600037
 20
327.566772
 30
0.0
 11
663.600037
 21
337.166748
 31
0.0
  0
LINE
  5
1A5
100
AcDbEntity
  8
LAY-3
  6
DASHED2
 62
     3
100
AcDbLine
 10
657.650085
 20
337.166748
 30
0.0
 11
657.650085
 21
344.166809
 31
0.0
  0
LINE
  5
1A6
100
AcDbEntity
  8
LAY-3
  6
DASHED2
 62
     3
100
AcDbLine
 10
664.350037
 20
344.166809
 30
0.0
 11
664.350098
 21
337.166748
 31
0.0
  0
LINE
  5
1A7
100
AcDbEntity
  8
LAY-3
  6
DASHED2
 62
     1
100
AcDbLine
 10
658.400024
 20
337.166748
 30
0.0
 11
658.400085
 21
344.166809
 31
0.0
  0
LINE
  5
1A8
100
AcDbEntity
  8
LAY-3
  6
DASHED2
 62
     1
100
AcDbLine
 10
663.600037
 20
337.166748
 30
0.0
 11
663.600037
 21
344.166809
 31
0.0
  0
LINE
  5
1A9
100
AcDbEntity
  8
LAY-3
  6
CONTINUOUS
 62
     3
100
AcDbLine
 10
642.000061
 20
325.166809
 30
0.0
 11
642.000061
 21
336.166748
 31
0.0
  0
ARC
  5
1AA
100
AcDbEntity
  8
LAY-3
  6
CONTINUOUS
 62
     3
100
AcDbCircle
 10
643.000061
 20
336.166748
 30
0.0
 40
1.0
100
AcDbArc
 50
90.000039
 51
180.00002
  0
ARC
  5
1AB
100
AcDbEntity
  8
LAY-3
  6
CONTINUOUS
 62
     3
100
AcDbCircle
 10
643.000061
 20
325.166809
 30
0.0
 40
1.0
100
AcDbArc
 50
180.00002
 51
270.0
  0
LINE
  5
1AC
100
AcDbEntity
  8
LAY-3
  6
CONTINUOUS
 62
     3
100
AcDbLine
 10
636.000031
 20
324.166718
 30
0.0
 11
636.000031
 21
345.166718
 31
0.0
  0
LINE
  5
1AD
100
AcDbEntity
  8
LAY-3
  6
CONTINUOUS
 62
     3
100
AcDbLine
 10
124.999977
 20
174.0
 30
0.0
 11
300.999939
 21
174.0
 31
0.0
  0
LINE
  5
1AE
100
AcDbEntity
  8
LAY-3
  6
CONTINUOUS
 62
     3
100
AcDbLine
 10
302.999939
 20
172.0
 30
0.0
 11
302.999939
 21
148.0
 31
0.0
  0
LINE
  5
1AF
100
AcDbEntity
  8
LAY-3
  6
CONTINUOUS
 62
     3
100
AcDbLine
 10
174.999969
 20
144.0
 30
0.0
 11
174.999969
 21
138.818237
 31
0.0
  0
LINE
  5
1B0
100
AcDbEntity
  8
LAY-3
  6
CONTINUOUS
 62
     3
100
AcDbLine
 10
300.999939
 20
146.0
 30
0.0
 11
176.999969
 21
146.0
 31
0.0
  0
ARC
  5
1B1
100
AcDbEntity
  8
LAY-3
  6
CONTINUOUS
 62
     3
100
AcDbCircle
 10
176.999969
 20
144.0
 30
0.0
 40
2.0
100
AcDbArc
 50
90.000039
 51
180.00002
  0
ARC
  5
1B2
100
AcDbEntity
  8
LAY-3
  6
CONTINUOUS
 62
     3
100
AcDbCircle
 10
300.999939
 20
148.0
 30
0.0
 40
2.0
100
AcDbArc
 50
270.0
 51
359.999982
  0
ARC
  5
1B3
100
AcDbEntity
  8
LAY-3
  6
CONTINUOUS
 62
     3
100
AcDbCircle
 10
300.999939
 20
172.0
 30
0.0
 40
2.0
100
AcDbArc
 50
0.0
 51
90.000039
  0
ARC
  5
1B4
100
AcDbEntity
  8
LAY-3
  6
CONTINUOUS
 62
     3
100
AcDbCircle
 10
124.999977
 20
172.0
 30
0.0
 40
2.0
100
AcDbArc
 50
90.000039
 51
180.00002
  0
CIRCLE
  5
1B5
100
AcDbEntity
  8
LAY-3
  6
CONTINUOUS
 62
     3
100
AcDbCircle
 10
132.999977
 20
165.0
 30
0.0
 40
3.25
  0
CIRCLE
  5
1B6
100
AcDbEntity
  8
LAY-3
  6
DASHED2
 62
     3
100
AcDbCircle
 10
132.999977
 20
165.0
 30
0.0
 40
6.0
  0
CIRCLE
  5
1B7
100
AcDbEntity
  8
LAY-3
  6
CONTINUOUS
 62
     3
100
AcDbCircle
 10
197.999969
 20
165.0
 30
0.0
 40
3.25
  0
CIRCLE
  5
1B8
100
AcDbEntity
  8
LAY-3
  6
DASHED2
 62
     3
100
AcDbCircle
 10
197.999969
 20
165.0
 30
0.0
 40
6.0
  0
CIRCLE
  5
1B9
100
AcDbEntity
  8
LAY-3
  6
CONTINUOUS
 62
     3
100
AcDbCircle
 10
262.999969
 20
165.0
 30
0.0
 40
3.25
  0
CIRCLE
  5
1BA
100
AcDbEntity
  8
LAY-3
  6
DASHED2
 62
     3
100
AcDbCircle
 10
262.999969
 20
165.0
 30
0.0
 40
6.0
  0
CIRCLE
  5
1BB
100
AcDbEntity
  8
LAY-3
  6
CONTINUOUS
 62
     3
100
AcDbCircle
 10
162.999969
 20
155.0
 30
0.0
 40
3.25
  0
CIRCLE
  5
1BC
100
AcDbEntity
  8
LAY-3
  6
DASHED2
 62
     3
100
AcDbCircle
 10
162.999969
 20
155.0
 30
0.0
 40
6.0
  0
CIRCLE
  5
1BD
100
AcDbEntity
  8
LAY-3
  6
CONTINUOUS
 62
     3
100
AcDbCircle
 10
227.999969
 20
155.0
 30
0.0
 40
3.25
  0
CIRCLE
  5
1BE
100
AcDbEntity
  8
LAY-3
  6
DASHED2
 62
     3
100
AcDbCircle
 10
227.999969
 20
155.0
 30
0.0
 40
6.0
  0
CIRCLE
  5
1BF
100
AcDbEntity
  8
LAY-3
  6
CONTINUOUS
 62
     3
100
AcDbCircle
 10
292.999939
 20
155.0
 30
0.0
 40
3.25
  0
CIRCLE
  5
1C0
100
AcDbEntity
  8
LAY-3
  6
DASHED2
 62
     3
100
AcDbCircle
 10
292.999939
 20
155.0
 30
0.0
 40
6.0
  0
LINE
  5
1C1
100
AcDbEntity
  8
LAY-3
  6
CONTINUOUS
 62
     3
100
AcDbLine
 10
118.887306
 20
140.0
 30
0.0
 11
181.035797
 21
140.0
 31
0.0
  0
LINE
  5
1C2
100
AcDbEntity
  8
LAY-3
  6
CONTINUOUS
 62
     3
100
AcDbLine
 10
137.517921
 20
96.482086
 30
0.0
 11
181.035767
 21
140.0
 31
0.0
  0
LINE
  5
1C3
100
AcDbEntity
  8
LAY-3
  6
DASHED2
 62
     3
100
AcDbLine
 10
179.904388
 20
140.0
 30
0.0
 11
135.879768
 21
95.97525
 31
0.0
  0
LINE
  5
1C4
100
AcDbEntity
  8
LAY-3
  6
DASHED2
 62
     3
100
AcDbLine
 10
133.102058
 20
95.364395
 30
0.0
 11
174.426483
 21
137.416382
 31
0.0
  0
ARC
  5
1C5
100
AcDbEntity
  8
LAY-3
  6
CONTINUOUS
 62
     3
100
AcDbCircle
 10
172.999969
 20
138.818237
 30
0.0
 40
2.0
100
AcDbArc
 50
315.500012
 51
359.999982
  0
ARC
  5
1C6
100
AcDbEntity
  8
LAY-3
  6
CONTINUOUS
 62
     3
100
AcDbCircle
 10
122.000008
 20
112.0
 30
0.0
 40
22.0
100
AcDbArc
 50
135.000029
 51
314.999992
  0
ARC
  5
1C7
100
AcDbEntity
  8
LAY-3
  6
DASHED2
 62
     3
100
AcDbCircle
 10
122.000008
 20
112.0
 30
0.0
 40
21.200001
100
AcDbArc
 50
135.000029
 51
310.897327
  0
ARC
  5
1C8
100
AcDbEntity
  8
LAY-3
  6
DASHED2
 62
     3
100
AcDbCircle
 10
121.999977
 20
112.0
 30
0.0
 40
20.0
100
AcDbArc
 50
145.481203
 51
303.717994
  0
LINE
  5
1C9
100
AcDbEntity
  8
LAY-3
  6
CONTINUOUS
 62
     3
100
AcDbLine
 10
106.443672
 20
127.556366
 30
0.0
 11
118.887306
 21
140.0
 31
0.0
  0
LINE
  5
1CA
100
AcDbEntity
  8
LAY-3
  6
DASHED2
 62
     3
100
AcDbLine
 10
105.521156
 20
123.333557
 30
0.0
 11
122.285561
 21
137.400513
 31
0.0
  0
LINE
  5
1CB
100
AcDbEntity
  8
LAY-3
  6
DASHED2
 62
     3
100
AcDbLine
 10
119.45298
 20
139.434326
 30
0.0
 11
107.009346
 21
126.990662
 31
0.0
  0
ARC
  5
1CC
100
AcDbEntity
  8
LAY-3
  6
CONTINUOUS
 62
     3
100
AcDbCircle
 10
120.999977
 20
138.932617
 30
0.0
 40
2.0
100
AcDbArc
 50
310.000018
 51
359.999982
  0
LINE
  5
1CD
100
AcDbEntity
  8
LAY-3
  6
DASHED2
 62
     3
100
AcDbLine
 10
122.812596
 20
138.087387
 30
0.0
 11
174.817563
 21
138.087387
 31
0.0
  0
LINE
  5
1CE
100
AcDbEntity
  8
LAY-3
  6
CONTINUOUS
 62
     3
100
AcDbLine
 10
122.999977
 20
172.0
 30
0.0
 11
122.999977
 21
138.932617
 31
0.0
  0
LINE
  5
1CF
100
AcDbEntity
  8
LAY-3
  6
CONTINUOUS
 62
     3
100
AcDbLine
 10
636.000028
 20
337.166748
 30
0.0
 11
667.432495
 21
337.166779
 31
0.0
  0
LINE
  5
1D0
100
AcDbEntity
  8
LAY-3
  6
DASHED2
 62
     3
100
AcDbLine
 10
133.85212
 20
107.5
 30
0.0
 11
110.147897
 21
107.5
 31
0.0
  0
LINE
  5
1D1
100
AcDbEntity
  8
LAY-3
  6
DASHED2
 62
     3
100
AcDbLine
 10
133.85212
 20
116.5
 30
0.0
 11
110.147897
 21
116.5
 31
0.0
  0
ARC
  5
1D2
100
AcDbEntity
  8
LAY-3
  6
DASHED2
 62
     3
100
AcDbCircle
 10
122.000008
 20
111.999984
 30
0.0
 40
12.75
100
AcDbArc
 50
149.349145
 51
209.35341
  0
ARC
  5
1D3
100
AcDbEntity
  8
LAY-3
  6
DASHED2
 62
     3
100
AcDbCircle
 10
122.000008
 20
111.999984
 30
0.0
 40
12.75
100
AcDbArc
 50
330.646588
 51
30.650853
  0
LINE
  5
1D4
100
AcDbEntity
  8
LAY-3
  6
DASHED2
 62
     3
100
AcDbLine
 10
132.511025
 20
105.749984
 30
0.0
 11
110.886956
 21
105.749984
 31
0.0
  0
LINE
  5
1D5
100
AcDbEntity
  8
LAY-3
  6
DASHED2
 62
     3
100
AcDbLine
 10
133.113061
 20
118.249984
 30
0.0
 11
110.886956
 21
118.249984
 31
0.0
  0
LINE
  5
1D6
100
AcDbEntity
  8
LAY-3
  6
DASHED2
 62
     3
100
AcDbLine
 10
602.500061
 20
344.36673
 30
0.0
 11
613.500061
 21
344.36673
 31
0.0
  0
LINE
  5
1D7
100
AcDbEntity
  8
LAY-3
  6
DASHED2
 62
     3
100
AcDbLine
 10
612.307811
 20
344.36673
 30
0.0
 11
612.500288
 21
342.16671
 31
0.0
  0
LINE
  5
1D8
100
AcDbEntity
  8
LAY-3
  6
DASHED2
 62
     3
100
AcDbLine
 10
603.692311
 20
344.36673
 30
0.0
 11
603.499834
 21
342.16671
 31
0.0
  0
LINE
  5
1D9
100
AcDbEntity
  8
LAY-3
  6
DASHED2
 62
     3
100
AcDbLine
 10
613.500061
 20
344.36673
 30
0.0
 11
636.0
 21
344.36673
 31
0.0
  0
LINE
  5
1DA
100
AcDbEntity
  8
LAY-3
  6
DASHED2
 62
     3
100
AcDbLine
 10
587.800049
 20
344.36673
 30
0.0
 11
602.500061
 21
344.36673
 31
0.0
  0
ARC
  5
1DB
100
AcDbEntity
  8
LAY-3
  6
DASHED2
 62
     3
100
AcDbCircle
 10
587.800049
 20
343.36673
 30
0.0
 40
1.0
100
AcDbArc
 50
89.999981
 51
180.000192
  0
ARC
  5
1DC
100
AcDbEntity
  8
LAY-3
  6
CONTINUOUS
 62
     3
100
AcDbCircle
 10
587.000061
 20
344.166718
 30
0.0
 40
1.0
100
AcDbArc
 50
89.999981
 51
180.00002
  0
LINE
  5
1DD
100
AcDbEntity
  8
LAY-3
  6
DASHED2
 62
     3
100
AcDbLine
 10
586.80011
 20
324.166718
 30
0.0
 11
586.800049
 21
343.36673
 31
0.0
  0
LINE
  5
1DE
100
AcDbEntity
  8
LAY-4
  6
CONTINUOUS
 62
     3
100
AcDbLine
 10
648.000061
 20
314.16671
 30
0.0
 11
568.000061
 21
314.16671
 31
0.0
  0
LINE
  5
1DF
100
AcDbEntity
  8
LAY-4
  6
CONTINUOUS
 62
     3
100
AcDbLine
 10
595.650061
 20
322.16671
 30
0.0
 11
595.650061
 21
321.16671
 31
0.0
  0
LINE
  5
1E0
100
AcDbEntity
  8
LAY-4
  6
CONTINUOUS
 62
     3
100
AcDbLine
 10
620.350061
 20
321.16671
 30
0.0
 11
620.350061
 21
322.16671
 31
0.0
  0
LINE
  5
1E1
100
AcDbEntity
  8
LAY-4
  6
CONTINUOUS
 62
     3
100
AcDbLine
 10
595.650061
 20
322.16671
 30
0.0
 11
601.750061
 21
322.16671
 31
0.0
  0
LINE
  5
1E2
100
AcDbEntity
  8
LAY-4
  6
CONTINUOUS
 62
     3
100
AcDbLine
 10
614.250061
 20
322.16671
 30
0.0
 11
620.350061
 21
322.16671
 31
0.0
  0
LINE
  5
1E3
100
AcDbEntity
  8
LAY-4
  6
CONTINUOUS
 62
     3
100
AcDbLine
 10
595.500061
 20
321.16671
 30
0.0
 11
620.500061
 21
321.16671
 31
0.0
  0
LINE
  5
1E4
100
AcDbEntity
  8
LAY-4
  6
CONTINUOUS
 62
     3
100
AcDbLine
 10
620.500061
 20
321.16671
 30
0.0
 11
620.500061
 21
314.16671
 31
0.0
  0
LINE
  5
1E5
100
AcDbEntity
  8
LAY-4
  6
CONTINUOUS
 62
     3
100
AcDbLine
 10
595.500061
 20
321.16671
 30
0.0
 11
595.500061
 21
314.16671
 31
0.0
  0
LINE
  5
1E6
100
AcDbEntity
  8
LAY-4
  6
DASHED2
 62
     3
100
AcDbLine
 10
612.500288
 20
342.16671
 30
0.0
 11
603.499834
 21
342.16671
 31
0.0
  0
LINE
  5
1E7
100
AcDbEntity
  8
LAY-4
  6
DASHED2
 62
     3
100
AcDbLine
 10
603.412346
 20
341.16671
 30
0.0
 11
612.587776
 21
341.16671
 31
0.0
  0
LINE
  5
1E8
100
AcDbEntity
  8
LAY-4
  6
DASHED2
 62
     3
100
AcDbLine
 10
612.500288
 20
342.16671
 30
0.0
 11
614.075083
 21
324.166718
 31
0.0
  0
LINE
  5
1E9
100
AcDbEntity
  8
LAY-4
  6
DASHED2
 62
     3
100
AcDbLine
 10
603.499834
 20
342.16671
 30
0.0
 11
601.925039
 21
324.166718
 31
0.0
  0
LINE
  5
1EA
100
AcDbEntity
  8
LAY-4
  6
CONTINUOUS
 62
     3
100
AcDbLine
 10
614.075083
 20
324.166718
 30
0.0
 11
614.250061
 21
322.16671
 31
0.0
  0
LINE
  5
1EB
100
AcDbEntity
  8
LAY-4
  6
CONTINUOUS
 62
     3
100
AcDbLine
 10
601.925039
 20
324.166718
 30
0.0
 11
601.750061
 21
322.16671
 31
0.0
  0
CIRCLE
  5
1EC
100
AcDbEntity
  8
LAY-4
  6
CONTINUOUS
 62
     3
100
AcDbCircle
 10
566.499969
 20
149.699969
 30
0.0
 40
12.5
  0
CIRCLE
  5
1ED
100
AcDbEntity
  8
LAY-4
  6
CONTINUOUS
 62
     3
100
AcDbCircle
 10
566.499969
 20
149.699969
 30
0.0
 40
2.0
  0
CIRCLE
  5
1EE
100
AcDbEntity
  8
LAY-4
  6
CONTINUOUS
 62
     3
100
AcDbCircle
 10
566.499969
 20
149.699969
 30
0.0
 40
1.575
  0
ARC
  5
1EF
100
AcDbEntity
  8
LAY-4
  6
CONTINUOUS
 62
     3
100
AcDbCircle
 10
566.499969
 20
149.699969
 30
0.0
 40
12.0
100
AcDbArc
 50
157.9744
 51
202.0256
  0
ARC
  5
1F0
100
AcDbEntity
  8
LAY-4
  6
CONTINUOUS
 62
     3
100
AcDbCircle
 10
566.499969
 20
149.699969
 30
0.0
 40
12.0
100
AcDbArc
 50
337.9744
 51
22.0256
  0
CIRCLE
  5
1F1
100
AcDbEntity
  8
LAY-4
  6
CONTINUOUS
 62
     3
100
AcDbCircle
 10
566.499969
 20
149.699969
 30
0.0
 40
12.35
  0
LINE
  5
1F2
100
AcDbEntity
  8
LAY-4
  6
CONTINUOUS
 62
     3
100
AcDbLine
 10
554.999089
 20
154.200219
 30
0.0
 11
578.000849
 21
154.200219
 31
0.0
  0
LINE
  5
1F3
100
AcDbEntity
  8
LAY-4
  6
CONTINUOUS
 62
     3
100
AcDbLine
 10
555.848209
 20
155.949969
 30
0.0
 11
577.151729
 21
155.949969
 31
0.0
  0
LINE
  5
1F4
100
AcDbEntity
  8
LAY-4
  6
CONTINUOUS
 62
     3
100
AcDbLine
 10
555.848209
 20
143.449969
 30
0.0
 11
577.151729
 21
143.449969
 31
0.0
  0
LINE
  5
1F5
100
AcDbEntity
  8
LAY-4
  6
CONTINUOUS
 62
     3
100
AcDbLine
 10
554.999089
 20
145.199719
 30
0.0
 11
578.000849
 21
145.199719
 31
0.0
  0
LINE
  5
1F6
100
AcDbEntity
  8
LAY-4
  6
CONTINUOUS
 62
     3
100
AcDbLine
 10
536.499969
 20
109.699969
 30
0.0
 11
616.499969
 21
109.699969
 31
0.0
  0
LINE
  5
1F7
100
AcDbEntity
  8
LAY-4
  6
CONTINUOUS
 62
     3
100
AcDbLine
 10
616.499969
 20
109.699969
 30
0.0
 11
616.499969
 21
189.699969
 31
0.0
  0
LINE
  5
1F8
100
AcDbEntity
  8
LAY-4
  6
CONTINUOUS
 62
     3
100
AcDbLine
 10
616.499969
 20
189.699969
 30
0.0
 11
556.499969
 21
189.699969
 31
0.0
  0
LINE
  5
1F9
100
AcDbEntity
  8
LAY-4
  6
DASHED2
 62
     3
100
AcDbLine
 10
556.499969
 20
189.699969
 30
0.0
 11
536.499969
 21
189.699969
 31
0.0
  0
LINE
  5
1FA
100
AcDbEntity
  8
LAY-4
  6
DASHED2
 62
     3
100
AcDbLine
 10
536.499969
 20
189.699969
 30
0.0
 11
536.499969
 21
174.699998
 31
0.0
  0
LINE
  5
1FB
100
AcDbEntity
  8
LAY-4
  6
CONTINUOUS
 62
     3
100
AcDbLine
 10
536.499969
 20
174.7
 30
0.0
 11
536.499969
 21
109.699969
 31
0.0
  0
LINE
  5
1FC
100
AcDbEntity
  8
LAY-4
  6
DASHED2
 62
     3
100
AcDbLine
 10
588.040628
 20
174.699969
 30
0.0
 11
544.95931
 21
174.699969
 31
0.0
  0
LINE
  5
1FD
100
AcDbEntity
  8
LAY-4
  6
DASHED2
 62
     3
100
AcDbLine
 10
541.499969
 20
171.240628
 30
0.0
 11
541.499969
 21
128.15931
 31
0.0
  0
LINE
  5
1FE
100
AcDbEntity
  8
LAY-4
  6
DASHED2
 62
     3
100
AcDbLine
 10
544.95931
 20
124.699969
 30
0.0
 11
588.040628
 21
124.699969
 31
0.0
  0
LINE
  5
1FF
100
AcDbEntity
  8
LAY-4
  6
DASHED2
 62
     3
100
AcDbLine
 10
591.499969
 20
128.15931
 30
0.0
 11
591.499969
 21
171.240628
 31
0.0
  0
ARC
  5
200
100
AcDbEntity
  8
LAY-4
  6
DASHED2
 62
     3
100
AcDbCircle
 10
566.499969
 20
149.699969
 30
0.0
 40
33.0
100
AcDbArc
 50
220.749054
 51
229.250946
  0
ARC
  5
201
100
AcDbEntity
  8
LAY-4
  6
DASHED2
 62
     3
100
AcDbCircle
 10
566.499969
 20
149.699969
 30
0.0
 40
33.0
100
AcDbArc
 50
310.749054
 51
319.250946
  0
ARC
  5
202
100
AcDbEntity
  8
LAY-4
  6
DASHED2
 62
     3
100
AcDbCircle
 10
566.499969
 20
149.699969
 30
0.0
 40
33.0
100
AcDbArc
 50
40.749054
 51
49.250946
  0
ARC
  5
203
100
AcDbEntity
  8
LAY-4
  6
DASHED2
 62
     3
100
AcDbCircle
 10
566.499969
 20
149.699969
 30
0.0
 40
33.0
100
AcDbArc
 50
130.749054
 51
139.250946
  0
INSERT
  5
204
100
AcDbEntity
  8
LAY-4
  6
CONTINUOUS
 62
     0
100
AcDbBlockReference
  2
SYM-1
 10
586.499969
 20
169.699969
 30
0.0
  0
INSERT
  5
205
100
AcDbEntity
  8
LAY-4
  6
CONTINUOUS
 62
     0
100
AcDbBlockReference
  2
SYM-1
 10
586.499969
 20
129.699969
 30
0.0
  0
INSERT
  5
206
100
AcDbEntity
  8
LAY-4
  6
CONTINUOUS
 62
     0
100
AcDbBlockReference
  2
SYM-1
 10
546.499969
 20
129.699969
 30
0.0
  0
INSERT
  5
207
100
AcDbEntity
  8
LAY-4
  6
CONTINUOUS
 62
     0
100
AcDbBlockReference
  2
SYM-1
 10
546.499969
 20
169.699969
 30
0.0
  0
LINE
  5
208
100
AcDbEntity
  8
LAY-4
  6
CONTINUOUS
 62
     3
100
AcDbLine
 10
648.000061
 20
312.66671
 30
0.0
 11
568.000061
 21
312.66671
 31
0.0
  0
LINE
  5
209
100
AcDbEntity
  8
LAY-4
  6
CONTINUOUS
 62
     3
100
AcDbLine
 10
568.000061
 20
314.16671
 30
0.0
 11
568.000061
 21
312.66671
 31
0.0
  0
LINE
  5
20A
100
AcDbEntity
  8
LAY-4
  6
CONTINUOUS
 62
     3
100
AcDbLine
 10
648.000061
 20
314.16671
 30
0.0
 11
648.000061
 21
312.66671
 31
0.0
  0
LINE
  5
20B
100
AcDbEntity
  8
LAY-4
  6
CONTINUOUS
 62
     3
100
AcDbLine
 10
633.000061
 20
262.66671
 30
0.0
 11
583.000061
 21
262.66671
 31
0.0
  0
LINE
  5
20C
100
AcDbEntity
  8
LAY-4
  6
CONTINUOUS
 62
     3
100
AcDbLine
 10
583.000061
 20
312.66671
 30
0.0
 11
583.000061
 21
262.66671
 31
0.0
  0
LINE
  5
20D
100
AcDbEntity
  8
LAY-4
  6
CONTINUOUS
 62
     3
100
AcDbLine
 10
633.000061
 20
312.66671
 30
0.0
 11
633.000061
 21
262.66671
 31
0.0
  0
LINE
  5
20E
100
AcDbEntity
  8
LAY-4
  6
CONTINUOUS
 62
     3
100
AcDbLine
 10
586.000061
 20
312.66671
 30
0.0
 11
586.000061
 21
262.66671
 31
0.0
  0
LINE
  5
20F
100
AcDbEntity
  8
LAY-4
  6
CONTINUOUS
 62
     3
100
AcDbLine
 10
630.000061
 20
312.66671
 30
0.0
 11
630.000061
 21
262.66671
 31
0.0
  0
LINE
  5
210
100
AcDbEntity
  8
LAY-5
  6
DASHDOT
 62
     1
100
AcDbLine
 10
132.999992
 20
173.000031
 30
0.0
 11
132.999992
 21
157.000031
 31
0.0
  0
LINE
  5
211
100
AcDbEntity
  8
LAY-5
  6
DASHDOT
 62
     1
100
AcDbLine
 10
125.016155
 20
165.0
 30
0.0
 11
141.636154
 21
165.0
 31
0.0
  0
LINE
  5
212
100
AcDbEntity
  8
LAY-5
  6
DASHDOT
 62
     1
100
AcDbLine
 10
87.84877
 20
112.0
 30
0.0
 11
248.841919
 21
112.0
 31
0.0
  0
LINE
  5
213
100
AcDbEntity
  8
LAY-5
  6
DASHDOT
 62
     1
100
AcDbLine
 10
170.999969
 20
155.0
 30
0.0
 11
154.999969
 21
155.0
 31
0.0
  0
LINE
  5
214
100
AcDbEntity
  8
LAY-5
  6
DASHDOT
 62
     1
100
AcDbLine
 10
162.999969
 20
163.0
 30
0.0
 11
162.999969
 21
147.0
 31
0.0
  0
LINE
  5
215
100
AcDbEntity
  8
LAY-5
  6
DASHDOT
 62
     1
100
AcDbLine
 10
206.0
 20
165.0
 30
0.0
 11
190.0
 21
165.0
 31
0.0
  0
LINE
  5
216
100
AcDbEntity
  8
LAY-5
  6
DASHDOT
 62
     1
100
AcDbLine
 10
198.0
 20
173.0
 30
0.0
 11
198.0
 21
157.0
 31
0.0
  0
LINE
  5
217
100
AcDbEntity
  8
LAY-5
  6
DASHDOT
 62
     1
100
AcDbLine
 10
235.999969
 20
155.0
 30
0.0
 11
219.999969
 21
155.0
 31
0.0
  0
LINE
  5
218
100
AcDbEntity
  8
LAY-5
  6
DASHDOT
 62
     1
100
AcDbLine
 10
227.999969
 20
163.0
 30
0.0
 11
227.999969
 21
147.0
 31
0.0
  0
LINE
  5
219
100
AcDbEntity
  8
LAY-5
  6
DASHDOT
 62
     1
100
AcDbLine
 10
270.999969
 20
165.0
 30
0.0
 11
254.999969
 21
165.0
 31
0.0
  0
LINE
  5
21A
100
AcDbEntity
  8
LAY-5
  6
DASHDOT
 62
     1
100
AcDbLine
 10
262.999969
 20
173.0
 30
0.0
 11
262.999969
 21
157.0
 31
0.0
  0
LINE
  5
21B
100
AcDbEntity
  8
LAY-5
  6
DASHDOT
 62
     1
100
AcDbLine
 10
300.999939
 20
155.0
 30
0.0
 11
284.999939
 21
155.0
 31
0.0
  0
LINE
  5
21C
100
AcDbEntity
  8
LAY-5
  6
DASHDOT
 62
     1
100
AcDbLine
 10
292.999939
 20
163.0
 30
0.0
 11
292.999939
 21
147.0
 31
0.0
  0
LINE
  5
21D
100
AcDbEntity
  8
LAY-5
  6
DASHDOT
 62
     1
100
AcDbLine
 10
192.43988
 20
275.000031
 30
0.0
 11
97.396637
 21
275.000031
 31
0.0
  0
LINE
  5
21E
100
AcDbEntity
  8
LAY-5
  6
DASHDOT
 62
     1
100
AcDbLine
 10
122.000031
 20
249.178742
 30
0.0
 11
122.000031
 21
353.509919
 31
0.0
  0
LINE
  5
21F
100
AcDbEntity
  8
LAY-5
  6
DASHDOT
 62
     1
100
AcDbLine
 10
117.920898
 20
278.939179
 30
0.0
 11
106.63269
 21
289.840119
 31
0.0
  0
LINE
  5
220
100
AcDbEntity
  8
LAY-5
  6
DASHDOT
 62
     1
100
AcDbLine
 10
147.000031
 20
328.000062
 30
0.0
 11
131.000031
 21
328.000062
 31
0.0
  0
LINE
  5
221
100
AcDbEntity
  8
LAY-5
  6
DASHDOT
 62
     1
100
AcDbLine
 10
139.000031
 20
345.880219
 30
0.0
 11
139.000031
 21
319.78476
 31
0.0
  0
LINE
  5
222
100
AcDbEntity
  8
LAY-5
  6
DASHDOT
 62
     1
100
AcDbLine
 10
167.000061
 20
318.000062
 30
0.0
 11
151.000061
 21
318.000062
 31
0.0
  0
LINE
  5
223
100
AcDbEntity
  8
LAY-5
  6
DASHDOT
 62
     1
100
AcDbLine
 10
159.000061
 20
345.880219
 30
0.0
 11
159.000061
 21
309.137146
 31
0.0
  0
LINE
  5
224
100
AcDbEntity
  8
LAY-5
  6
DASHDOT
 62
     1
100
AcDbLine
 10
207.000061
 20
318.000062
 30
0.0
 11
191.000061
 21
318.000062
 31
0.0
  0
LINE
  5
225
100
AcDbEntity
  8
LAY-5
  6
DASHDOT
 62
     1
100
AcDbLine
 10
199.000061
 20
345.880219
 30
0.0
 11
199.000061
 21
309.137146
 31
0.0
  0
LINE
  5
226
100
AcDbEntity
  8
LAY-5
  6
DASHDOT
 62
     1
100
AcDbLine
 10
227.000031
 20
328.000062
 30
0.0
 11
211.000031
 21
328.000062
 31
0.0
  0
LINE
  5
227
100
AcDbEntity
  8
LAY-5
  6
DASHDOT
 62
     1
100
AcDbLine
 10
219.000031
 20
345.880219
 30
0.0
 11
219.000031
 21
319.78476
 31
0.0
  0
LINE
  5
228
100
AcDbEntity
  8
LAY-5
  6
DASHDOT
 62
     1
100
AcDbLine
 10
651.000061
 20
462.701477
 30
0.0
 11
651.000061
 21
489.884155
 31
0.0
  0
LINE
  5
229
100
AcDbEntity
  8
LAY-5
  6
DASHDOT
 62
     1
100
AcDbLine
 10
661.000061
 20
462.701477
 30
0.0
 11
661.000061
 21
489.884155
 31
0.0
  0
LINE
  5
22A
100
AcDbEntity
  8
LAY-5
  6
DASHDOT
 62
     1
100
AcDbLine
 10
566.499969
 20
100.2
 30
0.0
 11
566.499969
 21
192.2
 31
0.0
  0
LINE
  5
22B
100
AcDbEntity
  8
LAY-5
  6
DASHDOT
 62
     1
100
AcDbLine
 10
624.5
 20
149.699969
 30
0.0
 11
527.7
 21
149.699969
 31
0.0
  0
LINE
  5
22C
100
AcDbEntity
  8
LAY-5
  6
DASHDOT
 62
     1
100
AcDbLine
 10
582.85132
 20
166.05132
 30
0.0
 11
590.021383
 21
173.221383
 31
0.0
  0
LINE
  5
22D
100
AcDbEntity
  8
LAY-5
  6
DASHDOT
 62
     1
100
AcDbLine
 10
582.85132
 20
173.348618
 30
0.0
 11
590.021383
 21
166.178555
 31
0.0
  0
LINE
  5
22E
100
AcDbEntity
  8
LAY-5
  6
DASHDOT
 62
     1
100
AcDbLine
 10
582.85132
 20
126.05132
 30
0.0
 11
590.021383
 21
133.221383
 31
0.0
  0
LINE
  5
22F
100
AcDbEntity
  8
LAY-5
  6
DASHDOT
 62
     1
100
AcDbLine
 10
582.85132
 20
133.348618
 30
0.0
 11
590.021383
 21
126.178555
 31
0.0
  0
LINE
  5
230
100
AcDbEntity
  8
LAY-5
  6
DASHDOT
 62
     1
100
AcDbLine
 10
542.85132
 20
126.05132
 30
0.0
 11
550.021383
 21
133.221383
 31
0.0
  0
LINE
  5
231
100
AcDbEntity
  8
LAY-5
  6
DASHDOT
 62
     1
100
AcDbLine
 10
542.85132
 20
133.348618
 30
0.0
 11
550.021383
 21
126.178555
 31
0.0
  0
LINE
  5
232
100
AcDbEntity
  8
LAY-5
  6
DASHDOT
 62
     1
100
AcDbLine
 10
542.85132
 20
166.05132
 30
0.0
 11
550.021383
 21
173.221383
 31
0.0
  0
LINE
  5
233
100
AcDbEntity
  8
LAY-5
  6
DASHDOT
 62
     1
100
AcDbLine
 10
542.85132
 20
173.348618
 30
0.0
 11
550.021383
 21
166.178555
 31
0.0
  0
LINE
  5
234
100
AcDbEntity
  8
LAY-5
  6
DASHDOT
 62
     1
100
AcDbLine
 10
651.000061
 20
350.919739
 30
0.0
 11
651.000061
 21
321.737061
 31
0.0
  0
LINE
  5
235
100
AcDbEntity
  8
LAY-5
  6
DASHDOT
 62
     1
100
AcDbLine
 10
661.000061
 20
350.919739
 30
0.0
 11
661.000061
 21
321.737061
 31
0.0
  0
LINE
  5
236
100
AcDbEntity
  8
LAY-5
  6
DASHDOT
 62
     1
100
AcDbLine
 10
651.0
 20
509.655151
 30
0.0
 11
651.0
 21
485.780029
 31
0.0
  0
LINE
  5
237
100
AcDbEntity
  8
LAY-5
  6
DASHDOT
 62
     1
100
AcDbLine
 10
661.0
 20
509.439941
 30
0.0
 11
661.0
 21
485.636566
 31
0.0
  0
LINE
  5
238
100
AcDbEntity
  8
LAY-5
  6
DASHDOT
 62
     1
100
AcDbLine
 10
122.000008
 20
152.1
 30
0.0
 11
122.000008
 21
78.0
 31
0.0
  0
LINE
  5
239
100
AcDbEntity
  8
LAY-5
  6
DASHDOT
 62
     1
100
AcDbLine
 10
608.000061
 20
520.7
 30
0.0
 11
608.000061
 21
249.0
 31
0.0
  0
LINE
  5
23A
100
AcDbEntity
  8
LAY-5
  6
DASHDOT
 62
     1
100
AcDbLine
 10
192.439819
 20
440.0
 30
0.0
 11
97.396606
 21
440.0
 31
0.0
  0
LINE
  5
23B
100
AcDbEntity
  8
LAY-5
  6
DASHDOT
 62
     1
100
AcDbLine
 10
122.0
 20
414.17871
 30
0.0
 11
122.0
 21
518.509887
 31
0.0
  0
LINE
  5
23C
100
AcDbEntity
  8
LAY-5
  6
DASHDOT
 62
     1
100
AcDbLine
 10
216.000092
 20
497.140197
 30
0.0
 11
216.000092
 21
487.315658
 31
0.0
  0
LINE
  5
23D
100
AcDbEntity
  8
LAY-5
  6
DASHDOT
 62
     1
100
AcDbLine
 10
210.570435
 20
492.999969
 30
0.0
 11
222.570435
 21
492.999969
 31
0.0
  0
LINE
  5
23E
100
AcDbEntity
  8
LAY-5
  6
DASHDOT
 62
     1
100
AcDbLine
 10
196.000031
 20
487.140197
 30
0.0
 11
196.000031
 21
477.315658
 31
0.0
  0
LINE
  5
23F
100
AcDbEntity
  8
LAY-5
  6
DASHDOT
 62
     1
100
AcDbLine
 10
191.9
 20
482.999969
 30
0.0
 11
202.570374
 21
482.999969
 31
0.0
  0
LINE
  5
240
100
AcDbEntity
  8
LAY-5
  6
DASHDOT
 62
     1
100
AcDbLine
 10
150.570435
 20
492.999969
 30
0.0
 11
162.570435
 21
492.999969
 31
0.0
  0
LINE
  5
241
100
AcDbEntity
  8
LAY-5
  6
DASHDOT
 62
     1
100
AcDbLine
 10
156.000092
 20
497.140197
 30
0.0
 11
156.000092
 21
487.315658
 31
0.0
  0
LINE
  5
242
100
AcDbEntity
  8
LAY-5
  6
DASHDOT
 62
     1
100
AcDbLine
 10
135.570374
 20
482.999969
 30
0.0
 11
147.570374
 21
482.999969
 31
0.0
  0
LINE
  5
243
100
AcDbEntity
  8
LAY-5
  6
DASHDOT
 62
     1
100
AcDbLine
 10
141.000031
 20
487.140197
 30
0.0
 11
141.000031
 21
477.315658
 31
0.0
  0
LINE
  5
244
100
AcDbEntity
  8
LAY-6
  6
CONTINUOUS
 62
     1
100
AcDbLine
 10
132.999992
 20
158.500031
 30
0.0
 11
132.999992
 21
193.179077
 31
0.0
  0
LINE
  5
245
100
AcDbEntity
  8
LAY-6
  6
CONTINUOUS
 62
     1
100
AcDbLine
 10
132.999992
 20
158.500031
 30
0.0
 11
132.999992
 21
193.179077
 31
0.0
  0
LINE
  5
246
100
AcDbEntity
  8
LAY-6
  6
CONTINUOUS
 62
     1
100
AcDbLine
 10
162.999969
 20
148.569641
 30
0.0
 11
162.999969
 21
193.179077
 31
0.0
  0
LINE
  5
247
100
AcDbEntity
  8
LAY-6
  6
CONTINUOUS
 62
     1
100
AcDbLine
 10
162.999969
 20
148.569641
 30
0.0
 11
162.999969
 21
193.179077
 31
0.0
  0
LINE
  5
248
100
AcDbEntity
  8
LAY-6
  6
CONTINUOUS
 62
     1
100
AcDbLine
 10
197.999985
 20
158.5
 30
0.0
 11
197.999985
 21
193.179077
 31
0.0
  0
LINE
  5
249
100
AcDbEntity
  8
LAY-6
  6
CONTINUOUS
 62
     1
100
AcDbLine
 10
197.999985
 20
158.5
 30
0.0
 11
197.999985
 21
193.179077
 31
0.0
  0
LINE
  5
24A
100
AcDbEntity
  8
LAY-6
  6
CONTINUOUS
 62
     1
100
AcDbLine
 10
227.999969
 20
148.5
 30
0.0
 11
227.999969
 21
193.179077
 31
0.0
  0
LINE
  5
24B
100
AcDbEntity
  8
LAY-6
  6
CONTINUOUS
 62
     1
100
AcDbLine
 10
227.999969
 20
148.569641
 30
0.0
 11
227.999969
 21
193.179077
 31
0.0
  0
LINE
  5
24C
100
AcDbEntity
  8
LAY-6
  6
CONTINUOUS
 62
     1
100
AcDbLine
 10
262.999969
 20
158.5
 30
0.0
 11
262.999969
 21
193.179077
 31
0.0
  0
LINE
  5
24D
100
AcDbEntity
  8
LAY-6
  6
CONTINUOUS
 62
     1
100
AcDbLine
 10
262.999969
 20
158.5
 30
0.0
 11
262.999969
 21
193.179077
 31
0.0
  0
LINE
  5
24E
100
AcDbEntity
  8
LAY-6
  6
CONTINUOUS
 62
     1
100
AcDbLine
 10
292.999939
 20
148.569641
 30
0.0
 11
292.999939
 21
193.179077
 31
0.0
  0
LINE
  5
24F
100
AcDbEntity
  8
LAY-6
  6
CONTINUOUS
 62
     1
100
AcDbLine
 10
292.999939
 20
148.569641
 30
0.0
 11
292.999939
 21
193.179077
 31
0.0
  0
TEXT
  5
250
100
AcDbEntity
  8
LAY-6
  6
CONTINUOUS
 62
     2
100
AcDbText
 10
176.749969
 20
192.679047
 30
0.0
 40
5.0
  1
３５
 41
0.672
  7
EXCADSTD
 72
     5
 11
184.082769
 21
192.679047
 31
0.0
100
AcDbText
  0
LINE
  5
251
100
AcDbEntity
  8
LAY-6
  6
CONTINUOUS
 62
     1
100
AcDbLine
 10
162.999969
 20
192.179077
 30
0.0
 11
197.999985
 21
192.179077
 31
0.0
  0
LINE
  5
252
100
AcDbEntity
  8
LAY-6
  6
CONTINUOUS
 62
     1
100
AcDbLine
 10
164.999969
 20
192.51241
 30
0.0
 11
162.999969
 21
192.179077
 31
0.0
  0
LINE
  5
253
100
AcDbEntity
  8
LAY-6
  6
CONTINUOUS
 62
     1
100
AcDbLine
 10
162.999969
 20
192.179077
 30
0.0
 11
164.999969
 21
191.845744
 31
0.0
  0
LINE
  5
254
100
AcDbEntity
  8
LAY-6
  6
CONTINUOUS
 62
     1
100
AcDbLine
 10
195.999985
 20
191.845744
 30
0.0
 11
197.999985
 21
192.179077
 31
0.0
  0
LINE
  5
255
100
AcDbEntity
  8
LAY-6
  6
CONTINUOUS
 62
     1
100
AcDbLine
 10
197.999985
 20
192.179077
 30
0.0
 11
195.999985
 21
192.51241
 31
0.0
  0
TEXT
  5
256
100
AcDbEntity
  8
LAY-6
  6
CONTINUOUS
 62
     2
100
AcDbText
 10
209.249969
 20
192.679077
 30
0.0
 40
5.0
  1
３０
 41
0.672
  7
EXCADSTD
 72
     5
 11
216.582769
 21
192.679077
 31
0.0
100
AcDbText
  0
LINE
  5
257
100
AcDbEntity
  8
LAY-6
  6
CONTINUOUS
 62
     1
100
AcDbLine
 10
197.999985
 20
192.179077
 30
0.0
 11
227.999969
 21
192.179077
 31
0.0
  0
LINE
  5
258
100
AcDbEntity
  8
LAY-6
  6
CONTINUOUS
 62
     1
100
AcDbLine
 10
199.999985
 20
192.51241
 30
0.0
 11
197.999985
 21
192.179077
 31
0.0
  0
LINE
  5
259
100
AcDbEntity
  8
LAY-6
  6
CONTINUOUS
 62
     1
100
AcDbLine
 10
197.999985
 20
192.179077
 30
0.0
 11
199.999985
 21
191.845744
 31
0.0
  0
LINE
  5
25A
100
AcDbEntity
  8
LAY-6
  6
CONTINUOUS
 62
     1
100
AcDbLine
 10
225.999969
 20
191.845744
 30
0.0
 11
227.999969
 21
192.179077
 31
0.0
  0
LINE
  5
25B
100
AcDbEntity
  8
LAY-6
  6
CONTINUOUS
 62
     1
100
AcDbLine
 10
227.999969
 20
192.179077
 30
0.0
 11
225.999969
 21
192.51241
 31
0.0
  0
TEXT
  5
25C
100
AcDbEntity
  8
LAY-6
  6
CONTINUOUS
 62
     2
100
AcDbText
 10
241.749954
 20
192.679047
 30
0.0
 40
5.0
  1
３５
 41
0.672
  7
EXCADSTD
 72
     5
 11
249.082754
 21
192.679047
 31
0.0
100
AcDbText
  0
LINE
  5
25D
100
AcDbEntity
  8
LAY-6
  6
CONTINUOUS
 62
     1
100
AcDbLine
 10
227.999969
 20
192.179077
 30
0.0
 11
262.999969
 21
192.179077
 31
0.0
  0
LINE
  5
25E
100
AcDbEntity
  8
LAY-6
  6
CONTINUOUS
 62
     1
100
AcDbLine
 10
229.999969
 20
192.51241
 30
0.0
 11
227.999969
 21
192.179077
 31
0.0
  0
LINE
  5
25F
100
AcDbEntity
  8
LAY-6
  6
CONTINUOUS
 62
     1
100
AcDbLine
 10
227.999969
 20
192.179077
 30
0.0
 11
229.999969
 21
191.845744
 31
0.0
  0
LINE
  5
260
100
AcDbEntity
  8
LAY-6
  6
CONTINUOUS
 62
     1
100
AcDbLine
 10
260.999969
 20
191.845744
 30
0.0
 11
262.999969
 21
192.179077
 31
0.0
  0
LINE
  5
261
100
AcDbEntity
  8
LAY-6
  6
CONTINUOUS
 62
     1
100
AcDbLine
 10
262.999969
 20
192.179077
 30
0.0
 11
260.999969
 21
192.51241
 31
0.0
  0
TEXT
  5
262
100
AcDbEntity
  8
LAY-6
  6
CONTINUOUS
 62
     2
100
AcDbText
 10
274.249954
 20
192.679077
 30
0.0
 40
5.0
  1
３０
 41
0.672
  7
EXCADSTD
 72
     5
 11
281.582754
 21
192.679077
 31
0.0
100
AcDbText
  0
LINE
  5
263
100
AcDbEntity
  8
LAY-6
  6
CONTINUOUS
 62
     1
100
AcDbLine
 10
262.999969
 20
192.179077
 30
0.0
 11
292.999939
 21
192.179077
 31
0.0
  0
LINE
  5
264
100
AcDbEntity
  8
LAY-6
  6
CONTINUOUS
 62
     1
100
AcDbLine
 10
264.999969
 20
192.51241
 30
0.0
 11
262.999969
 21
192.179077
 31
0.0
  0
LINE
  5
265
100
AcDbEntity
  8
LAY-6
  6
CONTINUOUS
 62
     1
100
AcDbLine
 10
262.999969
 20
192.179077
 30
0.0
 11
264.999969
 21
191.845744
 31
0.0
  0
LINE
  5
266
100
AcDbEntity
  8
LAY-6
  6
CONTINUOUS
 62
     1
100
AcDbLine
 10
290.999939
 20
191.845744
 30
0.0
 11
292.999939
 21
192.179077
 31
0.0
  0
LINE
  5
267
100
AcDbEntity
  8
LAY-6
  6
CONTINUOUS
 62
     1
100
AcDbLine
 10
292.999939
 20
192.179077
 30
0.0
 11
290.999939
 21
192.51241
 31
0.0
  0
TEXT
  5
268
100
AcDbEntity
  8
LAY-6
  6
CONTINUOUS
 62
     2
100
AcDbText
 10
144.249977
 20
192.679077
 30
0.0
 40
5.0
  1
３０
 41
0.672
  7
EXCADSTD
 72
     5
 11
151.582777
 21
192.679077
 31
0.0
100
AcDbText
  0
LINE
  5
269
100
AcDbEntity
  8
LAY-6
  6
CONTINUOUS
 62
     1
100
AcDbLine
 10
162.999969
 20
192.179077
 30
0.0
 11
132.999992
 21
192.179077
 31
0.0
  0
LINE
  5
26A
100
AcDbEntity
  8
LAY-6
  6
CONTINUOUS
 62
     1
100
AcDbLine
 10
160.999969
 20
191.845744
 30
0.0
 11
162.999969
 21
192.179077
 31
0.0
  0
LINE
  5
26B
100
AcDbEntity
  8
LAY-6
  6
CONTINUOUS
 62
     1
100
AcDbLine
 10
162.999969
 20
192.179077
 30
0.0
 11
160.999969
 21
192.51241
 31
0.0
  0
LINE
  5
26C
100
AcDbEntity
  8
LAY-6
  6
CONTINUOUS
 62
     1
100
AcDbLine
 10
134.999992
 20
192.51241
 30
0.0
 11
132.999992
 21
192.179077
 31
0.0
  0
LINE
  5
26D
100
AcDbEntity
  8
LAY-6
  6
CONTINUOUS
 62
     1
100
AcDbLine
 10
132.999992
 20
192.179077
 30
0.0
 11
134.999992
 21
191.845744
 31
0.0
  0
LINE
  5
26E
100
AcDbEntity
  8
LAY-6
  6
CONTINUOUS
 62
     1
100
AcDbLine
 10
122.999977
 20
157.5
 30
0.0
 11
122.999977
 21
193.179077
 31
0.0
  0
TEXT
  5
26F
100
AcDbEntity
  8
LAY-6
  6
CONTINUOUS
 62
     2
100
AcDbText
 10
124.249985
 20
192.679077
 30
0.0
 40
5.0
  1
１０
 41
0.672
  7
EXCADSTD
 72
     5
 11
131.582785
 21
192.679077
 31
0.0
100
AcDbText
  0
LINE
  5
270
100
AcDbEntity
  8
LAY-6
  6
CONTINUOUS
 62
     1
100
AcDbLine
 10
122.999977
 20
192.179077
 30
0.0
 11
132.999992
 21
192.179077
 31
0.0
  0
LINE
  5
271
100
AcDbEntity
  8
LAY-6
  6
CONTINUOUS
 62
     1
100
AcDbLine
 10
124.999977
 20
192.51241
 30
0.0
 11
122.999977
 21
192.179077
 31
0.0
  0
LINE
  5
272
100
AcDbEntity
  8
LAY-6
  6
CONTINUOUS
 62
     1
100
AcDbLine
 10
122.999977
 20
192.179077
 30
0.0
 11
124.999977
 21
191.845744
 31
0.0
  0
LINE
  5
273
100
AcDbEntity
  8
LAY-6
  6
CONTINUOUS
 62
     1
100
AcDbLine
 10
130.999992
 20
191.845744
 30
0.0
 11
132.999992
 21
192.179077
 31
0.0
  0
LINE
  5
274
100
AcDbEntity
  8
LAY-6
  6
CONTINUOUS
 62
     1
100
AcDbLine
 10
132.999992
 20
192.179077
 30
0.0
 11
130.999992
 21
192.51241
 31
0.0
  0
LINE
  5
275
100
AcDbEntity
  8
LAY-6
  6
CONTINUOUS
 62
     1
100
AcDbLine
 10
122.999977
 20
172.5
 30
0.0
 11
122.999977
 21
204.333069
 31
0.0
  0
LINE
  5
276
100
AcDbEntity
  8
LAY-6
  6
CONTINUOUS
 62
     1
100
AcDbLine
 10
302.999939
 20
172.5
 30
0.0
 11
302.999939
 21
204.333069
 31
0.0
  0
TEXT
  5
277
100
AcDbEntity
  8
LAY-6
  6
CONTINUOUS
 62
     2
100
AcDbText
 10
207.374954
 20
203.833069
 30
0.0
 40
5.0
  1
１８０
 41
0.672
  7
EXCADSTD
 72
     5
 11
219.374954
 21
203.833069
 31
0.0
100
AcDbText
  0
LINE
  5
278
100
AcDbEntity
  8
LAY-6
  6
CONTINUOUS
 62
     1
100
AcDbLine
 10
122.999977
 20
203.333069
 30
0.0
 11
302.999939
 21
203.333069
 31
0.0
  0
LINE
  5
279
100
AcDbEntity
  8
LAY-6
  6
CONTINUOUS
 62
     1
100
AcDbLine
 10
124.999977
 20
203.666402
 30
0.0
 11
122.999977
 21
203.333069
 31
0.0
  0
LINE
  5
27A
100
AcDbEntity
  8
LAY-6
  6
CONTINUOUS
 62
     1
100
AcDbLine
 10
122.999977
 20
203.333069
 30
0.0
 11
124.999977
 21
202.999736
 31
0.0
  0
LINE
  5
27B
100
AcDbEntity
  8
LAY-6
  6
CONTINUOUS
 62
     1
100
AcDbLine
 10
300.999939
 20
202.999736
 30
0.0
 11
302.999939
 21
203.333069
 31
0.0
  0
LINE
  5
27C
100
AcDbEntity
  8
LAY-6
  6
CONTINUOUS
 62
     1
100
AcDbLine
 10
302.999939
 20
203.333069
 30
0.0
 11
300.999939
 21
203.666402
 31
0.0
  0
LINE
  5
27D
100
AcDbEntity
  8
LAY-6
  6
CONTINUOUS
 62
     1
100
AcDbLine
 10
242.745438
 20
112.0
 30
0.0
 11
253.350693
 21
112.0
 31
0.0
  0
TEXT
  5
27E
100
AcDbEntity
  8
LAY-6
  6
CONTINUOUS
 62
     2
100
AcDbText
 10
251.850693
 20
122.25
 30
0.0
 40
5.0
  1
２８
 50
90.0
 41
0.672
  7
EXCADSTD
 72
     5
 11
251.850693
 21
129.5828
 31
0.0
100
AcDbText
  0
LINE
  5
27F
100
AcDbEntity
  8
LAY-6
  6
CONTINUOUS
 62
     1
100
AcDbLine
 10
252.350693
 20
112.0
 30
0.0
 11
252.350693
 21
140.0
 31
0.0
  0
LINE
  5
280
100
AcDbEntity
  8
LAY-6
  6
CONTINUOUS
 62
     1
100
AcDbLine
 10
252.01736
 20
114.0
 30
0.0
 11
252.350693
 21
112.0
 31
0.0
  0
LINE
  5
281
100
AcDbEntity
  8
LAY-6
  6
CONTINUOUS
 62
     1
100
AcDbLine
 10
252.350693
 20
112.0
 30
0.0
 11
252.684026
 21
114.0
 31
0.0
  0
LINE
  5
282
100
AcDbEntity
  8
LAY-6
  6
CONTINUOUS
 62
     1
100
AcDbLine
 10
252.684026
 20
138.0
 30
0.0
 11
252.350693
 21
140.0
 31
0.0
  0
LINE
  5
283
100
AcDbEntity
  8
LAY-6
  6
CONTINUOUS
 62
     1
100
AcDbLine
 10
252.350693
 20
140.0
 30
0.0
 11
252.01736
 21
138.0
 31
0.0
  0
LINE
  5
284
100
AcDbEntity
  8
LAY-6
  6
CONTINUOUS
 62
     1
100
AcDbLine
 10
242.464737
 20
140.0
 30
0.0
 11
253.350693
 21
140.0
 31
0.0
  0
TEXT
  5
285
100
AcDbEntity
  8
LAY-6
  6
CONTINUOUS
 62
     2
100
AcDbText
 10
251.850693
 20
141.125
 30
0.0
 40
5.0
  1
６
 50
90.0
 41
0.672
  7
EXCADSTD
 72
     5
 11
251.850693
 21
144.325
 31
0.0
100
AcDbText
  0
LINE
  5
286
100
AcDbEntity
  8
LAY-6
  6
CONTINUOUS
 62
     1
100
AcDbLine
 10
252.350693
 20
135.0
 30
0.0
 11
252.350693
 21
140.0
 31
0.0
  0
LINE
  5
287
100
AcDbEntity
  8
LAY-6
  6
CONTINUOUS
 62
     1
100
AcDbLine
 10
252.350693
 20
146.0
 30
0.0
 11
252.350693
 21
151.0
 31
0.0
  0
LINE
  5
288
100
AcDbEntity
  8
LAY-6
  6
CONTINUOUS
 62
     1
100
AcDbLine
 10
252.684026
 20
138.0
 30
0.0
 11
252.350693
 21
140.0
 31
0.0
  0
LINE
  5
289
100
AcDbEntity
  8
LAY-6
  6
CONTINUOUS
 62
     1
100
AcDbLine
 10
252.350693
 20
140.0
 30
0.0
 11
252.01736
 21
138.0
 31
0.0
  0
LINE
  5
28A
100
AcDbEntity
  8
LAY-6
  6
CONTINUOUS
 62
     1
100
AcDbLine
 10
252.01736
 20
148.0
 30
0.0
 11
252.350693
 21
146.0
 31
0.0
  0
LINE
  5
28B
100
AcDbEntity
  8
LAY-6
  6
CONTINUOUS
 62
     1
100
AcDbLine
 10
252.350693
 20
146.0
 30
0.0
 11
252.684026
 21
148.0
 31
0.0
  0
LINE
  5
28C
100
AcDbEntity
  8
LAY-6
  6
CONTINUOUS
 62
     1
100
AcDbLine
 10
242.745438
 20
146.0
 30
0.0
 11
253.350693
 21
146.0
 31
0.0
  0
LINE
  5
28D
100
AcDbEntity
  8
LAY-6
  6
CONTINUOUS
 62
     1
100
AcDbLine
 10
242.184036
 20
174.0
 30
0.0
 11
253.350693
 21
174.0
 31
0.0
  0
TEXT
  5
28E
100
AcDbEntity
  8
LAY-6
  6
CONTINUOUS
 62
     2
100
AcDbText
 10
251.850693
 20
156.25
 30
0.0
 40
5.0
  1
２８
 50
90.0
 41
0.672
  7
EXCADSTD
 72
     5
 11
251.850693
 21
163.5828
 31
0.0
100
AcDbText
  0
LINE
  5
28F
100
AcDbEntity
  8
LAY-6
  6
CONTINUOUS
 62
     1
100
AcDbLine
 10
252.350693
 20
146.0
 30
0.0
 11
252.350693
 21
174.0
 31
0.0
  0
LINE
  5
290
100
AcDbEntity
  8
LAY-6
  6
CONTINUOUS
 62
     1
100
AcDbLine
 10
252.01736
 20
148.0
 30
0.0
 11
252.350693
 21
146.0
 31
0.0
  0
LINE
  5
291
100
AcDbEntity
  8
LAY-6
  6
CONTINUOUS
 62
     1
100
AcDbLine
 10
252.350693
 20
146.0
 30
0.0
 11
252.684026
 21
148.0
 31
0.0
  0
LINE
  5
292
100
AcDbEntity
  8
LAY-6
  6
CONTINUOUS
 62
     1
100
AcDbLine
 10
252.684026
 20
172.0
 30
0.0
 11
252.350693
 21
174.0
 31
0.0
  0
LINE
  5
293
100
AcDbEntity
  8
LAY-6
  6
CONTINUOUS
 62
     1
100
AcDbLine
 10
252.350693
 20
174.0
 30
0.0
 11
252.01736
 21
172.0
 31
0.0
  0
LINE
  5
294
100
AcDbEntity
  8
LAY-6
  6
CONTINUOUS
 62
     1
100
AcDbLine
 10
204.499969
 20
165.0
 30
0.0
 11
214.008469
 21
165.0
 31
0.0
  0
LINE
  5
295
100
AcDbEntity
  8
LAY-6
  6
CONTINUOUS
 62
     1
100
AcDbLine
 10
221.499969
 20
155.0
 30
0.0
 11
212.008469
 21
155.0
 31
0.0
  0
TEXT
  5
296
100
AcDbEntity
  8
LAY-6
  6
CONTINUOUS
 62
     2
100
AcDbText
 10
212.508469
 20
156.25
 30
0.0
 40
5.0
  1
１０
 50
90.0
 41
0.672
  7
EXCADSTD
 72
     5
 11
212.508469
 21
163.5828
 31
0.0
100
AcDbText
  0
LINE
  5
297
100
AcDbEntity
  8
LAY-6
  6
CONTINUOUS
 62
     1
100
AcDbLine
 10
213.008469
 20
165.0
 30
0.0
 11
213.008469
 21
155.0
 31
0.0
  0
LINE
  5
298
100
AcDbEntity
  8
LAY-6
  6
CONTINUOUS
 62
     1
100
AcDbLine
 10
213.341802
 20
163.0
 30
0.0
 11
213.008469
 21
165.0
 31
0.0
  0
LINE
  5
299
100
AcDbEntity
  8
LAY-6
  6
CONTINUOUS
 62
     1
100
AcDbLine
 10
213.008469
 20
165.0
 30
0.0
 11
212.675136
 21
163.0
 31
0.0
  0
LINE
  5
29A
100
AcDbEntity
  8
LAY-6
  6
CONTINUOUS
 62
     1
100
AcDbLine
 10
212.675136
 20
157.0
 30
0.0
 11
213.008469
 21
155.0
 31
0.0
  0
LINE
  5
29B
100
AcDbEntity
  8
LAY-6
  6
CONTINUOUS
 62
     1
100
AcDbLine
 10
213.008469
 20
155.0
 30
0.0
 11
213.341802
 21
157.0
 31
0.0
  0
LINE
  5
29C
100
AcDbEntity
  8
LAY-6
  6
CONTINUOUS
 62
     1
100
AcDbLine
 10
221.499969
 20
155.0
 30
0.0
 11
212.008469
 21
155.0
 31
0.0
  0
LINE
  5
29D
100
AcDbEntity
  8
LAY-6
  6
CONTINUOUS
 62
     1
100
AcDbLine
 10
222.894424
 20
146.0
 30
0.0
 11
212.008469
 21
146.0
 31
0.0
  0
TEXT
  5
29E
100
AcDbEntity
  8
LAY-6
  6
CONTINUOUS
 62
     2
100
AcDbText
 10
212.508469
 20
148.625
 30
0.0
 40
5.0
  1
９
 50
90.0
 41
0.672
  7
EXCADSTD
 72
     5
 11
212.508469
 21
151.825
 31
0.0
100
AcDbText
  0
LINE
  5
29F
100
AcDbEntity
  8
LAY-6
  6
CONTINUOUS
 62
     1
100
AcDbLine
 10
213.008469
 20
155.0
 30
0.0
 11
213.008469
 21
146.0
 31
0.0
  0
LINE
  5
2A0
100
AcDbEntity
  8
LAY-6
  6
CONTINUOUS
 62
     1
100
AcDbLine
 10
213.341802
 20
153.0
 30
0.0
 11
213.008469
 21
155.0
 31
0.0
  0
LINE
  5
2A1
100
AcDbEntity
  8
LAY-6
  6
CONTINUOUS
 62
     1
100
AcDbLine
 10
213.008469
 20
155.0
 30
0.0
 11
212.675136
 21
153.0
 31
0.0
  0
LINE
  5
2A2
100
AcDbEntity
  8
LAY-6
  6
CONTINUOUS
 62
     1
100
AcDbLine
 10
212.675136
 20
148.0
 30
0.0
 11
213.008469
 21
146.0
 31
0.0
  0
LINE
  5
2A3
100
AcDbEntity
  8
LAY-6
  6
CONTINUOUS
 62
     1
100
AcDbLine
 10
213.008469
 20
146.0
 30
0.0
 11
213.341802
 21
148.0
 31
0.0
  0
TEXT
  5
2A4
100
AcDbEntity
  8
LAY-6
  6
CONTINUOUS
 62
     2
100
AcDbText
 10
145.249969
 20
143.704987
 30
0.0
 40
5.0
  1
５２
 41
0.672
  7
EXCADSTD
 72
     5
 11
152.582769
 21
143.704987
 31
0.0
100
AcDbText
  0
LINE
  5
2A5
100
AcDbEntity
  8
LAY-6
  6
CONTINUOUS
 62
     1
100
AcDbLine
 10
122.999977
 20
143.204987
 30
0.0
 11
174.999969
 21
143.204987
 31
0.0
  0
LINE
  5
2A6
100
AcDbEntity
  8
LAY-6
  6
CONTINUOUS
 62
     1
100
AcDbLine
 10
124.999977
 20
143.53832
 30
0.0
 11
122.999977
 21
143.204987
 31
0.0
  0
LINE
  5
2A7
100
AcDbEntity
  8
LAY-6
  6
CONTINUOUS
 62
     1
100
AcDbLine
 10
122.999977
 20
143.204987
 30
0.0
 11
124.999977
 21
142.871654
 31
0.0
  0
LINE
  5
2A8
100
AcDbEntity
  8
LAY-6
  6
CONTINUOUS
 62
     1
100
AcDbLine
 10
172.999969
 20
142.871654
 30
0.0
 11
174.999969
 21
143.204987
 31
0.0
  0
LINE
  5
2A9
100
AcDbEntity
  8
LAY-6
  6
CONTINUOUS
 62
     1
100
AcDbLine
 10
174.999969
 20
143.204987
 30
0.0
 11
172.999969
 21
143.53832
 31
0.0
  0
LINE
  5
2AA
100
AcDbEntity
  8
LAY-6
  6
CONTINUOUS
 62
     1
100
AcDbLine
 10
153.535828
 20
112.0
 30
0.0
 11
180.152878
 21
112.0
 31
0.0
  0
LINE
  5
2AB
100
AcDbEntity
  8
LAY-6
  6
CONTINUOUS
 62
     1
100
AcDbLine
 10
153.389381
 20
112.353554
 30
0.0
 11
172.210462
 21
131.174666
 31
0.0
  0
LINE
  5
2AC
100
AcDbEntity
  8
LAY-6
  6
CONTINUOUS
 62
     1
100
AcDbLine
 10
153.035811
 20
112.0
 30
0.0
 11
172.688212
 21
112.0
 31
0.0
  0
LINE
  5
2AD
100
AcDbEntity
  8
LAY-6
  6
CONTINUOUS
 62
     1
100
AcDbLine
 10
153.035811
 20
112.0
 30
0.0
 11
166.932154
 21
125.896348
 31
0.0
  0
ARC
  5
2AE
100
AcDbEntity
  8
LAY-6
  6
CONTINUOUS
 62
     1
100
AcDbCircle
 10
153.035869
 20
112.000024
 30
0.0
 40
18.152342
100
AcDbArc
 50
359.999923
 51
45.000086
  0
LINE
  5
2AF
100
AcDbEntity
  8
LAY-6
  6
CONTINUOUS
 62
     1
100
AcDbLine
 10
170.854878
 20
114.0
 30
0.0
 11
171.188212
 21
112.0
 31
0.0
  0
LINE
  5
2B0
100
AcDbEntity
  8
LAY-6
  6
CONTINUOUS
 62
     1
100
AcDbLine
 10
171.188212
 20
112.0
 30
0.0
 11
171.521545
 21
114.0
 31
0.0
  0
LINE
  5
2B1
100
AcDbEntity
  8
LAY-6
  6
CONTINUOUS
 62
     1
100
AcDbLine
 10
167.521411
 20
123.657177
 30
0.0
 11
165.871494
 21
124.835688
 31
0.0
  0
LINE
  5
2B2
100
AcDbEntity
  8
LAY-6
  6
CONTINUOUS
 62
     1
100
AcDbLine
 10
165.871494
 20
124.835688
 30
0.0
 11
167.050006
 21
123.185772
 31
0.0
  0
TEXT
  5
2B3
100
AcDbEntity
  8
LAY-6
  6
CONTINUOUS
 62
     2
100
AcDbText
 10
94.084961
 20
89.396793
 30
0.0
 40
5.0
  1
Ｒ
 50
39.123189
 41
0.672
  7
EXCADSTD
 72
     5
 11
96.567492
 21
91.415961
 31
0.0
100
AcDbText
  0
TEXT
  5
2B4
100
AcDbEntity
  8
LAY-6
  6
CONTINUOUS
 62
     2
100
AcDbText
 10
97.188125
 20
91.920752
 30
0.0
 40
5.0
  1
２２
 50
39.123189
 41
0.672
  7
EXCADSTD
 72
     5
 11
102.876846
 21
96.547675
 31
0.0
100
AcDbText
  0
LINE
  5
2B5
100
AcDbEntity
  8
LAY-6
  6
CONTINUOUS
 62
     1
100
AcDbLine
 10
104.932606
 20
98.118225
 30
0.0
 11
122.000008
 21
112.0
 31
0.0
  0
LINE
  5
2B6
100
AcDbEntity
  8
LAY-6
  6
CONTINUOUS
 62
     1
100
AcDbLine
 10
106.273858
 20
99.638802
 30
0.0
 11
104.932606
 21
98.118225
 31
0.0
  0
LINE
  5
2B7
100
AcDbEntity
  8
LAY-6
  6
CONTINUOUS
 62
     1
100
AcDbLine
 10
104.932606
 20
98.118225
 30
0.0
 11
106.694518
 21
99.121608
 31
0.0
  0
TEXT
  5
2B8
100
AcDbEntity
  8
LAY-6
  6
CONTINUOUS
 62
     2
100
AcDbText
 10
98.405774
 20
253.514551
 30
0.0
 40
5.0
  1
Ｒ
 50
43.265416
 41
0.672
  7
EXCADSTD
 72
     5
 11
100.735971
 21
255.707764
 31
0.0
100
AcDbText
  0
TEXT
  5
2B9
100
AcDbEntity
  8
LAY-6
  6
CONTINUOUS
 62
     2
100
AcDbText
 10
101.31852
 20
256.256067
 30
0.0
 40
5.0
  1
１８
 50
43.265416
 41
0.672
  7
EXCADSTD
 72
     5
 11
106.658167
 21
261.281813
 31
0.0
100
AcDbText
  0
LINE
  5
2BA
100
AcDbEntity
  8
LAY-6
  6
CONTINUOUS
 62
     1
100
AcDbLine
 10
108.89267
 20
262.663239
 30
0.0
 11
122.000031
 21
275.000062
 31
0.0
  0
LINE
  5
2BB
100
AcDbEntity
  8
LAY-6
  6
CONTINUOUS
 62
     1
100
AcDbLine
 10
110.120584
 20
264.276726
 30
0.0
 11
108.89267
 21
262.663239
 31
0.0
  0
LINE
  5
2BC
100
AcDbEntity
  8
LAY-6
  6
CONTINUOUS
 62
     1
100
AcDbLine
 10
108.89267
 20
262.663239
 30
0.0
 11
110.577503
 21
263.791268
 31
0.0
  0
LINE
  5
2BD
100
AcDbEntity
  8
LAY-6
  6
CONTINUOUS
 62
     1
100
AcDbLine
 10
147.955828
 20
275.000031
 30
0.0
 11
174.572878
 21
275.000031
 31
0.0
  0
LINE
  5
2BE
100
AcDbEntity
  8
LAY-6
  6
CONTINUOUS
 62
     1
100
AcDbLine
 10
147.809381
 20
275.353585
 30
0.0
 11
166.630462
 21
294.174697
 31
0.0
  0
LINE
  5
2BF
100
AcDbEntity
  8
LAY-6
  6
CONTINUOUS
 62
     1
100
AcDbLine
 10
147.455811
 20
275.000031
 30
0.0
 11
167.108212
 21
275.000031
 31
0.0
  0
LINE
  5
2C0
100
AcDbEntity
  8
LAY-6
  6
CONTINUOUS
 62
     1
100
AcDbLine
 10
147.455811
 20
275.000031
 30
0.0
 11
161.352154
 21
288.896379
 31
0.0
  0
ARC
  5
2C1
100
AcDbEntity
  8
LAY-6
  6
CONTINUOUS
 62
     1
100
AcDbCircle
 10
147.455869
 20
275.000055
 30
0.0
 40
18.152342
100
AcDbArc
 50
359.999923
 51
45.000086
  0
LINE
  5
2C2
100
AcDbEntity
  8
LAY-6
  6
CONTINUOUS
 62
     1
100
AcDbLine
 10
165.274878
 20
277.000031
 30
0.0
 11
165.608212
 21
275.000031
 31
0.0
  0
LINE
  5
2C3
100
AcDbEntity
  8
LAY-6
  6
CONTINUOUS
 62
     1
100
AcDbLine
 10
165.608212
 20
275.000031
 30
0.0
 11
165.941545
 21
277.000031
 31
0.0
  0
LINE
  5
2C4
100
AcDbEntity
  8
LAY-6
  6
CONTINUOUS
 62
     1
100
AcDbLine
 10
161.94141
 20
286.657208
 30
0.0
 11
160.291494
 21
287.835719
 31
0.0
  0
LINE
  5
2C5
100
AcDbEntity
  8
LAY-6
  6
CONTINUOUS
 62
     1
100
AcDbLine
 10
160.291494
 20
287.835719
 30
0.0
 11
161.470006
 21
286.185803
 31
0.0
  0
TEXT
  5
2C6
100
AcDbEntity
  8
LAY-6
  6
CONTINUOUS
 62
     2
100
AcDbText
 10
145.500031
 20
306.233368
 30
0.0
 40
5.0
  1
４１
 41
0.672
  7
EXCADSTD
 72
     5
 11
152.832831
 21
306.233368
 31
0.0
100
AcDbText
  0
LINE
  5
2C7
100
AcDbEntity
  8
LAY-6
  6
CONTINUOUS
 62
     1
100
AcDbLine
 10
129.000031
 20
305.733368
 30
0.0
 11
170.000031
 21
305.733368
 31
0.0
  0
LINE
  5
2C8
100
AcDbEntity
  8
LAY-6
  6
CONTINUOUS
 62
     1
100
AcDbLine
 10
131.000031
 20
306.066701
 30
0.0
 11
129.000031
 21
305.733368
 31
0.0
  0
LINE
  5
2C9
100
AcDbEntity
  8
LAY-6
  6
CONTINUOUS
 62
     1
100
AcDbLine
 10
129.000031
 20
305.733368
 30
0.0
 11
131.000031
 21
305.400035
 31
0.0
  0
LINE
  5
2CA
100
AcDbEntity
  8
LAY-6
  6
CONTINUOUS
 62
     1
100
AcDbLine
 10
168.000031
 20
305.400035
 30
0.0
 11
170.000031
 21
305.733368
 31
0.0
  0
LINE
  5
2CB
100
AcDbEntity
  8
LAY-6
  6
CONTINUOUS
 62
     1
100
AcDbLine
 10
170.000031
 20
305.733368
 30
0.0
 11
168.000031
 21
306.066701
 31
0.0
  0
LINE
  5
2CC
100
AcDbEntity
  8
LAY-6
  6
CONTINUOUS
 62
     1
100
AcDbLine
 10
129.000031
 20
329.500031
 30
0.0
 11
129.000031
 21
356.385529
 31
0.0
  0
TEXT
  5
2CD
100
AcDbEntity
  8
LAY-6
  6
CONTINUOUS
 62
     2
100
AcDbText
 10
130.250031
 20
355.885529
 30
0.0
 40
5.0
  1
１０
 41
0.672
  7
EXCADSTD
 72
     5
 11
137.582831
 21
355.885529
 31
0.0
100
AcDbText
  0
LINE
  5
2CE
100
AcDbEntity
  8
LAY-6
  6
CONTINUOUS
 62
     1
100
AcDbLine
 10
129.000031
 20
355.385529
 30
0.0
 11
139.000031
 21
355.385529
 31
0.0
  0
LINE
  5
2CF
100
AcDbEntity
  8
LAY-6
  6
CONTINUOUS
 62
     1
100
AcDbLine
 10
131.000031
 20
355.718862
 30
0.0
 11
129.000031
 21
355.385529
 31
0.0
  0
LINE
  5
2D0
100
AcDbEntity
  8
LAY-6
  6
CONTINUOUS
 62
     1
100
AcDbLine
 10
129.000031
 20
355.385529
 30
0.0
 11
131.000031
 21
355.052196
 31
0.0
  0
LINE
  5
2D1
100
AcDbEntity
  8
LAY-6
  6
CONTINUOUS
 62
     1
100
AcDbLine
 10
137.000031
 20
355.052196
 30
0.0
 11
139.000031
 21
355.385529
 31
0.0
  0
LINE
  5
2D2
100
AcDbEntity
  8
LAY-6
  6
CONTINUOUS
 62
     1
100
AcDbLine
 10
139.000031
 20
355.385529
 30
0.0
 11
137.000031
 21
355.718862
 31
0.0
  0
LINE
  5
2D3
100
AcDbEntity
  8
LAY-6
  6
CONTINUOUS
 62
     1
100
AcDbLine
 10
139.000031
 20
337.500031
 30
0.0
 11
139.000031
 21
356.385529
 31
0.0
  0
TEXT
  5
2D4
100
AcDbEntity
  8
LAY-6
  6
CONTINUOUS
 62
     2
100
AcDbText
 10
145.250061
 20
355.885529
 30
0.0
 40
5.0
  1
２０
 41
0.672
  7
EXCADSTD
 72
     5
 11
152.582861
 21
355.885529
 31
0.0
100
AcDbText
  0
LINE
  5
2D5
100
AcDbEntity
  8
LAY-6
  6
CONTINUOUS
 62
     1
100
AcDbLine
 10
139.000031
 20
355.385529
 30
0.0
 11
159.000061
 21
355.385529
 31
0.0
  0
LINE
  5
2D6
100
AcDbEntity
  8
LAY-6
  6
CONTINUOUS
 62
     1
100
AcDbLine
 10
141.000031
 20
355.718862
 30
0.0
 11
139.000031
 21
355.385529
 31
0.0
  0
LINE
  5
2D7
100
AcDbEntity
  8
LAY-6
  6
CONTINUOUS
 62
     1
100
AcDbLine
 10
139.000031
 20
355.385529
 30
0.0
 11
141.000031
 21
355.052196
 31
0.0
  0
LINE
  5
2D8
100
AcDbEntity
  8
LAY-6
  6
CONTINUOUS
 62
     1
100
AcDbLine
 10
157.000061
 20
355.052196
 30
0.0
 11
159.000061
 21
355.385529
 31
0.0
  0
LINE
  5
2D9
100
AcDbEntity
  8
LAY-6
  6
CONTINUOUS
 62
     1
100
AcDbLine
 10
159.000061
 20
355.385529
 30
0.0
 11
157.000061
 21
355.718862
 31
0.0
  0
LINE
  5
2DA
100
AcDbEntity
  8
LAY-6
  6
CONTINUOUS
 62
     1
100
AcDbLine
 10
159.000061
 20
337.500062
 30
0.0
 11
159.000061
 21
356.385529
 31
0.0
  0
TEXT
  5
2DB
100
AcDbEntity
  8
LAY-6
  6
CONTINUOUS
 62
     2
100
AcDbText
 10
175.250061
 20
355.885529
 30
0.0
 40
5.0
  1
４０
 41
0.672
  7
EXCADSTD
 72
     5
 11
182.582861
 21
355.885529
 31
0.0
100
AcDbText
  0
LINE
  5
2DC
100
AcDbEntity
  8
LAY-6
  6
CONTINUOUS
 62
     1
100
AcDbLine
 10
159.000061
 20
355.385529
 30
0.0
 11
199.000061
 21
355.385529
 31
0.0
  0
LINE
  5
2DD
100
AcDbEntity
  8
LAY-6
  6
CONTINUOUS
 62
     1
100
AcDbLine
 10
161.000061
 20
355.718862
 30
0.0
 11
159.000061
 21
355.385529
 31
0.0
  0
LINE
  5
2DE
100
AcDbEntity
  8
LAY-6
  6
CONTINUOUS
 62
     1
100
AcDbLine
 10
159.000061
 20
355.385529
 30
0.0
 11
161.000061
 21
355.052196
 31
0.0
  0
LINE
  5
2DF
100
AcDbEntity
  8
LAY-6
  6
CONTINUOUS
 62
     1
100
AcDbLine
 10
197.000061
 20
355.052196
 30
0.0
 11
199.000061
 21
355.385529
 31
0.0
  0
LINE
  5
2E0
100
AcDbEntity
  8
LAY-6
  6
CONTINUOUS
 62
     1
100
AcDbLine
 10
199.000061
 20
355.385529
 30
0.0
 11
197.000061
 21
355.718862
 31
0.0
  0
LINE
  5
2E1
100
AcDbEntity
  8
LAY-6
  6
CONTINUOUS
 62
     1
100
AcDbLine
 10
199.000061
 20
337.500062
 30
0.0
 11
199.000061
 21
356.385529
 31
0.0
  0
LINE
  5
2E2
100
AcDbEntity
  8
LAY-6
  6
CONTINUOUS
 62
     1
100
AcDbLine
 10
219.000031
 20
337.500031
 30
0.0
 11
219.000031
 21
356.385529
 31
0.0
  0
TEXT
  5
2E3
100
AcDbEntity
  8
LAY-6
  6
CONTINUOUS
 62
     2
100
AcDbText
 10
205.250061
 20
355.885529
 30
0.0
 40
5.0
  1
２０
 41
0.672
  7
EXCADSTD
 72
     5
 11
212.582861
 21
355.885529
 31
0.0
100
AcDbText
  0
LINE
  5
2E4
100
AcDbEntity
  8
LAY-6
  6
CONTINUOUS
 62
     1
100
AcDbLine
 10
199.000061
 20
355.385529
 30
0.0
 11
219.000031
 21
355.385529
 31
0.0
  0
LINE
  5
2E5
100
AcDbEntity
  8
LAY-6
  6
CONTINUOUS
 62
     1
100
AcDbLine
 10
201.000061
 20
355.718862
 30
0.0
 11
199.000061
 21
355.385529
 31
0.0
  0
LINE
  5
2E6
100
AcDbEntity
  8
LAY-6
  6
CONTINUOUS
 62
     1
100
AcDbLine
 10
199.000061
 20
355.385529
 30
0.0
 11
201.000061
 21
355.052196
 31
0.0
  0
LINE
  5
2E7
100
AcDbEntity
  8
LAY-6
  6
CONTINUOUS
 62
     1
100
AcDbLine
 10
217.000031
 20
355.052196
 30
0.0
 11
219.000031
 21
355.385529
 31
0.0
  0
LINE
  5
2E8
100
AcDbEntity
  8
LAY-6
  6
CONTINUOUS
 62
     1
100
AcDbLine
 10
219.000031
 20
355.385529
 30
0.0
 11
217.000031
 21
355.718862
 31
0.0
  0
TEXT
  5
2E9
100
AcDbEntity
  8
LAY-6
  6
CONTINUOUS
 62
     2
100
AcDbText
 10
116.625061
 20
366.832886
 30
0.0
 40
5.0
  1
７
 41
0.672
  7
EXCADSTD
 72
     5
 11
119.825061
 21
366.832886
 31
0.0
100
AcDbText
  0
LINE
  5
2EA
100
AcDbEntity
  8
LAY-6
  6
CONTINUOUS
 62
     1
100
AcDbLine
 10
115.000061
 20
366.332886
 30
0.0
 11
122.000031
 21
366.332886
 31
0.0
  0
LINE
  5
2EB
100
AcDbEntity
  8
LAY-6
  6
CONTINUOUS
 62
     1
100
AcDbLine
 10
117.000061
 20
366.666219
 30
0.0
 11
115.000061
 21
366.332886
 31
0.0
  0
LINE
  5
2EC
100
AcDbEntity
  8
LAY-6
  6
CONTINUOUS
 62
     1
100
AcDbLine
 10
115.000061
 20
366.332886
 30
0.0
 11
117.000061
 21
365.999553
 31
0.0
  0
LINE
  5
2ED
100
AcDbEntity
  8
LAY-6
  6
CONTINUOUS
 62
     1
100
AcDbLine
 10
120.000031
 20
365.999553
 30
0.0
 11
122.000031
 21
366.332886
 31
0.0
  0
LINE
  5
2EE
100
AcDbEntity
  8
LAY-6
  6
CONTINUOUS
 62
     1
100
AcDbLine
 10
122.000031
 20
366.332886
 30
0.0
 11
120.000031
 21
366.666219
 31
0.0
  0
TEXT
  5
2EF
100
AcDbEntity
  8
LAY-6
  6
CONTINUOUS
 62
     2
100
AcDbText
 10
123.625031
 20
366.832886
 30
0.0
 40
5.0
  1
７
 41
0.672
  7
EXCADSTD
 72
     5
 11
126.825031
 21
366.832886
 31
0.0
100
AcDbText
  0
LINE
  5
2F0
100
AcDbEntity
  8
LAY-6
  6
CONTINUOUS
 62
     1
100
AcDbLine
 10
122.000031
 20
343.500031
 30
0.0
 11
122.000031
 21
367.332886
 31
0.0
  0
LINE
  5
2F1
100
AcDbEntity
  8
LAY-6
  6
CONTINUOUS
 62
     1
100
AcDbLine
 10
122.000031
 20
366.332886
 30
0.0
 11
129.000031
 21
366.332886
 31
0.0
  0
LINE
  5
2F2
100
AcDbEntity
  8
LAY-6
  6
CONTINUOUS
 62
     1
100
AcDbLine
 10
124.000031
 20
366.666219
 30
0.0
 11
122.000031
 21
366.332886
 31
0.0
  0
LINE
  5
2F3
100
AcDbEntity
  8
LAY-6
  6
CONTINUOUS
 62
     1
100
AcDbLine
 10
122.000031
 20
366.332886
 30
0.0
 11
124.000031
 21
365.999553
 31
0.0
  0
LINE
  5
2F4
100
AcDbEntity
  8
LAY-6
  6
CONTINUOUS
 62
     1
100
AcDbLine
 10
127.000031
 20
365.999553
 30
0.0
 11
129.000031
 21
366.332886
 31
0.0
  0
LINE
  5
2F5
100
AcDbEntity
  8
LAY-6
  6
CONTINUOUS
 62
     1
100
AcDbLine
 10
129.000031
 20
366.332886
 30
0.0
 11
127.000031
 21
366.666219
 31
0.0
  0
TEXT
  5
2F6
100
AcDbEntity
  8
LAY-6
  6
CONTINUOUS
 62
     2
100
AcDbText
 10
173.375031
 20
366.832886
 30
0.0
 40
5.0
  1
１００
 41
0.672
  7
EXCADSTD
 72
     5
 11
185.375031
 21
366.832886
 31
0.0
100
AcDbText
  0
LINE
  5
2F7
100
AcDbEntity
  8
LAY-6
  6
CONTINUOUS
 62
     1
100
AcDbLine
 10
229.000031
 20
335.500031
 30
0.0
 11
229.000031
 21
367.332886
 31
0.0
  0
LINE
  5
2F8
100
AcDbEntity
  8
LAY-6
  6
CONTINUOUS
 62
     1
100
AcDbLine
 10
129.000031
 20
366.332886
 30
0.0
 11
229.000031
 21
366.332886
 31
0.0
  0
LINE
  5
2F9
100
AcDbEntity
  8
LAY-6
  6
CONTINUOUS
 62
     1
100
AcDbLine
 10
131.000031
 20
366.666219
 30
0.0
 11
129.000031
 21
366.332886
 31
0.0
  0
LINE
  5
2FA
100
AcDbEntity
  8
LAY-6
  6
CONTINUOUS
 62
     1
100
AcDbLine
 10
129.000031
 20
366.332886
 30
0.0
 11
131.000031
 21
365.999553
 31
0.0
  0
LINE
  5
2FB
100
AcDbEntity
  8
LAY-6
  6
CONTINUOUS
 62
     1
100
AcDbLine
 10
227.000031
 20
365.999553
 30
0.0
 11
229.000031
 21
366.332886
 31
0.0
  0
LINE
  5
2FC
100
AcDbEntity
  8
LAY-6
  6
CONTINUOUS
 62
     1
100
AcDbLine
 10
229.000031
 20
366.332886
 30
0.0
 11
227.000031
 21
366.666219
 31
0.0
  0
LINE
  5
2FD
100
AcDbEntity
  8
LAY-6
  6
CONTINUOUS
 62
     1
100
AcDbLine
 10
185.455841
 20
303.000092
 30
0.0
 11
191.218018
 21
303.000092
 31
0.0
  0
TEXT
  5
2FE
100
AcDbEntity
  8
LAY-6
  6
CONTINUOUS
 62
     2
100
AcDbText
 10
190.718018
 20
285.000062
 30
0.0
 40
5.0
  1
２８
 50
90.0
 41
0.672
  7
EXCADSTD
 72
     5
 11
190.718018
 21
292.332862
 31
0.0
100
AcDbText
  0
LINE
  5
2FF
100
AcDbEntity
  8
LAY-6
  6
CONTINUOUS
 62
     1
100
AcDbLine
 10
191.218018
 20
303.000092
 30
0.0
 11
191.218018
 21
275.000031
 31
0.0
  0
LINE
  5
300
100
AcDbEntity
  8
LAY-6
  6
CONTINUOUS
 62
     1
100
AcDbLine
 10
191.551351
 20
301.000092
 30
0.0
 11
191.218018
 21
303.000092
 31
0.0
  0
LINE
  5
301
100
AcDbEntity
  8
LAY-6
  6
CONTINUOUS
 62
     1
100
AcDbLine
 10
191.218018
 20
303.000092
 30
0.0
 11
190.884685
 21
301.000092
 31
0.0
  0
LINE
  5
302
100
AcDbEntity
  8
LAY-6
  6
CONTINUOUS
 62
     1
100
AcDbLine
 10
190.884685
 20
277.000031
 30
0.0
 11
191.218018
 21
275.000031
 31
0.0
  0
LINE
  5
303
100
AcDbEntity
  8
LAY-6
  6
CONTINUOUS
 62
     1
100
AcDbLine
 10
191.218018
 20
275.000031
 30
0.0
 11
191.551351
 21
277.000031
 31
0.0
  0
TEXT
  5
304
100
AcDbEntity
  8
LAY-6
  6
CONTINUOUS
 62
     2
100
AcDbText
 10
190.718018
 20
304.000062
 30
0.0
 40
5.0
  1
６
 50
90.0
 41
0.672
  7
EXCADSTD
 72
     5
 11
190.718018
 21
307.200062
 31
0.0
100
AcDbText
  0
LINE
  5
305
100
AcDbEntity
  8
LAY-6
  6
CONTINUOUS
 62
     1
100
AcDbLine
 10
191.218018
 20
314.000031
 30
0.0
 11
191.218018
 21
309.000031
 31
0.0
  0
LINE
  5
306
100
AcDbEntity
  8
LAY-6
  6
CONTINUOUS
 62
     1
100
AcDbLine
 10
191.218018
 20
303.000092
 30
0.0
 11
191.218018
 21
298.000092
 31
0.0
  0
LINE
  5
307
100
AcDbEntity
  8
LAY-6
  6
CONTINUOUS
 62
     1
100
AcDbLine
 10
190.884685
 20
311.000031
 30
0.0
 11
191.218018
 21
309.000031
 31
0.0
  0
LINE
  5
308
100
AcDbEntity
  8
LAY-6
  6
CONTINUOUS
 62
     1
100
AcDbLine
 10
191.218018
 20
309.000031
 30
0.0
 11
191.551351
 21
311.000031
 31
0.0
  0
LINE
  5
309
100
AcDbEntity
  8
LAY-6
  6
CONTINUOUS
 62
     1
100
AcDbLine
 10
191.551351
 20
301.000092
 30
0.0
 11
191.218018
 21
303.000092
 31
0.0
  0
LINE
  5
30A
100
AcDbEntity
  8
LAY-6
  6
CONTINUOUS
 62
     1
100
AcDbLine
 10
191.218018
 20
303.000092
 30
0.0
 11
190.884685
 21
301.000092
 31
0.0
  0
TEXT
  5
30B
100
AcDbEntity
  8
LAY-6
  6
CONTINUOUS
 62
     2
100
AcDbText
 10
190.718018
 20
319.000031
 30
0.0
 40
5.0
  1
２８
 50
90.0
 41
0.672
  7
EXCADSTD
 72
     5
 11
190.718018
 21
326.332831
 31
0.0
100
AcDbText
  0
LINE
  5
30C
100
AcDbEntity
  8
LAY-6
  6
CONTINUOUS
 62
     1
100
AcDbLine
 10
191.218018
 20
309.000031
 30
0.0
 11
191.218018
 21
337.000031
 31
0.0
  0
LINE
  5
30D
100
AcDbEntity
  8
LAY-6
  6
CONTINUOUS
 62
     1
100
AcDbLine
 10
190.884685
 20
311.000031
 30
0.0
 11
191.218018
 21
309.000031
 31
0.0
  0
LINE
  5
30E
100
AcDbEntity
  8
LAY-6
  6
CONTINUOUS
 62
     1
100
AcDbLine
 10
191.218018
 20
309.000031
 30
0.0
 11
191.551351
 21
311.000031
 31
0.0
  0
LINE
  5
30F
100
AcDbEntity
  8
LAY-6
  6
CONTINUOUS
 62
     1
100
AcDbLine
 10
191.551351
 20
335.000031
 30
0.0
 11
191.218018
 21
337.000031
 31
0.0
  0
LINE
  5
310
100
AcDbEntity
  8
LAY-6
  6
CONTINUOUS
 62
     1
100
AcDbLine
 10
191.218018
 20
337.000031
 30
0.0
 11
190.884685
 21
335.000031
 31
0.0
  0
LINE
  5
311
100
AcDbEntity
  8
LAY-6
  6
CONTINUOUS
 62
     1
100
AcDbLine
 10
212.500031
 20
328.000062
 30
0.0
 11
209.166107
 21
328.000062
 31
0.0
  0
LINE
  5
312
100
AcDbEntity
  8
LAY-6
  6
CONTINUOUS
 62
     1
100
AcDbLine
 10
205.500031
 20
318.000062
 30
0.0
 11
211.166107
 21
318.000062
 31
0.0
  0
TEXT
  5
313
100
AcDbEntity
  8
LAY-6
  6
CONTINUOUS
 62
     2
100
AcDbText
 10
209.666107
 20
319.250062
 30
0.0
 40
5.0
  1
１０
 50
90.0
 41
0.672
  7
EXCADSTD
 72
     5
 11
209.666107
 21
326.582862
 31
0.0
100
AcDbText
  0
LINE
  5
314
100
AcDbEntity
  8
LAY-6
  6
CONTINUOUS
 62
     1
100
AcDbLine
 10
210.166107
 20
328.000062
 30
0.0
 11
210.166107
 21
318.000062
 31
0.0
  0
LINE
  5
315
100
AcDbEntity
  8
LAY-6
  6
CONTINUOUS
 62
     1
100
AcDbLine
 10
210.49944
 20
326.000062
 30
0.0
 11
210.166107
 21
328.000062
 31
0.0
  0
LINE
  5
316
100
AcDbEntity
  8
LAY-6
  6
CONTINUOUS
 62
     1
100
AcDbLine
 10
210.166107
 20
328.000062
 30
0.0
 11
209.832774
 21
326.000062
 31
0.0
  0
LINE
  5
317
100
AcDbEntity
  8
LAY-6
  6
CONTINUOUS
 62
     1
100
AcDbLine
 10
209.832774
 20
320.000062
 30
0.0
 11
210.166107
 21
318.000062
 31
0.0
  0
LINE
  5
318
100
AcDbEntity
  8
LAY-6
  6
CONTINUOUS
 62
     1
100
AcDbLine
 10
210.166107
 20
318.000062
 30
0.0
 11
210.49944
 21
320.000062
 31
0.0
  0
LINE
  5
319
100
AcDbEntity
  8
LAY-6
  6
CONTINUOUS
 62
     1
100
AcDbLine
 10
205.500031
 20
318.000062
 30
0.0
 11
211.166107
 21
318.000062
 31
0.0
  0
LINE
  5
31A
100
AcDbEntity
  8
LAY-6
  6
CONTINUOUS
 62
     1
100
AcDbLine
 10
205.293243
 20
309.000031
 30
0.0
 11
211.166107
 21
309.000031
 31
0.0
  0
TEXT
  5
31B
100
AcDbEntity
  8
LAY-6
  6
CONTINUOUS
 62
     2
100
AcDbText
 10
209.666107
 20
311.625031
 30
0.0
 40
5.0
  1
９
 50
90.0
 41
0.672
  7
EXCADSTD
 72
     5
 11
209.666107
 21
314.825031
 31
0.0
100
AcDbText
  0
LINE
  5
31C
100
AcDbEntity
  8
LAY-6
  6
CONTINUOUS
 62
     1
100
AcDbLine
 10
210.166107
 20
318.000062
 30
0.0
 11
210.166107
 21
309.000031
 31
0.0
  0
LINE
  5
31D
100
AcDbEntity
  8
LAY-6
  6
CONTINUOUS
 62
     1
100
AcDbLine
 10
210.49944
 20
316.000062
 30
0.0
 11
210.166107
 21
318.000062
 31
0.0
  0
LINE
  5
31E
100
AcDbEntity
  8
LAY-6
  6
CONTINUOUS
 62
     1
100
AcDbLine
 10
210.166107
 20
318.000062
 30
0.0
 11
209.832774
 21
316.000062
 31
0.0
  0
LINE
  5
31F
100
AcDbEntity
  8
LAY-6
  6
CONTINUOUS
 62
     1
100
AcDbLine
 10
209.832774
 20
311.000031
 30
0.0
 11
210.166107
 21
309.000031
 31
0.0
  0
LINE
  5
320
100
AcDbEntity
  8
LAY-6
  6
CONTINUOUS
 62
     1
100
AcDbLine
 10
210.166107
 20
309.000031
 30
0.0
 11
210.49944
 21
311.000031
 31
0.0
  0
LINE
  5
321
100
AcDbEntity
  8
LAY-6
  6
CONTINUOUS
 62
     1
100
AcDbLine
 10
586.000061
 20
345.166718
 30
0.0
 11
559.933502
 21
345.166718
 31
0.0
  0
TEXT
  5
322
100
AcDbEntity
  8
LAY-6
  6
CONTINUOUS
 62
     2
100
AcDbText
 10
560.433502
 20
330.916718
 30
0.0
 40
5.0
  1
２１
 50
90.0
 41
0.672
  7
EXCADSTD
 72
     5
 11
560.433502
 21
338.249518
 31
0.0
100
AcDbText
  0
LINE
  5
323
100
AcDbEntity
  8
LAY-6
  6
CONTINUOUS
 62
     1
100
AcDbLine
 10
560.933502
 20
345.166718
 30
0.0
 11
560.933502
 21
324.166718
 31
0.0
  0
LINE
  5
324
100
AcDbEntity
  8
LAY-6
  6
CONTINUOUS
 62
     1
100
AcDbLine
 10
561.266835
 20
343.166718
 30
0.0
 11
560.933502
 21
345.166718
 31
0.0
  0
LINE
  5
325
100
AcDbEntity
  8
LAY-6
  6
CONTINUOUS
 62
     1
100
AcDbLine
 10
560.933502
 20
345.166718
 30
0.0
 11
560.600169
 21
343.166718
 31
0.0
  0
LINE
  5
326
100
AcDbEntity
  8
LAY-6
  6
CONTINUOUS
 62
     1
100
AcDbLine
 10
560.600169
 20
326.166718
 30
0.0
 11
560.933502
 21
324.166718
 31
0.0
  0
LINE
  5
327
100
AcDbEntity
  8
LAY-6
  6
CONTINUOUS
 62
     1
100
AcDbLine
 10
560.933502
 20
324.166718
 30
0.0
 11
561.266835
 21
326.166718
 31
0.0
  0
LINE
  5
328
100
AcDbEntity
  8
LAY-6
  6
CONTINUOUS
 62
     1
100
AcDbLine
 10
566.500031
 20
314.16671
 30
0.0
 11
559.933472
 21
314.16671
 31
0.0
  0
LINE
  5
329
100
AcDbEntity
  8
LAY-6
  6
CONTINUOUS
 62
     1
100
AcDbLine
 10
586.000061
 20
324.166718
 30
0.0
 11
559.933502
 21
324.166718
 31
0.0
  0
TEXT
  5
32A
100
AcDbEntity
  8
LAY-6
  6
CONTINUOUS
 62
     2
100
AcDbText
 10
560.433502
 20
315.916718
 30
0.0
 40
5.0
  1
１０
 50
90.0
 41
0.672
  7
EXCADSTD
 72
     5
 11
560.433502
 21
323.249518
 31
0.0
100
AcDbText
  0
LINE
  5
32B
100
AcDbEntity
  8
LAY-6
  6
CONTINUOUS
 62
     1
100
AcDbLine
 10
560.933502
 20
324.166718
 30
0.0
 11
560.933502
 21
314.16671
 31
0.0
  0
LINE
  5
32C
100
AcDbEntity
  8
LAY-6
  6
CONTINUOUS
 62
     1
100
AcDbLine
 10
561.266835
 20
322.166718
 30
0.0
 11
560.933502
 21
324.166718
 31
0.0
  0
LINE
  5
32D
100
AcDbEntity
  8
LAY-6
  6
CONTINUOUS
 62
     1
100
AcDbLine
 10
560.933502
 20
324.166718
 30
0.0
 11
560.600169
 21
322.166718
 31
0.0
  0
LINE
  5
32E
100
AcDbEntity
  8
LAY-6
  6
CONTINUOUS
 62
     1
100
AcDbLine
 10
560.600169
 20
316.16671
 30
0.0
 11
560.933502
 21
314.16671
 31
0.0
  0
LINE
  5
32F
100
AcDbEntity
  8
LAY-6
  6
CONTINUOUS
 62
     1
100
AcDbLine
 10
560.933502
 20
314.16671
 30
0.0
 11
561.266835
 21
316.16671
 31
0.0
  0
LINE
  5
330
100
AcDbEntity
  8
LAY-6
  6
CONTINUOUS
 62
     1
100
AcDbLine
 10
667.932495
 20
337.166779
 30
0.0
 11
688.348389
 21
337.166779
 31
0.0
  0
LINE
  5
331
100
AcDbEntity
  8
LAY-6
  6
CONTINUOUS
 62
     1
100
AcDbLine
 10
676.5
 20
324.166718
 30
0.0
 11
692.173218
 21
324.166718
 31
0.0
  0
LINE
  5
332
100
AcDbEntity
  8
LAY-6
  6
CONTINUOUS
 62
     1
100
AcDbLine
 10
664.850037
 20
337.166779
 30
0.0
 11
692.173218
 21
337.166779
 31
0.0
  0
TEXT
  5
333
100
AcDbEntity
  8
LAY-6
  6
CONTINUOUS
 62
     2
100
AcDbText
 10
690.673218
 20
325.416748
 30
0.0
 40
5.0
  1
１３
 50
90.0
 41
0.672
  7
EXCADSTD
 72
     5
 11
690.673218
 21
332.749548
 31
0.0
100
AcDbText
  0
LINE
  5
334
100
AcDbEntity
  8
LAY-6
  6
CONTINUOUS
 62
     1
100
AcDbLine
 10
691.173218
 20
324.166718
 30
0.0
 11
691.173218
 21
337.166779
 31
0.0
  0
LINE
  5
335
100
AcDbEntity
  8
LAY-6
  6
CONTINUOUS
 62
     1
100
AcDbLine
 10
690.839885
 20
326.166718
 30
0.0
 11
691.173218
 21
324.166718
 31
0.0
  0
LINE
  5
336
100
AcDbEntity
  8
LAY-6
  6
CONTINUOUS
 62
     1
100
AcDbLine
 10
691.173218
 20
324.166718
 30
0.0
 11
691.506551
 21
326.166718
 31
0.0
  0
LINE
  5
337
100
AcDbEntity
  8
LAY-6
  6
CONTINUOUS
 62
     1
100
AcDbLine
 10
691.506551
 20
335.166779
 30
0.0
 11
691.173218
 21
337.166779
 31
0.0
  0
LINE
  5
338
100
AcDbEntity
  8
LAY-6
  6
CONTINUOUS
 62
     1
100
AcDbLine
 10
691.173218
 20
337.166779
 30
0.0
 11
690.839885
 21
335.166779
 31
0.0
  0
LINE
  5
339
100
AcDbEntity
  8
LAY-6
  6
CONTINUOUS
 62
     1
100
AcDbLine
 10
608.000061
 20
359.16748
 30
0.0
 11
608.000061
 21
354.337738
 31
0.0
  0
TEXT
  5
33A
100
AcDbEntity
  8
LAY-6
  6
CONTINUOUS
 62
     2
100
AcDbText
 10
618.250031
 20
355.837738
 30
0.0
 40
5.0
  1
２８
 41
0.672
  7
EXCADSTD
 72
     5
 11
625.582831
 21
355.837738
 31
0.0
100
AcDbText
  0
LINE
  5
33B
100
AcDbEntity
  8
LAY-6
  6
CONTINUOUS
 62
     1
100
AcDbLine
 10
636.0
 20
355.337738
 30
0.0
 11
608.000061
 21
355.337738
 31
0.0
  0
LINE
  5
33C
100
AcDbEntity
  8
LAY-6
  6
CONTINUOUS
 62
     1
100
AcDbLine
 10
634.0
 20
355.004405
 30
0.0
 11
636.0
 21
355.337738
 31
0.0
  0
LINE
  5
33D
100
AcDbEntity
  8
LAY-6
  6
CONTINUOUS
 62
     1
100
AcDbLine
 10
636.0
 20
355.337738
 30
0.0
 11
634.0
 21
355.671071
 31
0.0
  0
LINE
  5
33E
100
AcDbEntity
  8
LAY-6
  6
CONTINUOUS
 62
     1
100
AcDbLine
 10
610.000061
 20
355.671071
 30
0.0
 11
608.000061
 21
355.337738
 31
0.0
  0
LINE
  5
33F
100
AcDbEntity
  8
LAY-6
  6
CONTINUOUS
 62
     1
100
AcDbLine
 10
608.000061
 20
355.337738
 30
0.0
 11
610.000061
 21
355.004405
 31
0.0
  0
LINE
  5
340
100
AcDbEntity
  8
LAY-6
  6
CONTINUOUS
 62
     1
100
AcDbLine
 10
670.000061
 20
331.166748
 30
0.0
 11
670.000061
 21
356.337738
 31
0.0
  0
TEXT
  5
341
100
AcDbEntity
  8
LAY-6
  6
CONTINUOUS
 62
     2
100
AcDbText
 10
649.25
 20
355.837753
 30
0.0
 40
5.0
  1
３４
 41
0.672
  7
EXCADSTD
 72
     5
 11
656.5828
 21
355.837753
 31
0.0
100
AcDbText
  0
LINE
  5
342
100
AcDbEntity
  8
LAY-6
  6
CONTINUOUS
 62
     1
100
AcDbLine
 10
670.000061
 20
355.337738
 30
0.0
 11
636.0
 21
355.337738
 31
0.0
  0
LINE
  5
343
100
AcDbEntity
  8
LAY-6
  6
CONTINUOUS
 62
     1
100
AcDbLine
 10
668.000061
 20
355.004405
 30
0.0
 11
670.000061
 21
355.337738
 31
0.0
  0
LINE
  5
344
100
AcDbEntity
  8
LAY-6
  6
CONTINUOUS
 62
     1
100
AcDbLine
 10
670.000061
 20
355.337738
 30
0.0
 11
668.000061
 21
355.671071
 31
0.0
  0
LINE
  5
345
100
AcDbEntity
  8
LAY-6
  6
CONTINUOUS
 62
     1
100
AcDbLine
 10
638.0
 20
355.671071
 30
0.0
 11
636.0
 21
355.337738
 31
0.0
  0
LINE
  5
346
100
AcDbEntity
  8
LAY-6
  6
CONTINUOUS
 62
     1
100
AcDbLine
 10
636.0
 20
355.337738
 30
0.0
 11
638.0
 21
355.004405
 31
0.0
  0
POLYLINE
  5
347
100
AcDbEntity
  8
LAY-6
  6
CONTINUOUS
 62
     1
100
AcDb2dPolyline
 66
     1
 10
0.0
 20
0.0
 30
0.0
 70
   128
  0
VERTEX
  5
348
100
AcDbEntity
  8
LAY-6
  6
CONTINUOUS
 62
     1
100
AcDbVertex
100
AcDb2dVertex
 10
651.000061
 20
344.166809
 30
0.0
  0
VERTEX
  5
349
100
AcDbEntity
  8
LAY-6
  6
CONTINUOUS
 62
     1
100
AcDbVertex
100
AcDb2dVertex
 10
626.146393
 20
387.2146
 30
0.0
  0
VERTEX
  5
34A
100
AcDbEntity
  8
LAY-6
  6
CONTINUOUS
 62
     1
100
AcDbVertex
100
AcDb2dVertex
 10
556.008179
 20
387.2146
 30
0.0
  0
VERTEX
  5
34B
100
AcDbEntity
  8
LAY-6
  6
CONTINUOUS
 62
     1
100
AcDbVertex
100
AcDb2dVertex
 10
556.008179
 20
387.052261
 30
0.0
  0
SEQEND
  5
34C
100
AcDbEntity
  8
LAY-6
  6
CONTINUOUS
 62
     1
  0
LINE
  5
34D
100
AcDbEntity
  8
LAY-6
  6
CONTINUOUS
 62
     1
100
AcDbLine
 10
649.711385
 20
345.732193
 30
0.0
 11
651.000061
 21
344.166809
 31
0.0
  0
LINE
  5
34E
100
AcDbEntity
  8
LAY-6
  6
CONTINUOUS
 62
     1
100
AcDbLine
 10
651.000061
 20
344.166809
 30
0.0
 11
650.288736
 21
346.065526
 31
0.0
  0
LINE
  5
34F
100
AcDbEntity
  8
LAY-6
  6
CONTINUOUS
 62
     1
100
AcDbLine
 10
608.000061
 20
451.605591
 30
0.0
 11
608.000061
 21
452.621033
 31
0.0
  0
TEXT
  5
350
100
AcDbEntity
  8
LAY-6
  6
CONTINUOUS
 62
     2
100
AcDbText
 10
618.250031
 20
452.121033
 30
0.0
 40
5.0
  1
２８
 41
0.672
  7
EXCADSTD
 72
     5
 11
625.582831
 21
452.121033
 31
0.0
100
AcDbText
  0
LINE
  5
351
100
AcDbEntity
  8
LAY-6
  6
CONTINUOUS
 62
     1
100
AcDbLine
 10
636.000061
 20
451.621033
 30
0.0
 11
608.000061
 21
451.621033
 31
0.0
  0
LINE
  5
352
100
AcDbEntity
  8
LAY-6
  6
CONTINUOUS
 62
     1
100
AcDbLine
 10
634.000061
 20
451.2877
 30
0.0
 11
636.000061
 21
451.621033
 31
0.0
  0
LINE
  5
353
100
AcDbEntity
  8
LAY-6
  6
CONTINUOUS
 62
     1
100
AcDbLine
 10
636.000061
 20
451.621033
 30
0.0
 11
634.000061
 21
451.954366
 31
0.0
  0
LINE
  5
354
100
AcDbEntity
  8
LAY-6
  6
CONTINUOUS
 62
     1
100
AcDbLine
 10
610.000061
 20
451.954366
 30
0.0
 11
608.000061
 21
451.621033
 31
0.0
  0
LINE
  5
355
100
AcDbEntity
  8
LAY-6
  6
CONTINUOUS
 62
     1
100
AcDbLine
 10
608.000061
 20
451.621033
 30
0.0
 11
610.000061
 21
451.2877
 31
0.0
  0
LINE
  5
356
100
AcDbEntity
  8
LAY-6
  6
CONTINUOUS
 62
     1
100
AcDbLine
 10
670.000061
 20
479.954407
 30
0.0
 11
670.000061
 21
450.621033
 31
0.0
  0
TEXT
  5
357
100
AcDbEntity
  8
LAY-6
  6
CONTINUOUS
 62
     2
100
AcDbText
 10
649.250061
 20
452.121033
 30
0.0
 40
5.0
  1
３４
 41
0.672
  7
EXCADSTD
 72
     5
 11
656.582861
 21
452.121033
 31
0.0
100
AcDbText
  0
LINE
  5
358
100
AcDbEntity
  8
LAY-6
  6
CONTINUOUS
 62
     1
100
AcDbLine
 10
670.000061
 20
451.621033
 30
0.0
 11
636.000061
 21
451.621033
 31
0.0
  0
LINE
  5
359
100
AcDbEntity
  8
LAY-6
  6
CONTINUOUS
 62
     1
100
AcDbLine
 10
668.000061
 20
451.2877
 30
0.0
 11
670.000061
 21
451.621033
 31
0.0
  0
LINE
  5
35A
100
AcDbEntity
  8
LAY-6
  6
CONTINUOUS
 62
     1
100
AcDbLine
 10
670.000061
 20
451.621033
 30
0.0
 11
668.000061
 21
451.954366
 31
0.0
  0
LINE
  5
35B
100
AcDbEntity
  8
LAY-6
  6
CONTINUOUS
 62
     1
100
AcDbLine
 10
638.000061
 20
451.954366
 30
0.0
 11
636.000061
 21
451.621033
 31
0.0
  0
LINE
  5
35C
100
AcDbEntity
  8
LAY-6
  6
CONTINUOUS
 62
     1
100
AcDbLine
 10
636.000061
 20
451.621033
 30
0.0
 11
638.000061
 21
451.2877
 31
0.0
  0
POLYLINE
  5
35D
100
AcDbEntity
  8
LAY-6
  6
CONTINUOUS
 62
     1
100
AcDb2dPolyline
 66
     1
 10
0.0
 20
0.0
 30
0.0
 70
   128
  0
VERTEX
  5
35E
100
AcDbEntity
  8
LAY-6
  6
CONTINUOUS
 62
     1
100
AcDbVertex
100
AcDb2dVertex
 10
651.000061
 20
468.454407
 30
0.0
  0
VERTEX
  5
35F
100
AcDbEntity
  8
LAY-6
  6
CONTINUOUS
 62
     1
100
AcDbVertex
100
AcDb2dVertex
 10
626.061218
 20
425.259079
 30
0.0
  0
VERTEX
  5
360
100
AcDbEntity
  8
LAY-6
  6
CONTINUOUS
 62
     1
100
AcDbVertex
100
AcDb2dVertex
 10
555.446777
 20
425.259079
 30
0.0
  0
VERTEX
  5
361
100
AcDbEntity
  8
LAY-6
  6
CONTINUOUS
 62
     1
100
AcDbVertex
100
AcDb2dVertex
 10
555.446777
 20
425.069824
 30
0.0
  0
SEQEND
  5
362
100
AcDbEntity
  8
LAY-6
  6
CONTINUOUS
 62
     1
  0
LINE
  5
363
100
AcDbEntity
  8
LAY-6
  6
CONTINUOUS
 62
     1
100
AcDbLine
 10
650.288736
 20
466.55569
 30
0.0
 11
651.000061
 21
468.454407
 31
0.0
  0
LINE
  5
364
100
AcDbEntity
  8
LAY-6
  6
CONTINUOUS
 62
     1
100
AcDbLine
 10
651.000061
 20
468.454407
 30
0.0
 11
649.711386
 21
466.889023
 31
0.0
  0
LINE
  5
365
100
AcDbEntity
  8
LAY-6
  6
CONTINUOUS
 62
     1
100
AcDbLine
 10
673.752502
 20
487.454437
 30
0.0
 11
689.348389
 21
487.454437
 31
0.0
  0
LINE
  5
366
100
AcDbEntity
  8
LAY-6
  6
CONTINUOUS
 62
     1
100
AcDbLine
 10
694.2
 20
460.300001
 30
0.0
 11
694.2
 21
498.954376
 31
0.0
  0
LINE
  5
367
100
AcDbEntity
  8
LAY-6
  6
CONTINUOUS
 62
     1
100
AcDbLine
 10
694.533333
 20
485.454437
 30
0.0
 11
694.2
 21
487.454437
 31
0.0
  0
LINE
  5
368
100
AcDbEntity
  8
LAY-6
  6
CONTINUOUS
 62
     1
100
AcDbLine
 10
694.2
 20
487.454437
 30
0.0
 11
693.866667
 21
485.454437
 31
0.0
  0
LINE
  5
369
100
AcDbEntity
  8
LAY-6
  6
CONTINUOUS
 62
     1
100
AcDbLine
 10
693.866667
 20
495.954376
 30
0.0
 11
694.2
 21
493.954376
 31
0.0
  0
LINE
  5
36A
100
AcDbEntity
  8
LAY-6
  6
CONTINUOUS
 62
     1
100
AcDbLine
 10
694.2
 20
493.954376
 30
0.0
 11
694.533333
 21
495.954376
 31
0.0
  0
TEXT
  5
36B
100
AcDbEntity
  8
LAY-6
  6
CONTINUOUS
 62
     2
100
AcDbText
 10
693.885058
 20
460.189545
 30
0.0
 40
5.0
  1
５.５～７.５
 50
90.0
 41
0.607347
  7
EXCADSTD
 72
     5
 11
693.885058
 21
484.189545
 31
0.0
100
AcDbText
  0
LINE
  5
36C
100
AcDbEntity
  8
LAY-6
  6
CONTINUOUS
 62
     1
100
AcDbLine
 10
673.752502
 20
487.454437
 30
0.0
 11
695.2
 21
487.454437
 31
0.0
  0
LINE
  5
36D
100
AcDbEntity
  8
LAY-6
  6
CONTINUOUS
 62
     1
100
AcDbLine
 10
677.993835
 20
493.954376
 30
0.0
 11
695.2
 21
493.954376
 31
0.0
  0
LINE
  5
36E
100
AcDbEntity
  8
LAY-6
  6
CONTINUOUS
 62
     1
100
AcDbLine
 10
635.500061
 20
476.454407
 30
0.0
 11
623.38205
 21
476.454407
 31
0.0
  0
LINE
  5
36F
100
AcDbEntity
  8
LAY-6
  6
CONTINUOUS
 62
     1
100
AcDbLine
 10
635.500061
 20
484.454407
 30
0.0
 11
623.38205
 21
484.454407
 31
0.0
  0
TEXT
  5
370
100
AcDbEntity
  8
LAY-6
  6
CONTINUOUS
 62
     2
100
AcDbText
 10
623.88205
 20
478.579407
 30
0.0
 40
5.0
  1
８
 50
90.0
 41
0.672
  7
EXCADSTD
 72
     5
 11
623.88205
 21
481.779407
 31
0.0
100
AcDbText
  0
LINE
  5
371
100
AcDbEntity
  8
LAY-6
  6
CONTINUOUS
 62
     1
100
AcDbLine
 10
624.38205
 20
476.454407
 30
0.0
 11
624.38205
 21
484.454407
 31
0.0
  0
LINE
  5
372
100
AcDbEntity
  8
LAY-6
  6
CONTINUOUS
 62
     1
100
AcDbLine
 10
624.048717
 20
478.454407
 30
0.0
 11
624.38205
 21
476.454407
 31
0.0
  0
LINE
  5
373
100
AcDbEntity
  8
LAY-6
  6
CONTINUOUS
 62
     1
100
AcDbLine
 10
624.38205
 20
476.454407
 30
0.0
 11
624.715383
 21
478.454407
 31
0.0
  0
LINE
  5
374
100
AcDbEntity
  8
LAY-6
  6
CONTINUOUS
 62
     1
100
AcDbLine
 10
624.715383
 20
482.454407
 30
0.0
 11
624.38205
 21
484.454407
 31
0.0
  0
LINE
  5
375
100
AcDbEntity
  8
LAY-6
  6
CONTINUOUS
 62
     1
100
AcDbLine
 10
624.38205
 20
484.454407
 30
0.0
 11
624.048717
 21
482.454407
 31
0.0
  0
LINE
  5
376
100
AcDbEntity
  8
LAY-6
  6
CONTINUOUS
 62
     1
100
AcDbLine
 10
670.000061
 20
495.954376
 30
0.0
 11
670.000061
 21
520.969269
 31
0.0
  0
TEXT
  5
377
100
AcDbEntity
  8
LAY-6
  6
CONTINUOUS
 62
     2
100
AcDbText
 10
647.746887
 20
520.469269
 30
0.0
 40
5.0
  1
３７
 41
0.672
  7
EXCADSTD
 72
     5
 11
655.079687
 21
520.469269
 31
0.0
100
AcDbText
  0
LINE
  5
378
100
AcDbEntity
  8
LAY-6
  6
CONTINUOUS
 62
     1
100
AcDbLine
 10
670.000061
 20
519.969269
 30
0.0
 11
632.993713
 21
519.969269
 31
0.0
  0
LINE
  5
379
100
AcDbEntity
  8
LAY-6
  6
CONTINUOUS
 62
     1
100
AcDbLine
 10
668.000061
 20
519.635936
 30
0.0
 11
670.000061
 21
519.969269
 31
0.0
  0
LINE
  5
37A
100
AcDbEntity
  8
LAY-6
  6
CONTINUOUS
 62
     1
100
AcDbLine
 10
670.000061
 20
519.969269
 30
0.0
 11
668.000061
 21
520.302602
 31
0.0
  0
LINE
  5
37B
100
AcDbEntity
  8
LAY-6
  6
CONTINUOUS
 62
     1
100
AcDbLine
 10
634.993713
 20
520.302602
 30
0.0
 11
632.993713
 21
519.969269
 31
0.0
  0
LINE
  5
37C
100
AcDbEntity
  8
LAY-6
  6
CONTINUOUS
 62
     1
100
AcDbLine
 10
632.993713
 20
519.969269
 30
0.0
 11
634.993713
 21
519.635936
 31
0.0
  0
LINE
  5
37D
100
AcDbEntity
  8
LAY-6
  6
CONTINUOUS
 62
     1
100
AcDbLine
 10
632.993713
 20
504.454437
 30
0.0
 11
632.993713
 21
520.969269
 31
0.0
  0
LINE
  5
37E
100
AcDbEntity
  8
LAY-6
  6
CONTINUOUS
 62
     1
100
AcDbLine
 10
608.000061
 20
519.953888
 30
0.0
 11
608.000061
 21
520.969269
 31
0.0
  0
TEXT
  5
37F
100
AcDbEntity
  8
LAY-6
  6
CONTINUOUS
 62
     2
100
AcDbText
 10
616.746887
 20
520.469238
 30
0.0
 40
5.0
  1
２５
 41
0.672
  7
EXCADSTD
 72
     5
 11
624.079687
 21
520.469238
 31
0.0
100
AcDbText
  0
LINE
  5
380
100
AcDbEntity
  8
LAY-6
  6
CONTINUOUS
 62
     1
100
AcDbLine
 10
632.993713
 20
519.969269
 30
0.0
 11
608.000061
 21
519.969269
 31
0.0
  0
LINE
  5
381
100
AcDbEntity
  8
LAY-6
  6
CONTINUOUS
 62
     1
100
AcDbLine
 10
630.993713
 20
519.635936
 30
0.0
 11
632.993713
 21
519.969269
 31
0.0
  0
LINE
  5
382
100
AcDbEntity
  8
LAY-6
  6
CONTINUOUS
 62
     1
100
AcDbLine
 10
632.993713
 20
519.969269
 30
0.0
 11
630.993713
 21
520.302602
 31
0.0
  0
LINE
  5
383
100
AcDbEntity
  8
LAY-6
  6
CONTINUOUS
 62
     1
100
AcDbLine
 10
610.000061
 20
520.302602
 30
0.0
 11
608.000061
 21
519.969269
 31
0.0
  0
LINE
  5
384
100
AcDbEntity
  8
LAY-6
  6
CONTINUOUS
 62
     1
100
AcDbLine
 10
608.000061
 20
519.969269
 30
0.0
 11
610.000061
 21
519.635936
 31
0.0
  0
LINE
  5
385
100
AcDbEntity
  8
LAY-6
  6
CONTINUOUS
 62
     1
100
AcDbLine
 10
593.57074
 20
468.454407
 30
0.0
 11
572.552948
 21
468.454407
 31
0.0
  0
TEXT
  5
386
100
AcDbEntity
  8
LAY-6
  6
CONTINUOUS
 62
     2
100
AcDbText
 10
573.052948
 20
472.704407
 30
0.0
 40
5.0
  1
１６
 50
90.0
 41
0.672
  7
EXCADSTD
 72
     5
 11
573.052948
 21
480.037207
 31
0.0
100
AcDbText
  0
LINE
  5
387
100
AcDbEntity
  8
LAY-6
  6
CONTINUOUS
 62
     1
100
AcDbLine
 10
573.552948
 20
468.454407
 30
0.0
 11
573.552948
 21
484.454407
 31
0.0
  0
LINE
  5
388
100
AcDbEntity
  8
LAY-6
  6
CONTINUOUS
 62
     1
100
AcDbLine
 10
573.219615
 20
470.454407
 30
0.0
 11
573.552948
 21
468.454407
 31
0.0
  0
LINE
  5
389
100
AcDbEntity
  8
LAY-6
  6
CONTINUOUS
 62
     1
100
AcDbLine
 10
573.552948
 20
468.454407
 30
0.0
 11
573.886281
 21
470.454407
 31
0.0
  0
LINE
  5
38A
100
AcDbEntity
  8
LAY-6
  6
CONTINUOUS
 62
     1
100
AcDbLine
 10
573.886281
 20
482.454407
 30
0.0
 11
573.552948
 21
484.454407
 31
0.0
  0
LINE
  5
38B
100
AcDbEntity
  8
LAY-6
  6
CONTINUOUS
 62
     1
100
AcDbLine
 10
573.552948
 20
484.454407
 30
0.0
 11
573.219615
 21
482.454407
 31
0.0
  0
LINE
  5
38C
100
AcDbEntity
  8
LAY-6
  6
CONTINUOUS
 62
     1
100
AcDbLine
 10
589.500092
 20
484.454407
 30
0.0
 11
572.552948
 21
484.454407
 31
0.0
  0
LINE
  5
38D
100
AcDbEntity
  8
LAY-6
  6
CONTINUOUS
 62
     1
100
AcDbLine
 10
592.445862
 20
487.954437
 30
0.0
 11
572.552948
 21
487.954437
 31
0.0
  0
LINE
  5
38E
100
AcDbEntity
  8
LAY-6
  6
CONTINUOUS
 62
     1
100
AcDbLine
 10
589.500122
 20
503.954437
 30
0.0
 11
572.552948
 21
503.954437
 31
0.0
  0
TEXT
  5
38F
100
AcDbEntity
  8
LAY-6
  6
CONTINUOUS
 62
     2
100
AcDbText
 10
573.052948
 20
492.204437
 30
0.0
 40
5.0
  1
１６
 50
90.0
 41
0.672
  7
EXCADSTD
 72
     5
 11
573.052948
 21
499.537237
 31
0.0
100
AcDbText
  0
LINE
  5
390
100
AcDbEntity
  8
LAY-6
  6
CONTINUOUS
 62
     1
100
AcDbLine
 10
573.552948
 20
487.954437
 30
0.0
 11
573.552948
 21
503.954437
 31
0.0
  0
LINE
  5
391
100
AcDbEntity
  8
LAY-6
  6
CONTINUOUS
 62
     1
100
AcDbLine
 10
573.219615
 20
489.954437
 30
0.0
 11
573.552948
 21
487.954437
 31
0.0
  0
LINE
  5
392
100
AcDbEntity
  8
LAY-6
  6
CONTINUOUS
 62
     1
100
AcDbLine
 10
573.552948
 20
487.954437
 30
0.0
 11
573.886281
 21
489.954437
 31
0.0
  0
LINE
  5
393
100
AcDbEntity
  8
LAY-6
  6
CONTINUOUS
 62
     1
100
AcDbLine
 10
573.886281
 20
501.954437
 30
0.0
 11
573.552948
 21
503.954437
 31
0.0
  0
LINE
  5
394
100
AcDbEntity
  8
LAY-6
  6
CONTINUOUS
 62
     1
100
AcDbLine
 10
573.552948
 20
503.954437
 30
0.0
 11
573.219615
 21
501.954437
 31
0.0
  0
LINE
  5
395
100
AcDbEntity
  8
LAY-6
  6
CONTINUOUS
 62
     1
100
AcDbLine
 10
677.400024
 20
314.166725
 30
0.0
 11
703.2
 21
314.166725
 31
0.0
  0
LINE
  5
396
100
AcDbEntity
  8
LAY-6
  6
CONTINUOUS
 62
     1
100
AcDbLine
 10
676.5
 20
324.166718
 30
0.0
 11
703.2
 21
324.166718
 31
0.0
  0
TEXT
  5
397
100
AcDbEntity
  8
LAY-6
  6
CONTINUOUS
 62
     2
100
AcDbText
 10
701.2
 20
315.166721
 30
0.0
 40
5.0
  1
１０
 50
90.0
 41
0.672
  7
EXCADSTD
 72
     5
 11
701.2
 21
322.499522
 31
0.0
100
AcDbText
  0
LINE
  5
398
100
AcDbEntity
  8
LAY-6
  6
CONTINUOUS
 62
     1
100
AcDbLine
 10
701.7
 20
309.166725
 30
0.0
 11
701.7
 21
329.166718
 31
0.0
  0
LINE
  5
399
100
AcDbEntity
  8
LAY-6
  6
CONTINUOUS
 62
     1
100
AcDbLine
 10
702.033333
 20
312.166725
 30
0.0
 11
701.7
 21
314.166725
 31
0.0
  0
LINE
  5
39A
100
AcDbEntity
  8
LAY-6
  6
CONTINUOUS
 62
     1
100
AcDbLine
 10
701.7
 20
314.166725
 30
0.0
 11
701.366667
 21
312.166725
 31
0.0
  0
LINE
  5
39B
100
AcDbEntity
  8
LAY-6
  6
CONTINUOUS
 62
     1
100
AcDbLine
 10
701.366667
 20
326.166718
 30
0.0
 11
701.7
 21
324.166718
 31
0.0
  0
LINE
  5
39C
100
AcDbEntity
  8
LAY-6
  6
CONTINUOUS
 62
     1
100
AcDbLine
 10
701.7
 20
324.166718
 30
0.0
 11
702.033333
 21
326.166718
 31
0.0
  0
LINE
  5
39D
100
AcDbEntity
  8
LAY-6
  6
CONTINUOUS
 62
     1
100
AcDbLine
 10
667.000061
 20
484.454407
 30
0.0
 11
703.2
 21
484.454407
 31
0.0
  0
TEXT
  5
39E
100
AcDbEntity
  8
LAY-6
  6
CONTINUOUS
 62
     2
100
AcDbText
 10
701.2
 20
400.310562
 30
0.0
 40
5.0
  1
ＤＨ
 50
90.0
 41
0.672
  7
EXCADSTD
 72
     5
 11
701.2
 21
407.643362
 31
0.0
100
AcDbText
  0
LINE
  5
39F
100
AcDbEntity
  8
LAY-6
  6
CONTINUOUS
 62
     1
100
AcDbLine
 10
701.7
 20
324.166718
 30
0.0
 11
701.7
 21
484.454407
 31
0.0
  0
LINE
  5
3A0
100
AcDbEntity
  8
LAY-6
  6
CONTINUOUS
 62
     1
100
AcDbLine
 10
701.366667
 20
326.166718
 30
0.0
 11
701.7
 21
324.166718
 31
0.0
  0
LINE
  5
3A1
100
AcDbEntity
  8
LAY-6
  6
CONTINUOUS
 62
     1
100
AcDbLine
 10
701.7
 20
324.166718
 30
0.0
 11
702.033333
 21
326.166718
 31
0.0
  0
LINE
  5
3A2
100
AcDbEntity
  8
LAY-6
  6
CONTINUOUS
 62
     1
100
AcDbLine
 10
702.033333
 20
482.454407
 30
0.0
 11
701.7
 21
484.454407
 31
0.0
  0
LINE
  5
3A3
100
AcDbEntity
  8
LAY-6
  6
CONTINUOUS
 62
     1
100
AcDbLine
 10
701.7
 20
484.454407
 30
0.0
 11
701.366667
 21
482.454407
 31
0.0
  0
LINE
  5
3A4
100
AcDbEntity
  8
LAY-6
  6
CONTINUOUS
 62
     1
100
AcDbLine
 10
689.348389
 20
487.454437
 30
0.0
 11
703.2
 21
487.454437
 31
0.0
  0
TEXT
  5
3A5
100
AcDbEntity
  8
LAY-6
  6
CONTINUOUS
 62
     2
100
AcDbText
 10
701.2
 20
489.454437
 30
0.0
 40
5.0
  1
３
 50
90.0
 41
0.672
  7
EXCADSTD
 72
     5
 11
701.2
 21
492.654437
 31
0.0
100
AcDbText
  0
LINE
  5
3A6
100
AcDbEntity
  8
LAY-6
  6
CONTINUOUS
 62
     1
100
AcDbLine
 10
701.7
 20
479.454407
 30
0.0
 11
701.7
 21
493.954437
 31
0.0
  0
LINE
  5
3A7
100
AcDbEntity
  8
LAY-6
  6
CONTINUOUS
 62
     1
100
AcDbLine
 10
702.033333
 20
482.454407
 30
0.0
 11
701.7
 21
484.454407
 31
0.0
  0
LINE
  5
3A8
100
AcDbEntity
  8
LAY-6
  6
CONTINUOUS
 62
     1
100
AcDbLine
 10
701.7
 20
484.454407
 30
0.0
 11
701.366667
 21
482.454407
 31
0.0
  0
LINE
  5
3A9
100
AcDbEntity
  8
LAY-6
  6
CONTINUOUS
 62
     1
100
AcDbLine
 10
701.366667
 20
489.454437
 30
0.0
 11
701.7
 21
487.454437
 31
0.0
  0
LINE
  5
3AA
100
AcDbEntity
  8
LAY-6
  6
CONTINUOUS
 62
     1
100
AcDbLine
 10
701.7
 20
487.454437
 30
0.0
 11
702.033333
 21
489.454437
 31
0.0
  0
POLYLINE
  5
3AB
100
AcDbEntity
  8
LAY-6
  6
CONTINUOUS
 62
     1
100
AcDb2dPolyline
 66
     1
 10
0.0
 20
0.0
 30
0.0
 70
   128
  0
VERTEX
  5
3AC
100
AcDbEntity
  8
LAY-6
  6
CONTINUOUS
 62
     1
100
AcDbVertex
100
AcDb2dVertex
 10
110.490596
 20
286.114567
 30
0.0
  0
VERTEX
  5
3AD
100
AcDbEntity
  8
LAY-6
  6
CONTINUOUS
 62
     1
100
AcDbVertex
100
AcDb2dVertex
 10
94.5
 20
299.6
 30
0.0
  0
VERTEX
  5
3AE
100
AcDbEntity
  8
LAY-6
  6
CONTINUOUS
 62
     1
100
AcDbVertex
100
AcDb2dVertex
 10
74.1
 20
299.6
 30
0.0
  0
SEQEND
  5
3AF
100
AcDbEntity
  8
LAY-6
  6
CONTINUOUS
 62
     1
  0
LINE
  5
3B0
100
AcDbEntity
  8
LAY-6
  6
CONTINUOUS
 62
     1
100
AcDbLine
 10
108.746806
 20
287.149123
 30
0.0
 11
110.490596
 21
286.114567
 31
0.0
  0
LINE
  5
3B1
100
AcDbEntity
  8
LAY-6
  6
CONTINUOUS
 62
     1
100
AcDbLine
 10
110.490596
 20
286.114567
 30
0.0
 11
109.176596
 21
287.658754
 31
0.0
  0
TEXT
  5
3B2
100
AcDbEntity
  8
LAY-6
  6
CONTINUOUS
 62
     2
100
AcDbText
 10
74.1
 20
299.6
 30
0.0
 40
5.0
  1
セットネジ
 41
0.672
  7
EXCADSTD
 72
     5
 11
94.1
 21
299.6
 31
0.0
100
AcDbText
  0
CIRCLE
  5
3B3
100
AcDbEntity
  8
LAY-6
  6
CONTINUOUS
 62
     1
100
AcDbCircle
 10
573.4
 20
519.9
 30
0.0
 40
4.0
  0
POLYLINE
  5
3B4
100
AcDbEntity
  8
LAY-6
  6
CONTINUOUS
 62
     1
100
AcDb2dPolyline
 66
     1
 10
0.0
 20
0.0
 30
0.0
 70
   128
  0
VERTEX
  5
3B5
100
AcDbEntity
  8
LAY-6
  6
CONTINUOUS
 62
     1
100
AcDbVertex
100
AcDb2dVertex
 10
596.5
 20
503.954437
 30
0.0
  0
VERTEX
  5
3B6
100
AcDbEntity
  8
LAY-6
  6
CONTINUOUS
 62
     1
100
AcDbVertex
100
AcDb2dVertex
 10
576.691883
 20
517.627665
 30
0.0
  0
SEQEND
  5
3B7
100
AcDbEntity
  8
LAY-6
  6
CONTINUOUS
 62
     1
  0
LINE
  5
3B8
100
AcDbEntity
  8
LAY-6
  6
CONTINUOUS
 62
     1
100
AcDbLine
 10
594.664697
 20
504.816281
 30
0.0
 11
596.5
 21
503.954437
 31
0.0
  0
LINE
  5
3B9
100
AcDbEntity
  8
LAY-6
  6
CONTINUOUS
 62
     1
100
AcDbLine
 10
596.5
 20
503.954437
 30
0.0
 11
595.04342
 21
505.364928
 31
0.0
  0
TEXT
  5
3BA
100
AcDbEntity
  8
LAY-6
  6
CONTINUOUS
 62
     2
100
AcDbText
 10
570.571573
 20
517.071573
 30
0.0
 40
5.656854
  1
１
 41
0.84
  7
EXCADSTD
 72
     5
 11
575.097056
 21
517.071573
 31
0.0
100
AcDbText
  0
CIRCLE
  5
3BB
100
AcDbEntity
  8
LAY-6
  6
CONTINUOUS
 62
     1
100
AcDbCircle
 10
573.4
 20
451.5
 30
0.0
 40
4.0
  0
POLYLINE
  5
3BC
100
AcDbEntity
  8
LAY-6
  6
CONTINUOUS
 62
     1
100
AcDb2dPolyline
 66
     1
 10
0.0
 20
0.0
 30
0.0
 70
   128
  0
VERTEX
  5
3BD
100
AcDbEntity
  8
LAY-6
  6
CONTINUOUS
 62
     1
100
AcDbVertex
100
AcDb2dVertex
 10
596.5
 20
468.454407
 30
0.0
  0
VERTEX
  5
3BE
100
AcDbEntity
  8
LAY-6
  6
CONTINUOUS
 62
     1
100
AcDbVertex
100
AcDb2dVertex
 10
576.624661
 20
453.866762
 30
0.0
  0
SEQEND
  5
3BF
100
AcDbEntity
  8
LAY-6
  6
CONTINUOUS
 62
     1
  0
LINE
  5
3C0
100
AcDbEntity
  8
LAY-6
  6
CONTINUOUS
 62
     1
100
AcDbLine
 10
595.0849
 20
467.002304
 30
0.0
 11
596.5
 21
468.454407
 31
0.0
  0
LINE
  5
3C1
100
AcDbEntity
  8
LAY-6
  6
CONTINUOUS
 62
     1
100
AcDbLine
 10
596.5
 20
468.454407
 30
0.0
 11
594.690439
 21
467.539748
 31
0.0
  0
TEXT
  5
3C2
100
AcDbEntity
  8
LAY-6
  6
CONTINUOUS
 62
     2
100
AcDbText
 10
570.571573
 20
448.671573
 30
0.0
 40
5.656854
  1
２
 41
0.84
  7
EXCADSTD
 72
     5
 11
575.097056
 21
448.671573
 31
0.0
100
AcDbText
  0
CIRCLE
  5
3C3
100
AcDbEntity
  8
LAY-6
  6
CONTINUOUS
 62
     1
100
AcDbCircle
 10
570.9
 20
355.4
 30
0.0
 40
4.0
  0
POLYLINE
  5
3C4
100
AcDbEntity
  8
LAY-6
  6
CONTINUOUS
 62
     1
100
AcDb2dPolyline
 66
     1
 10
0.0
 20
0.0
 30
0.0
 70
   128
  0
VERTEX
  5
3C5
100
AcDbEntity
  8
LAY-6
  6
CONTINUOUS
 62
     1
100
AcDbVertex
100
AcDb2dVertex
 10
595.1
 20
345.166718
 30
0.0
  0
VERTEX
  5
3C6
100
AcDbEntity
  8
LAY-6
  6
CONTINUOUS
 62
     1
100
AcDbVertex
100
AcDb2dVertex
 10
574.674898
 20
354.077069
 30
0.0
  0
SEQEND
  5
3C7
100
AcDbEntity
  8
LAY-6
  6
CONTINUOUS
 62
     1
  0
LINE
  5
3C8
100
AcDbEntity
  8
LAY-6
  6
CONTINUOUS
 62
     1
100
AcDbLine
 10
593.133557
 20
345.660898
 30
0.0
 11
595.1
 21
345.166718
 31
0.0
  0
LINE
  5
3C9
100
AcDbEntity
  8
LAY-6
  6
CONTINUOUS
 62
     1
100
AcDbLine
 10
595.1
 20
345.166718
 30
0.0
 11
593.400126
 21
346.271951
 31
0.0
  0
TEXT
  5
3CA
100
AcDbEntity
  8
LAY-6
  6
CONTINUOUS
 62
     2
100
AcDbText
 10
568.071573
 20
352.571573
 30
0.0
 40
5.656854
  1
３
 41
0.84
  7
EXCADSTD
 72
     5
 11
572.597056
 21
352.571573
 31
0.0
100
AcDbText
  0
CIRCLE
  5
3CB
100
AcDbEntity
  8
LAY-6
  6
CONTINUOUS
 62
     1
100
AcDbCircle
 10
659.700122
 20
260.3
 30
0.0
 40
4.0
  0
POLYLINE
  5
3CC
100
AcDbEntity
  8
LAY-6
  6
CONTINUOUS
 62
     1
100
AcDb2dPolyline
 66
     1
 10
0.0
 20
0.0
 30
0.0
 70
   128
  0
VERTEX
  5
3CD
100
AcDbEntity
  8
LAY-6
  6
CONTINUOUS
 62
     1
100
AcDbVertex
100
AcDb2dVertex
 10
633.600122
 20
283.166725
 30
0.0
  0
VERTEX
  5
3CE
100
AcDbEntity
  8
LAY-6
  6
CONTINUOUS
 62
     1
100
AcDbVertex
100
AcDb2dVertex
 10
656.691485
 20
262.935926
 30
0.0
  0
SEQEND
  5
3CF
100
AcDbEntity
  8
LAY-6
  6
CONTINUOUS
 62
     1
  0
LINE
  5
3D0
100
AcDbEntity
  8
LAY-6
  6
CONTINUOUS
 62
     1
100
AcDbLine
 10
635.324101
 20
282.099482
 30
0.0
 11
633.600122
 21
283.166725
 31
0.0
  0
LINE
  5
3D1
100
AcDbEntity
  8
LAY-6
  6
CONTINUOUS
 62
     1
100
AcDbLine
 10
633.600122
 20
283.166725
 30
0.0
 11
634.88478
 21
281.598042
 31
0.0
  0
TEXT
  5
3D2
100
AcDbEntity
  8
LAY-6
  6
CONTINUOUS
 62
     2
100
AcDbText
 10
656.871695
 20
257.471573
 30
0.0
 40
5.656854
  1
４
 41
0.84
  7
EXCADSTD
 72
     5
 11
661.397178
 21
257.471573
 31
0.0
100
AcDbText
  0
LINE
  5
3D3
100
AcDbEntity
  8
LAY-6
  6
CONTINUOUS
 62
     1
100
AcDbLine
 10
636.000031
 20
401.166718
 30
0.0
 11
636.000031
 21
388.5
 31
0.0
  0
LINE
  5
3D4
100
AcDbEntity
  8
LAY-6
  6
CONTINUOUS
 62
     1
100
AcDbLine
 10
676.0
 20
401.166718
 30
0.0
 11
676.0
 21
388.5
 31
0.0
  0
TEXT
  5
3D5
100
AcDbEntity
  8
LAY-6
  6
CONTINUOUS
 62
     2
100
AcDbText
 10
648.000016
 20
380.5
 30
0.0
 40
5.0
  1
４０以上
 41
0.672
  7
EXCADSTD
 72
     5
 11
664.000016
 21
380.5
 31
0.0
100
AcDbText
  0
LINE
  5
3D6
100
AcDbEntity
  8
LAY-6
  6
CONTINUOUS
 62
     1
100
AcDbLine
 10
636.000031
 20
380.0
 30
0.0
 11
676.0
 21
380.0
 31
0.0
  0
LINE
  5
3D7
100
AcDbEntity
  8
LAY-6
  6
CONTINUOUS
 62
     1
100
AcDbLine
 10
638.000031
 20
380.333333
 30
0.0
 11
636.000031
 21
380.0
 31
0.0
  0
LINE
  5
3D8
100
AcDbEntity
  8
LAY-6
  6
CONTINUOUS
 62
     1
100
AcDbLine
 10
636.000031
 20
380.0
 30
0.0
 11
638.000031
 21
379.666667
 31
0.0
  0
LINE
  5
3D9
100
AcDbEntity
  8
LAY-6
  6
CONTINUOUS
 62
     1
100
AcDbLine
 10
674.0
 20
379.666667
 30
0.0
 11
676.0
 21
380.0
 31
0.0
  0
LINE
  5
3DA
100
AcDbEntity
  8
LAY-6
  6
CONTINUOUS
 62
     1
100
AcDbLine
 10
676.0
 20
380.0
 30
0.0
 11
674.0
 21
380.333333
 31
0.0
  0
LINE
  5
3DB
100
AcDbEntity
  8
LAY-6
  6
CONTINUOUS
 62
     1
100
AcDbLine
 10
568.000061
 20
314.16671
 30
0.0
 11
549.2
 21
314.16671
 31
0.0
  0
LINE
  5
3DC
100
AcDbEntity
  8
LAY-6
  6
CONTINUOUS
 62
     1
100
AcDbLine
 10
568.000061
 20
312.66671
 30
0.0
 11
549.2
 21
312.66671
 31
0.0
  0
TEXT
  5
3DD
100
AcDbEntity
  8
LAY-6
  6
CONTINUOUS
 62
     2
100
AcDbText
 10
549.2
 20
314.41671
 30
0.0
 40
5.0
  1
^JＰ１.５
 50
90.0
 41
0.50624
  7
EXCADSTD
 72
     5
 11
549.2
 21
328.41671
 31
0.0
100
AcDbText
  0
TEXT
  5
3DE
100
AcDbEntity
  8
LAY-6
  6
CONTINUOUS
 62
     2
100
AcDbText
 10
549.2
 20
328.41671
 30
0.0
 40
5.0
  1
^J
 50
90.0
  7
EXCADSTD
 72
     5
 11
549.2
 21
328.41671
 31
0.0
100
AcDbText
  0
LINE
  5
3DF
100
AcDbEntity
  8
LAY-6
  6
CONTINUOUS
 62
     1
100
AcDbLine
 10
550.2
 20
326.8
 30
0.0
 11
550.2
 21
307.66671
 31
0.0
  0
LINE
  5
3E0
100
AcDbEntity
  8
LAY-6
  6
CONTINUOUS
 62
     1
100
AcDbLine
 10
549.866667
 20
316.16671
 30
0.0
 11
550.2
 21
314.16671
 31
0.0
  0
LINE
  5
3E1
100
AcDbEntity
  8
LAY-6
  6
CONTINUOUS
 62
     1
100
AcDbLine
 10
550.2
 20
314.16671
 30
0.0
 11
550.533333
 21
316.16671
 31
0.0
  0
LINE
  5
3E2
100
AcDbEntity
  8
LAY-6
  6
CONTINUOUS
 62
     1
100
AcDbLine
 10
550.533333
 20
310.66671
 30
0.0
 11
550.2
 21
312.66671
 31
0.0
  0
LINE
  5
3E3
100
AcDbEntity
  8
LAY-6
  6
CONTINUOUS
 62
     1
100
AcDbLine
 10
550.2
 20
312.66671
 30
0.0
 11
549.866667
 21
310.66671
 31
0.0
  0
LINE
  5
3E4
100
AcDbEntity
  8
LAY-6
  6
CONTINUOUS
 62
     1
100
AcDbLine
 10
633.000061
 20
289.0
 30
0.0
 11
633.000061
 21
287.4
 31
0.0
  0
TEXT
  5
3E5
100
AcDbEntity
  8
LAY-6
  6
CONTINUOUS
 62
     2
100
AcDbText
 10
600.000061
 20
289.4
 30
0.0
 40
5.0
  1
^J□５０
 41
0.528
  7
EXCADSTD
 72
     5
 11
612.000061
 21
289.4
 31
0.0
100
AcDbText
  0
TEXT
  5
3E6
100
AcDbEntity
  8
LAY-6
  6
CONTINUOUS
 62
     2
100
AcDbText
 10
612.000061
 20
289.4
 30
0.0
 40
5.0
  1
^J
  7
EXCADSTD
 72
     5
 11
612.000061
 21
289.4
 31
0.0
100
AcDbText
  0
LINE
  5
3E7
100
AcDbEntity
  8
LAY-6
  6
CONTINUOUS
 62
     1
100
AcDbLine
 10
583.000061
 20
288.4
 30
0.0
 11
633.000061
 21
288.4
 31
0.0
  0
LINE
  5
3E8
100
AcDbEntity
  8
LAY-6
  6
CONTINUOUS
 62
     1
100
AcDbLine
 10
585.000061
 20
288.733333
 30
0.0
 11
583.000061
 21
288.4
 31
0.0
  0
LINE
  5
3E9
100
AcDbEntity
  8
LAY-6
  6
CONTINUOUS
 62
     1
100
AcDbLine
 10
583.000061
 20
288.4
 30
0.0
 11
585.000061
 21
288.066667
 31
0.0
  0
LINE
  5
3EA
100
AcDbEntity
  8
LAY-6
  6
CONTINUOUS
 62
     1
100
AcDbLine
 10
631.000061
 20
288.066667
 30
0.0
 11
633.000061
 21
288.4
 31
0.0
  0
LINE
  5
3EB
100
AcDbEntity
  8
LAY-6
  6
CONTINUOUS
 62
     1
100
AcDbLine
 10
633.000061
 20
288.4
 30
0.0
 11
631.000061
 21
288.733333
 31
0.0
  0
LINE
  5
3EC
100
AcDbEntity
  8
LAY-6
  6
CONTINUOUS
 62
     1
100
AcDbLine
 10
687.5
 20
493.954376
 30
0.0
 11
689.348389
 21
493.954376
 31
0.0
  0
LINE
  5
3ED
100
AcDbEntity
  8
LAY-6
  6
CONTINUOUS
 62
     1
100
AcDbLine
 10
689.348389
 20
493.954376
 30
0.0
 11
687.348389
 21
493.954376
 31
0.0
  0
LINE
  5
3EE
100
AcDbEntity
  8
LAY-6
  6
CONTINUOUS
 62
     1
100
AcDbLine
 10
694.2
 20
493.954376
 30
0.0
 11
694.2
 21
501.954376
 31
0.0
  0
LINE
  5
3EF
100
AcDbEntity
  8
LAY-6
  6
CONTINUOUS
 62
     1
100
AcDbLine
 10
693.866667
 20
495.954376
 30
0.0
 11
694.2
 21
493.954376
 31
0.0
  0
LINE
  5
3F0
100
AcDbEntity
  8
LAY-6
  6
CONTINUOUS
 62
     1
100
AcDbLine
 10
694.2
 20
493.954376
 30
0.0
 11
694.533333
 21
495.954376
 31
0.0
  0
LINE
  5
3F1
100
AcDbEntity
  8
LAY-6
  6
CONTINUOUS
 62
     1
100
AcDbLine
 10
694.533333
 20
499.954376
 30
0.0
 11
694.2
 21
501.954376
 31
0.0
  0
LINE
  5
3F2
100
AcDbEntity
  8
LAY-6
  6
CONTINUOUS
 62
     1
100
AcDbLine
 10
694.2
 20
501.954376
 30
0.0
 11
693.866667
 21
499.954376
 31
0.0
  0
TEXT
  5
3F3
100
AcDbEntity
  8
LAY-6
  6
CONTINUOUS
 62
     2
100
AcDbText
 10
693.2
 20
495.954376
 30
0.0
 40
5.0
  1
８
 50
90.0
 41
0.672
  7
EXCADSTD
 72
     5
 11
693.2
 21
499.154376
 31
0.0
100
AcDbText
  0
LINE
  5
3F4
100
AcDbEntity
  8
LAY-6
  6
CONTINUOUS
 62
     1
100
AcDbLine
 10
689.348389
 20
493.954376
 30
0.0
 11
693.2
 21
493.954376
 31
0.0
  0
LINE
  5
3F5
100
AcDbEntity
  8
LAY-6
  6
CONTINUOUS
 62
     1
100
AcDbLine
 10
667.733277
 20
501.954376
 30
0.0
 11
695.2
 21
501.954376
 31
0.0
  0
POLYLINE
  5
3F6
100
AcDbEntity
  8
LAY-6
  6
CONTINUOUS
 62
     1
100
AcDb2dPolyline
 66
     1
 10
0.0
 20
0.0
 30
0.0
 70
   128
  0
VERTEX
  5
3F7
100
AcDbEntity
  8
LAY-6
  6
CONTINUOUS
 62
     1
100
AcDbVertex
100
AcDb2dVertex
 10
551.9
 20
176.3
 30
0.0
  0
VERTEX
  5
3F8
100
AcDbEntity
  8
LAY-6
  6
CONTINUOUS
 62
     1
100
AcDbVertex
100
AcDb2dVertex
 10
529.5
 20
207.7
 30
0.0
  0
VERTEX
  5
3F9
100
AcDbEntity
  8
LAY-6
  6
CONTINUOUS
 62
     1
100
AcDbVertex
100
AcDb2dVertex
 10
519.5
 20
207.7
 30
0.0
  0
SEQEND
  5
3FA
100
AcDbEntity
  8
LAY-6
  6
CONTINUOUS
 62
     1
  0
LINE
  5
3FB
100
AcDbEntity
  8
LAY-6
  6
CONTINUOUS
 62
     1
100
AcDbLine
 10
550.467144
 20
177.734585
 30
0.0
 11
551.9
 21
176.3
 31
0.0
  0
LINE
  5
3FC
100
AcDbEntity
  8
LAY-6
  6
CONTINUOUS
 62
     1
100
AcDbLine
 10
551.9
 20
176.3
 30
0.0
 11
551.009866
 21
178.12175
 31
0.0
  0
TEXT
  5
3FD
100
AcDbEntity
  8
LAY-6
  6
CONTINUOUS
 62
     2
100
AcDbText
 10
518.5
 20
207.7
 30
0.0
 40
5.0
  1
（注）
 41
0.672
  7
EXCADSTD
 72
     5
 11
530.5
 21
207.7
 31
0.0
100
AcDbText
  0
POLYLINE
  5
3FE
100
AcDbEntity
  8
LAY-6
  6
CONTINUOUS
 62
     1
100
AcDb2dPolyline
 66
     1
 10
0.0
 20
0.0
 30
0.0
 70
   128
  0
VERTEX
  5
3FF
100
AcDbEntity
  8
LAY-6
  6
CONTINUOUS
 62
     1
100
AcDbVertex
100
AcDb2dVertex
 10
594.9
 20
189.699969
 30
0.0
  0
VERTEX
  5
400
100
AcDbEntity
  8
LAY-6
  6
CONTINUOUS
 62
     1
100
AcDbVertex
100
AcDb2dVertex
 10
611.4
 20
206.9
 30
0.0
  0
VERTEX
  5
401
100
AcDbEntity
  8
LAY-6
  6
CONTINUOUS
 62
     1
100
AcDbVertex
100
AcDb2dVertex
 10
659.7
 20
206.9
 30
0.0
  0
SEQEND
  5
402
100
AcDbEntity
  8
LAY-6
  6
CONTINUOUS
 62
     1
  0
LINE
  5
403
100
AcDbEntity
  8
LAY-6
  6
CONTINUOUS
 62
     1
100
AcDbLine
 10
596.043992
 20
191.374004
 30
0.0
 11
594.9
 21
189.699969
 31
0.0
  0
LINE
  5
404
100
AcDbEntity
  8
LAY-6
  6
CONTINUOUS
 62
     1
100
AcDbLine
 10
594.9
 20
189.699969
 30
0.0
 11
596.525085
 21
190.912491
 31
0.0
  0
LINE
  5
405
100
AcDbEntity
  8
LAY-6
  6
CONTINUOUS
 62
     1
100
AcDbLine
 10
616.499969
 20
109.699969
 30
0.0
 11
637.6
 21
109.699969
 31
0.0
  0
LINE
  5
406
100
AcDbEntity
  8
LAY-6
  6
CONTINUOUS
 62
     1
100
AcDbLine
 10
616.499969
 20
189.699969
 30
0.0
 11
637.6
 21
189.699969
 31
0.0
  0
TEXT
  5
407
100
AcDbEntity
  8
LAY-6
  6
CONTINUOUS
 62
     2
100
AcDbText
 10
635.6
 20
145.699969
 30
0.0
 40
5.0
  1
^JＰ８０
 50
90.0
 41
0.528
  7
EXCADSTD
 72
     5
 11
635.6
 21
157.699969
 31
0.0
100
AcDbText
  0
TEXT
  5
408
100
AcDbEntity
  8
LAY-6
  6
CONTINUOUS
 62
     2
100
AcDbText
 10
635.6
 20
157.699969
 30
0.0
 40
5.0
  1
^J
 50
90.0
  7
EXCADSTD
 72
     5
 11
635.6
 21
157.699969
 31
0.0
100
AcDbText
  0
LINE
  5
409
100
AcDbEntity
  8
LAY-6
  6
CONTINUOUS
 62
     1
100
AcDbLine
 10
636.6
 20
109.699969
 30
0.0
 11
636.6
 21
189.699969
 31
0.0
  0
LINE
  5
40A
100
AcDbEntity
  8
LAY-6
  6
CONTINUOUS
 62
     1
100
AcDbLine
 10
636.266667
 20
111.699969
 30
0.0
 11
636.6
 21
109.699969
 31
0.0
  0
LINE
  5
40B
100
AcDbEntity
  8
LAY-6
  6
CONTINUOUS
 62
     1
100
AcDbLine
 10
636.6
 20
109.699969
 30
0.0
 11
636.933333
 21
111.699969
 31
0.0
  0
LINE
  5
40C
100
AcDbEntity
  8
LAY-6
  6
CONTINUOUS
 62
     1
100
AcDbLine
 10
636.933333
 20
187.699969
 30
0.0
 11
636.6
 21
189.699969
 31
0.0
  0
LINE
  5
40D
100
AcDbEntity
  8
LAY-6
  6
CONTINUOUS
 62
     1
100
AcDbLine
 10
636.6
 20
189.699969
 30
0.0
 11
636.266667
 21
187.699969
 31
0.0
  0
LINE
  5
40E
100
AcDbEntity
  8
LAY-6
  6
CONTINUOUS
 62
     1
100
AcDbLine
 10
588.040628
 20
124.699969
 30
0.0
 11
604.1
 21
124.699969
 31
0.0
  0
LINE
  5
40F
100
AcDbEntity
  8
LAY-6
  6
CONTINUOUS
 62
     1
100
AcDbLine
 10
588.040628
 20
174.699969
 30
0.0
 11
604.1
 21
174.699969
 31
0.0
  0
TEXT
  5
410
100
AcDbEntity
  8
LAY-6
  6
CONTINUOUS
 62
     2
100
AcDbText
 10
602.1
 20
145.699969
 30
0.0
 40
5.0
  1
□５０
 50
90.0
 41
0.672
  7
EXCADSTD
 72
     5
 11
602.1
 21
157.699969
 31
0.0
100
AcDbText
  0
LINE
  5
411
100
AcDbEntity
  8
LAY-6
  6
CONTINUOUS
 62
     1
100
AcDbLine
 10
603.1
 20
124.699969
 30
0.0
 11
603.1
 21
174.699969
 31
0.0
  0
LINE
  5
412
100
AcDbEntity
  8
LAY-6
  6
CONTINUOUS
 62
     1
100
AcDbLine
 10
602.766667
 20
126.699969
 30
0.0
 11
603.1
 21
124.699969
 31
0.0
  0
LINE
  5
413
100
AcDbEntity
  8
LAY-6
  6
CONTINUOUS
 62
     1
100
AcDbLine
 10
603.1
 20
124.699969
 30
0.0
 11
603.433333
 21
126.699969
 31
0.0
  0
LINE
  5
414
100
AcDbEntity
  8
LAY-6
  6
CONTINUOUS
 62
     1
100
AcDbLine
 10
603.433333
 20
172.699969
 30
0.0
 11
603.1
 21
174.699969
 31
0.0
  0
LINE
  5
415
100
AcDbEntity
  8
LAY-6
  6
CONTINUOUS
 62
     1
100
AcDbLine
 10
603.1
 20
174.699969
 30
0.0
 11
602.766667
 21
172.699969
 31
0.0
  0
LINE
  5
416
100
AcDbEntity
  8
LAY-6
  6
CONTINUOUS
 62
     1
100
AcDbLine
 10
536.499969
 20
109.699969
 30
0.0
 11
536.499969
 21
83.5
 31
0.0
  0
LINE
  5
417
100
AcDbEntity
  8
LAY-6
  6
CONTINUOUS
 62
     1
100
AcDbLine
 10
616.499969
 20
109.699969
 30
0.0
 11
616.499969
 21
83.5
 31
0.0
  0
LINE
  5
418
100
AcDbEntity
  8
LAY-6
  6
CONTINUOUS
 62
     1
100
AcDbLine
 10
536.499969
 20
84.5
 30
0.0
 11
616.499969
 21
84.5
 31
0.0
  0
LINE
  5
419
100
AcDbEntity
  8
LAY-6
  6
CONTINUOUS
 62
     1
100
AcDbLine
 10
538.499969
 20
84.833333
 30
0.0
 11
536.499969
 21
84.5
 31
0.0
  0
LINE
  5
41A
100
AcDbEntity
  8
LAY-6
  6
CONTINUOUS
 62
     1
100
AcDbLine
 10
536.499969
 20
84.5
 30
0.0
 11
538.499969
 21
84.166667
 31
0.0
  0
LINE
  5
41B
100
AcDbEntity
  8
LAY-6
  6
CONTINUOUS
 62
     1
100
AcDbLine
 10
614.499969
 20
84.166667
 30
0.0
 11
616.499969
 21
84.5
 31
0.0
  0
LINE
  5
41C
100
AcDbEntity
  8
LAY-6
  6
CONTINUOUS
 62
     1
100
AcDbLine
 10
616.499969
 20
84.5
 30
0.0
 11
614.499969
 21
84.833333
 31
0.0
  0
LINE
  5
41D
100
AcDbEntity
  8
LAY-6
  6
CONTINUOUS
 62
     1
100
AcDbLine
 10
536.499969
 20
96.3
 30
0.0
 11
536.499969
 21
98.4
 31
0.0
  0
LINE
  5
41E
100
AcDbEntity
  8
LAY-6
  6
CONTINUOUS
 62
     1
100
AcDbLine
 10
566.499969
 20
99.6
 30
0.0
 11
566.499969
 21
96.4
 31
0.0
  0
TEXT
  5
41F
100
AcDbEntity
  8
LAY-6
  6
CONTINUOUS
 62
     2
100
AcDbText
 10
547.499969
 20
98.4
 30
0.0
 40
5.0
  1
３０
 41
0.672
  7
EXCADSTD
 72
     5
 11
554.832769
 21
98.4
 31
0.0
100
AcDbText
  0
LINE
  5
420
100
AcDbEntity
  8
LAY-6
  6
CONTINUOUS
 62
     1
100
AcDbLine
 10
536.499969
 20
97.4
 30
0.0
 11
566.499969
 21
97.4
 31
0.0
  0
LINE
  5
421
100
AcDbEntity
  8
LAY-6
  6
CONTINUOUS
 62
     1
100
AcDbLine
 10
538.499969
 20
97.733333
 30
0.0
 11
536.499969
 21
97.4
 31
0.0
  0
LINE
  5
422
100
AcDbEntity
  8
LAY-6
  6
CONTINUOUS
 62
     1
100
AcDbLine
 10
536.499969
 20
97.4
 30
0.0
 11
538.499969
 21
97.066667
 31
0.0
  0
LINE
  5
423
100
AcDbEntity
  8
LAY-6
  6
CONTINUOUS
 62
     1
100
AcDbLine
 10
564.499969
 20
97.066667
 30
0.0
 11
566.499969
 21
97.4
 31
0.0
  0
LINE
  5
424
100
AcDbEntity
  8
LAY-6
  6
CONTINUOUS
 62
     1
100
AcDbLine
 10
566.499969
 20
97.4
 30
0.0
 11
564.499969
 21
97.733333
 31
0.0
  0
LINE
  5
425
100
AcDbEntity
  8
LAY-6
  6
CONTINUOUS
 62
     1
100
AcDbLine
 10
616.499969
 20
97.8
 30
0.0
 11
616.499969
 21
96.4
 31
0.0
  0
TEXT
  5
426
100
AcDbEntity
  8
LAY-6
  6
CONTINUOUS
 62
     2
100
AcDbText
 10
587.499969
 20
98.4
 30
0.0
 40
5.0
  1
５０
 41
0.672
  7
EXCADSTD
 72
     5
 11
594.832769
 21
98.4
 31
0.0
100
AcDbText
  0
LINE
  5
427
100
AcDbEntity
  8
LAY-6
  6
CONTINUOUS
 62
     1
100
AcDbLine
 10
566.499969
 20
97.4
 30
0.0
 11
616.499969
 21
97.4
 31
0.0
  0
LINE
  5
428
100
AcDbEntity
  8
LAY-6
  6
CONTINUOUS
 62
     1
100
AcDbLine
 10
568.499969
 20
97.733333
 30
0.0
 11
566.499969
 21
97.4
 31
0.0
  0
LINE
  5
429
100
AcDbEntity
  8
LAY-6
  6
CONTINUOUS
 62
     1
100
AcDbLine
 10
566.499969
 20
97.4
 30
0.0
 11
568.499969
 21
97.066667
 31
0.0
  0
LINE
  5
42A
100
AcDbEntity
  8
LAY-6
  6
CONTINUOUS
 62
     1
100
AcDbLine
 10
614.499969
 20
97.066667
 30
0.0
 11
616.499969
 21
97.4
 31
0.0
  0
LINE
  5
42B
100
AcDbEntity
  8
LAY-6
  6
CONTINUOUS
 62
     1
100
AcDbLine
 10
616.499969
 20
97.4
 30
0.0
 11
614.499969
 21
97.733333
 31
0.0
  0
LINE
  5
42C
100
AcDbEntity
  8
LAY-6
  6
CONTINUOUS
 62
     1
100
AcDbLine
 10
556.499969
 20
205.3
 30
0.0
 11
556.499969
 21
203.1
 31
0.0
  0
LINE
  5
42D
100
AcDbEntity
  8
LAY-6
  6
CONTINUOUS
 62
     1
100
AcDbLine
 10
566.499969
 20
186.8
 30
0.0
 11
566.499969
 21
205.1
 31
0.0
  0
TEXT
  5
42E
100
AcDbEntity
  8
LAY-6
  6
CONTINUOUS
 62
     2
100
AcDbText
 10
557.499969
 20
205.1
 30
0.0
 40
5.0
  1
１０
 41
0.672
  7
EXCADSTD
 72
     5
 11
564.832769
 21
205.1
 31
0.0
100
AcDbText
  0
LINE
  5
42F
100
AcDbEntity
  8
LAY-6
  6
CONTINUOUS
 62
     1
100
AcDbLine
 10
556.499969
 20
204.1
 30
0.0
 11
566.499969
 21
204.1
 31
0.0
  0
LINE
  5
430
100
AcDbEntity
  8
LAY-6
  6
CONTINUOUS
 62
     1
100
AcDbLine
 10
558.499969
 20
204.433333
 30
0.0
 11
556.499969
 21
204.1
 31
0.0
  0
LINE
  5
431
100
AcDbEntity
  8
LAY-6
  6
CONTINUOUS
 62
     1
100
AcDbLine
 10
556.499969
 20
204.1
 30
0.0
 11
558.499969
 21
203.766667
 31
0.0
  0
LINE
  5
432
100
AcDbEntity
  8
LAY-6
  6
CONTINUOUS
 62
     1
100
AcDbLine
 10
564.499969
 20
203.766667
 30
0.0
 11
566.499969
 21
204.1
 31
0.0
  0
LINE
  5
433
100
AcDbEntity
  8
LAY-6
  6
CONTINUOUS
 62
     1
100
AcDbLine
 10
566.499969
 20
204.1
 30
0.0
 11
564.499969
 21
204.433333
 31
0.0
  0
TEXT
  5
434
100
AcDbEntity
  8
LAY-6
  6
CONTINUOUS
 62
     2
100
AcDbText
 10
569.899969
 20
85.3
 30
0.0
 40
5.0
  1
^JＰ８０
 41
0.528
  7
EXCADSTD
 72
     5
 11
581.899969
 21
85.3
 31
0.0
100
AcDbText
  0
TEXT
  5
435
100
AcDbEntity
  8
LAY-6
  6
CONTINUOUS
 62
     2
100
AcDbText
 10
581.899969
 20
85.3
 30
0.0
 40
5.0
  1
^J
  7
EXCADSTD
 72
     5
 11
581.899969
 21
85.3
 31
0.0
100
AcDbText
  0
LINE
  5
436
100
AcDbEntity
  8
LAY-6
  6
CONTINUOUS
 62
     1
100
AcDbLine
 10
115.000008
 20
177.1
 30
0.0
 11
115.000008
 21
204.333069
 31
0.0
  0
LINE
  5
437
100
AcDbEntity
  8
LAY-6
  6
CONTINUOUS
 62
     1
100
AcDbLine
 10
122.999977
 20
202.1
 30
0.0
 11
122.999977
 21
204.333069
 31
0.0
  0
TEXT
  5
438
100
AcDbEntity
  8
LAY-6
  6
CONTINUOUS
 62
     2
100
AcDbText
 10
116.999992
 20
203.833069
 30
0.0
 40
5.0
  1
８
 41
0.672
  7
EXCADSTD
 72
     5
 11
120.199992
 21
203.833069
 31
0.0
100
AcDbText
  0
LINE
  5
439
100
AcDbEntity
  8
LAY-6
  6
CONTINUOUS
 62
     1
100
AcDbLine
 10
115.000008
 20
203.333069
 30
0.0
 11
122.999977
 21
203.333069
 31
0.0
  0
LINE
  5
43A
100
AcDbEntity
  8
LAY-6
  6
CONTINUOUS
 62
     1
100
AcDbLine
 10
117.000008
 20
203.666402
 30
0.0
 11
115.000008
 21
203.333069
 31
0.0
  0
LINE
  5
43B
100
AcDbEntity
  8
LAY-6
  6
CONTINUOUS
 62
     1
100
AcDbLine
 10
115.000008
 20
203.333069
 30
0.0
 11
117.000008
 21
202.999736
 31
0.0
  0
LINE
  5
43C
100
AcDbEntity
  8
LAY-6
  6
CONTINUOUS
 62
     1
100
AcDbLine
 10
120.999977
 20
202.999736
 30
0.0
 11
122.999977
 21
203.333069
 31
0.0
  0
LINE
  5
43D
100
AcDbEntity
  8
LAY-6
  6
CONTINUOUS
 62
     1
100
AcDbLine
 10
122.999977
 20
203.333069
 30
0.0
 11
120.999977
 21
203.666402
 31
0.0
  0
LINE
  5
43E
100
AcDbEntity
  8
LAY-6
  6
CONTINUOUS
 62
     1
100
AcDbLine
 10
601.749969
 20
483.954407
 30
0.0
 11
601.749969
 21
473.4
 31
0.0
  0
LINE
  5
43F
100
AcDbEntity
  8
LAY-6
  6
CONTINUOUS
 62
     1
100
AcDbLine
 10
614.249969
 20
483.954407
 30
0.0
 11
614.249969
 21
473.4
 31
0.0
  0
TEXT
  5
440
100
AcDbEntity
  8
LAY-6
  6
CONTINUOUS
 62
     2
100
AcDbText
 10
596.999969
 20
475.4
 30
0.0
 40
5.0
  1
φ
 41
0.672
  7
EXCADSTD
 72
     5
 11
600.199969
 21
475.4
 31
0.0
100
AcDbText
  0
TEXT
  5
441
100
AcDbEntity
  8
LAY-6
  6
CONTINUOUS
 62
     2
100
AcDbText
 10
600.999969
 20
475.4
 30
0.0
 40
5.0
  1
１２.５
 41
0.616
  7
EXCADSTD
 72
     5
 11
614.999969
 21
475.4
 31
0.0
100
AcDbText
  0
LINE
  5
442
100
AcDbEntity
  8
LAY-6
  6
CONTINUOUS
 62
     1
100
AcDbLine
 10
601.749969
 20
474.9
 30
0.0
 11
614.249969
 21
474.9
 31
0.0
  0
LINE
  5
443
100
AcDbEntity
  8
LAY-6
  6
CONTINUOUS
 62
     1
100
AcDbLine
 10
603.749969
 20
475.233333
 30
0.0
 11
601.749969
 21
474.9
 31
0.0
  0
LINE
  5
444
100
AcDbEntity
  8
LAY-6
  6
CONTINUOUS
 62
     1
100
AcDbLine
 10
601.749969
 20
474.9
 30
0.0
 11
603.749969
 21
474.566667
 31
0.0
  0
LINE
  5
445
100
AcDbEntity
  8
LAY-6
  6
CONTINUOUS
 62
     1
100
AcDbLine
 10
612.249969
 20
474.566667
 30
0.0
 11
614.249969
 21
474.9
 31
0.0
  0
LINE
  5
446
100
AcDbEntity
  8
LAY-6
  6
CONTINUOUS
 62
     1
100
AcDbLine
 10
614.249969
 20
474.9
 30
0.0
 11
612.249969
 21
475.233333
 31
0.0
  0
POLYLINE
  5
447
100
AcDbEntity
  8
LAY-6
  6
CONTINUOUS
 62
     1
100
AcDb2dPolyline
 66
     1
 10
0.0
 20
0.0
 30
0.0
 70
   128
  0
VERTEX
  5
448
100
AcDbEntity
  8
LAY-6
  6
CONTINUOUS
 62
     1
100
AcDbVertex
100
AcDb2dVertex
 10
673.925949
 20
493.954376
 30
0.0
  0
VERTEX
  5
449
100
AcDbEntity
  8
LAY-6
  6
CONTINUOUS
 62
     1
100
AcDbVertex
100
AcDb2dVertex
 10
699.135786
 20
519.164214
 30
0.0
  0
VERTEX
  5
44A
100
AcDbEntity
  8
LAY-6
  6
CONTINUOUS
 62
     1
100
AcDbVertex
100
AcDb2dVertex
 10
723.1
 20
519.164214
 30
0.0
  0
SEQEND
  5
44B
100
AcDbEntity
  8
LAY-6
  6
CONTINUOUS
 62
     1
  0
LINE
  5
44C
100
AcDbEntity
  8
LAY-6
  6
CONTINUOUS
 62
     1
100
AcDbLine
 10
675.10446
 20
495.604292
 30
0.0
 11
673.925949
 21
493.954376
 31
0.0
  0
LINE
  5
44D
100
AcDbEntity
  8
LAY-6
  6
CONTINUOUS
 62
     1
100
AcDbLine
 10
673.925949
 20
493.954376
 30
0.0
 11
675.575865
 21
495.132887
 31
0.0
  0
TEXT
  5
44E
100
AcDbEntity
  8
LAY-6
  6
CONTINUOUS
 62
     2
100
AcDbText
 10
703.1
 20
519.664214
 30
0.0
 40
5.0
  1
裏板(別途)
 41
0.595556
  7
EXCADSTD
 72
     5
 11
723.1
 21
519.664214
 31
0.0
100
AcDbText
  0
POLYLINE
  5
44F
100
AcDbEntity
  8
LAY-6
  6
CONTINUOUS
 62
     1
100
AcDb2dPolyline
 66
     1
 10
0.0
 20
0.0
 30
0.0
 70
   128
  0
VERTEX
  5
450
100
AcDbEntity
  8
LAY-6
  6
CONTINUOUS
 62
     1
100
AcDbVertex
100
AcDb2dVertex
 10
670.254383
 20
471.954407
 30
0.0
  0
VERTEX
  5
451
100
AcDbEntity
  8
LAY-6
  6
CONTINUOUS
 62
     1
100
AcDbVertex
100
AcDb2dVertex
 10
705.604395
 20
436.604395
 30
0.0
  0
VERTEX
  5
452
100
AcDbEntity
  8
LAY-6
  6
CONTINUOUS
 62
     1
100
AcDbVertex
100
AcDb2dVertex
 10
753.6
 20
436.604395
 30
0.0
  0
SEQEND
  5
453
100
AcDbEntity
  8
LAY-6
  6
CONTINUOUS
 62
     1
  0
LINE
  5
454
100
AcDbEntity
  8
LAY-6
  6
CONTINUOUS
 62
     1
100
AcDbLine
 10
671.904299
 20
470.775896
 30
0.0
 11
670.254383
 21
471.954407
 31
0.0
  0
LINE
  5
455
100
AcDbEntity
  8
LAY-6
  6
CONTINUOUS
 62
     1
100
AcDbLine
 10
670.254383
 20
471.954407
 30
0.0
 11
671.432894
 21
470.304491
 31
0.0
  0
TEXT
  5
456
100
AcDbEntity
  8
LAY-6
  6
CONTINUOUS
 62
     2
100
AcDbText
 10
710.3
 20
437.104395
 30
0.0
 40
5.0
  1
裏板４.５ｔ以上(別途)
 41
0.616
  7
EXCADSTD
 72
     5
 11
752.3
 21
437.104395
 31
0.0
100
AcDbText
  0
POLYLINE
  5
457
100
AcDbEntity
  8
LAY-6
  6
CONTINUOUS
 62
     1
100
AcDb2dPolyline
 66
     1
 10
0.0
 20
0.0
 30
0.0
 70
   128
  0
VERTEX
  5
458
100
AcDbEntity
  8
LAY-6
  6
CONTINUOUS
 62
     1
100
AcDbVertex
100
AcDb2dVertex
 10
667.038351
 20
341.666779
 30
0.0
  0
VERTEX
  5
459
100
AcDbEntity
  8
LAY-6
  6
CONTINUOUS
 62
     1
100
AcDbVertex
100
AcDb2dVertex
 10
703.335786
 20
377.964214
 30
0.0
  0
VERTEX
  5
45A
100
AcDbEntity
  8
LAY-6
  6
CONTINUOUS
 62
     1
100
AcDbVertex
100
AcDb2dVertex
 10
749.1
 20
377.964214
 30
0.0
  0
SEQEND
  5
45B
100
AcDbEntity
  8
LAY-6
  6
CONTINUOUS
 62
     1
  0
LINE
  5
45C
100
AcDbEntity
  8
LAY-6
  6
CONTINUOUS
 62
     1
100
AcDbLine
 10
668.216863
 20
343.316694
 30
0.0
 11
667.038351
 21
341.666779
 31
0.0
  0
LINE
  5
45D
100
AcDbEntity
  8
LAY-6
  6
CONTINUOUS
 62
     1
100
AcDbLine
 10
667.038351
 20
341.666779
 30
0.0
 11
668.688267
 21
342.84529
 31
0.0
  0
TEXT
  5
45E
100
AcDbEntity
  8
LAY-6
  6
CONTINUOUS
 62
     2
100
AcDbText
 10
707.1
 20
378.464214
 30
0.0
 40
5.0
  1
裏板４.５ｔ以上(別途)
 41
0.616
  7
EXCADSTD
 72
     5
 11
749.1
 21
378.464214
 31
0.0
100
AcDbText
  0
TEXT
  5
45F
100
AcDbEntity
  8
LAY-6
  6
CONTINUOUS
 62
     2
100
AcDbText
 10
571.526592
 20
161.522677
 30
0.0
 40
5.0
  1
φ
 50
64.06916
 41
0.672
  7
EXCADSTD
 72
     5
 11
572.925907
 21
164.400509
 31
0.0
100
AcDbText
  0
TEXT
  5
460
100
AcDbEntity
  8
LAY-6
  6
CONTINUOUS
 62
     2
100
AcDbText
 10
573.275736
 20
165.119967
 30
0.0
 40
5.0
  1
６６
 50
64.06916
 41
0.672
  7
EXCADSTD
 72
     5
 11
576.482266
 21
171.714519
 31
0.0
100
AcDbText
  0
LINE
  5
461
100
AcDbEntity
  8
LAY-6
  6
CONTINUOUS
 62
     1
100
AcDbLine
 10
580.930405
 20
179.377613
 30
0.0
 11
552.069533
 21
120.022325
 31
0.0
  0
LINE
  5
462
100
AcDbEntity
  8
LAY-6
  6
CONTINUOUS
 62
     1
100
AcDbLine
 10
580.355607
 20
177.433206
 30
0.0
 11
580.930405
 21
179.377613
 31
0.0
  0
LINE
  5
463
100
AcDbEntity
  8
LAY-6
  6
CONTINUOUS
 62
     1
100
AcDbLine
 10
580.930405
 20
179.377613
 30
0.0
 11
579.756059
 21
177.72473
 31
0.0
  0
LINE
  5
464
100
AcDbEntity
  8
LAY-6
  6
CONTINUOUS
 62
     1
100
AcDbLine
 10
552.644331
 20
121.966732
 30
0.0
 11
552.069533
 21
120.022325
 31
0.0
  0
LINE
  5
465
100
AcDbEntity
  8
LAY-6
  6
CONTINUOUS
 62
     1
100
AcDbLine
 10
552.069533
 20
120.022325
 30
0.0
 11
553.243879
 21
121.675208
 31
0.0
  0
LINE
  5
466
100
AcDbEntity
  8
LAY-6
  6
CONTINUOUS
 62
     1
100
AcDbLine
 10
115.000008
 20
153.6
 30
0.0
 11
115.000008
 21
149.3
 31
0.0
  0
LINE
  5
467
100
AcDbEntity
  8
LAY-6
  6
CONTINUOUS
 62
     1
100
AcDbLine
 10
122.000008
 20
153.4
 30
0.0
 11
122.000008
 21
149.3
 31
0.0
  0
TEXT
  5
468
100
AcDbEntity
  8
LAY-6
  6
CONTINUOUS
 62
     2
100
AcDbText
 10
110.800008
 20
151.3
 30
0.0
 40
5.0
  1
７
 41
0.672
  7
EXCADSTD
 72
     5
 11
114.000008
 21
151.3
 31
0.0
100
AcDbText
  0
LINE
  5
469
100
AcDbEntity
  8
LAY-6
  6
CONTINUOUS
 62
     1
100
AcDbLine
 10
110.699998
 20
150.8
 30
0.0
 11
122.000008
 21
150.8
 31
0.0
  0
LINE
  5
46A
100
AcDbEntity
  8
LAY-6
  6
CONTINUOUS
 62
     1
100
AcDbLine
 10
117.000008
 20
151.133333
 30
0.0
 11
115.000008
 21
150.8
 31
0.0
  0
LINE
  5
46B
100
AcDbEntity
  8
LAY-6
  6
CONTINUOUS
 62
     1
100
AcDbLine
 10
115.000008
 20
150.8
 30
0.0
 11
117.000008
 21
150.466667
 31
0.0
  0
LINE
  5
46C
100
AcDbEntity
  8
LAY-6
  6
CONTINUOUS
 62
     1
100
AcDbLine
 10
120.000008
 20
150.466667
 30
0.0
 11
122.000008
 21
150.8
 31
0.0
  0
LINE
  5
46D
100
AcDbEntity
  8
LAY-6
  6
CONTINUOUS
 62
     1
100
AcDbLine
 10
122.000008
 20
150.8
 30
0.0
 11
120.000008
 21
151.133333
 31
0.0
  0
LINE
  5
46E
100
AcDbEntity
  8
LAY-6
  6
CONTINUOUS
 62
     1
100
AcDbLine
 10
122.999977
 20
153.5
 30
0.0
 11
122.999977
 21
149.3
 31
0.0
  0
TEXT
  5
46F
100
AcDbEntity
  8
LAY-6
  6
CONTINUOUS
 62
     2
100
AcDbText
 10
124.999977
 20
151.3
 30
0.0
 40
5.0
  1
１
 41
0.672
  7
EXCADSTD
 72
     5
 11
128.199977
 21
151.3
 31
0.0
100
AcDbText
  0
LINE
  5
470
100
AcDbEntity
  8
LAY-6
  6
CONTINUOUS
 62
     1
100
AcDbLine
 10
122.000008
 20
150.8
 30
0.0
 11
129.499977
 21
150.8
 31
0.0
  0
LINE
  5
471
100
AcDbEntity
  8
LAY-6
  6
CONTINUOUS
 62
     1
100
AcDbLine
 10
124.999977
 20
151.133333
 30
0.0
 11
122.999977
 21
150.8
 31
0.0
  0
LINE
  5
472
100
AcDbEntity
  8
LAY-6
  6
CONTINUOUS
 62
     1
100
AcDbLine
 10
122.999977
 20
150.8
 30
0.0
 11
124.999977
 21
150.466667
 31
0.0
  0
LINE
  5
473
100
AcDbEntity
  8
LAY-6
  6
CONTINUOUS
 62
     1
100
AcDbLine
 10
567.500061
 20
312.66671
 30
0.0
 11
559.433502
 21
312.66671
 31
0.0
  0
LINE
  5
474
100
AcDbEntity
  8
LAY-6
  6
CONTINUOUS
 62
     1
100
AcDbLine
 10
582.500061
 20
262.66671
 30
0.0
 11
559.433502
 21
262.66671
 31
0.0
  0
TEXT
  5
475
100
AcDbEntity
  8
LAY-6
  6
CONTINUOUS
 62
     2
100
AcDbText
 10
560.433502
 20
283.66671
 30
0.0
 40
5.0
  1
５０
 50
90.0
 41
0.672
  7
EXCADSTD
 72
     5
 11
560.433502
 21
290.99951
 31
0.0
100
AcDbText
  0
LINE
  5
476
100
AcDbEntity
  8
LAY-6
  6
CONTINUOUS
 62
     1
100
AcDbLine
 10
560.933502
 20
312.66671
 30
0.0
 11
560.933502
 21
262.66671
 31
0.0
  0
LINE
  5
477
100
AcDbEntity
  8
LAY-6
  6
CONTINUOUS
 62
     1
100
AcDbLine
 10
561.266835
 20
310.66671
 30
0.0
 11
560.933502
 21
312.66671
 31
0.0
  0
LINE
  5
478
100
AcDbEntity
  8
LAY-6
  6
CONTINUOUS
 62
     1
100
AcDbLine
 10
560.933502
 20
312.66671
 30
0.0
 11
560.600169
 21
310.66671
 31
0.0
  0
LINE
  5
479
100
AcDbEntity
  8
LAY-6
  6
CONTINUOUS
 62
     1
100
AcDbLine
 10
560.600169
 20
264.66671
 30
0.0
 11
560.933502
 21
262.66671
 31
0.0
  0
LINE
  5
47A
100
AcDbEntity
  8
LAY-6
  6
CONTINUOUS
 62
     1
100
AcDbLine
 10
560.933502
 20
262.66671
 30
0.0
 11
561.266835
 21
264.66671
 31
0.0
  0
TEXT
  5
47B
100
AcDbEntity
  8
LAY-6
  6
CONTINUOUS
 62
     2
100
AcDbText
 10
611.6
 20
206.8
 30
0.0
 40
5.0
  1
フロアプレート　　１.５ｔ
 41
0.655621
  7
EXCADSTD
 72
     5
 11
661.6
 21
206.8
 31
0.0
100
AcDbText
  0
TEXT
  5
47C
100
AcDbEntity
  8
LAY-6
  6
CONTINUOUS
 62
     2
100
AcDbText
 10
611.6
 20
201.8
 30
0.0
 40
5.0
  1
    （ＳＵＳ３０４）
 41
0.595556
  7
EXCADSTD
 72
     5
 11
651.6
 21
201.8
 31
0.0
100
AcDbText
  0
LINE
  5
47D
100
AcDbEntity
  8
LAY-6
  6
CONTINUOUS
 62
     1
100
AcDbLine
 10
598.605125
 20
512.7
 30
0.0
 11
617.395119
 21
512.7
 31
0.0
  0
LINE
  5
47E
100
AcDbEntity
  8
LAY-6
  6
CONTINUOUS
 62
     1
100
AcDbLine
 10
600.605125
 20
513.033333
 30
0.0
 11
598.605125
 21
512.7
 31
0.0
  0
LINE
  5
47F
100
AcDbEntity
  8
LAY-6
  6
CONTINUOUS
 62
     1
100
AcDbLine
 10
598.605125
 20
512.7
 30
0.0
 11
600.605125
 21
512.366667
 31
0.0
  0
LINE
  5
480
100
AcDbEntity
  8
LAY-6
  6
CONTINUOUS
 62
     1
100
AcDbLine
 10
615.395119
 20
512.366667
 30
0.0
 11
617.395119
 21
512.7
 31
0.0
  0
LINE
  5
481
100
AcDbEntity
  8
LAY-6
  6
CONTINUOUS
 62
     1
100
AcDbLine
 10
617.395119
 20
512.7
 30
0.0
 11
615.395119
 21
513.033333
 31
0.0
  0
LINE
  5
482
100
AcDbEntity
  8
LAY-6
  6
CONTINUOUS
 62
     1
100
AcDbLine
 10
617.395119
 20
504.454437
 30
0.0
 11
617.395119
 21
513.5
 31
0.0
  0
LINE
  5
483
100
AcDbEntity
  8
LAY-6
  6
CONTINUOUS
 62
     1
100
AcDbLine
 10
598.605125
 20
504.454437
 30
0.0
 11
598.605125
 21
513.5
 31
0.0
  0
TEXT
  5
484
100
AcDbEntity
  8
LAY-6
  6
CONTINUOUS
 62
     2
100
AcDbText
 10
599.300183
 20
513.1
 30
0.0
 40
5.0
  1
φ
 41
0.672
  7
EXCADSTD
 72
     5
 11
602.500183
 21
513.1
 31
0.0
100
AcDbText
  0
TEXT
  5
485
100
AcDbEntity
  8
LAY-6
  6
CONTINUOUS
 62
     2
100
AcDbText
 10
603.300183
 20
513.1
 30
0.0
 40
5.0
  1
１８.８
 41
0.616
  7
EXCADSTD
 72
     5
 11
617.300183
 21
513.1
 31
0.0
100
AcDbText
  0
LINE
  5
486
100
AcDbEntity
  8
LAY-6
  6
CONTINUOUS
 62
     1
100
AcDbLine
 10
589.500122
 20
503.954437
 30
0.0
 11
572.052948
 21
503.954437
 31
0.0
  0
LINE
  5
487
100
AcDbEntity
  8
LAY-6
  6
CONTINUOUS
 62
     1
100
AcDbLine
 10
602.100122
 20
507.954437
 30
0.0
 11
572.052948
 21
507.954437
 31
0.0
  0
TEXT
  5
488
100
AcDbEntity
  8
LAY-6
  6
CONTINUOUS
 62
     2
100
AcDbText
 10
573.052948
 20
503.954437
 30
0.0
 40
5.0
  1
４
 50
90.0
 41
0.672
  7
EXCADSTD
 72
     5
 11
573.052948
 21
507.154437
 31
0.0
100
AcDbText
  0
TEXT
  5
489
100
AcDbEntity
  8
LAY-6
  6
CONTINUOUS
 62
     2
100
AcDbText
 10
171.5
 20
117.4
 30
0.0
 40
5.0
  1
４５°
 41
0.672
  7
EXCADSTD
 72
     5
 11
183.5
 21
117.4
 31
0.0
100
AcDbText
  0
LINE
  5
48A
100
AcDbEntity
  8
LAY-6
  6
CONTINUOUS
 62
     1
100
AcDbLine
 10
93.998414
 20
89.224898
 30
0.0
 11
104.932606
 21
98.118225
 31
0.0
  0
LINE
  5
48B
100
AcDbEntity
  8
LAY-6
  6
CONTINUOUS
 62
     1
100
AcDbLine
 10
98.708872
 20
253.078113
 30
0.0
 11
108.89267
 21
262.663239
 31
0.0
  0
TEXT
  5
48C
100
AcDbEntity
  8
LAY-6
  6
CONTINUOUS
 62
     2
100
AcDbText
 10
165.92
 20
280.400031
 30
0.0
 40
5.0
  1
４５°
 41
0.672
  7
EXCADSTD
 72
     5
 11
177.92
 21
280.400031
 31
0.0
100
AcDbText
  0
LINE
  5
48D
100
AcDbEntity
  8
LAY-6
  6
CONTINUOUS
 62
     1
100
AcDbLine
 10
668.146667
 20
493.954376
 30
0.0
 11
677.993896
 21
493.954376
 31
0.0
  0
INSERT
  5
48E
100
AcDbEntity
  8
LAY-6
  6
CONTINUOUS
 62
     0
100
AcDbBlockReference
  2
SYM-2
 10
77.0
 20
392.0
 30
0.0
  0
INSERT
  5
48F
100
AcDbEntity
  8
LAY-6
  6
CONTINUOUS
 62
     0
100
AcDbBlockReference
  2
SYM-3
 10
76.5
 20
222.5
 30
0.0
  0
LINE
  5
490
100
AcDbEntity
  8
LAY-6
  6
CONTINUOUS
 62
     1
100
AcDbLine
 10
191.218018
 20
309.000031
 30
0.0
 11
191.218018
 21
303.000092
 31
0.0
  0
LINE
  5
491
100
AcDbEntity
  8
LAY-6
  6
CONTINUOUS
 62
     1
100
AcDbLine
 10
122.999977
 20
203.333069
 30
0.0
 11
122.999977
 21
151.8
 31
0.0
  0
LINE
  5
492
100
AcDbEntity
  8
LAY-6
  6
CONTINUOUS
 62
     1
100
AcDbLine
 10
252.350693
 20
146.0
 30
0.0
 11
252.350693
 21
140.0
 31
0.0
  0
LINE
  5
493
100
AcDbEntity
  8
LAY-6
  6
CONTINUOUS
 62
     1
100
AcDbLine
 10
573.552948
 20
487.954437
 30
0.0
 11
573.552948
 21
484.454407
 31
0.0
  0
TEXT
  5
494
100
AcDbEntity
  8
LAY-6
  6
CONTINUOUS
 62
     2
100
AcDbText
 10
241.9
 20
318.8
 30
0.0
 40
6.0
  1
ド　ア
 41
0.672
  7
EXCADSTD
 72
     5
 11
256.300001
 21
318.8
 31
0.0
100
AcDbText
  0
TEXT
  5
495
100
AcDbEntity
  8
LAY-6
  6
CONTINUOUS
 62
     2
100
AcDbText
 10
316.8
 20
153.8
 30
0.0
 40
6.0
  1
ド　ア
 41
0.672
  7
EXCADSTD
 72
     5
 11
331.200001
 21
153.8
 31
0.0
100
AcDbText
  0
TEXT
  5
496
100
AcDbEntity
  8
LAY-6
  6
CONTINUOUS
 62
     2
100
AcDbText
 10
647.6
 20
413.4
 30
0.0
 40
6.0
  1
ド　ア
 41
0.672
  7
EXCADSTD
 72
     5
 11
662.000001
 21
413.4
 31
0.0
100
AcDbText
  0
TEXT
  5
497
100
AcDbEntity
  8
LAY-6
  6
CONTINUOUS
 62
     2
100
AcDbText
 10
648.4
 20
181.5
 30
0.0
 40
5.0
  1
（注）　斜線部分竪枠はフロアプレート
 41
0.672
  7
EXCADSTD
 72
     5
 11
720.4
 21
181.5
 31
0.0
100
AcDbText
  0
TEXT
  5
498
100
AcDbEntity
  8
LAY-6
  6
CONTINUOUS
 62
     2
100
AcDbText
 10
648.4
 20
175.5
 30
0.0
 40
5.0
  1
　　　　上面まで切欠いて下さい。
 41
0.672
  7
EXCADSTD
 72
     5
 11
712.4
 21
175.5
 31
0.0
100
AcDbText
  0
TEXT
  5
499
100
AcDbEntity
  8
LAY-6
  6
CONTINUOUS
 62
     2
100
AcDbText
 10
635.6
 20
146.4
 30
0.0
 40
5.0
  1
Ｌ
 50
90.0
 41
0.672
  7
EXCADSTD
 72
     5
 11
635.6
 21
149.6
 31
0.0
100
AcDbText
  0
TEXT
  5
49A
100
AcDbEntity
  8
LAY-6
  6
CONTINUOUS
 62
     2
100
AcDbText
 10
537.1
 20
209.7
 30
0.0
 40
6.0
  1
竪　枠
 41
0.672
  7
EXCADSTD
 72
     5
 11
551.500001
 21
209.7
 31
0.0
100
AcDbText
  0
TEXT
  5
49B
100
AcDbEntity
  8
LAY-6
  6
CONTINUOUS
 62
     2
100
AcDbText
 10
570.6
 20
85.3
 30
0.0
 40
5.0
  1
Ｌ
 41
0.672
  7
EXCADSTD
 72
     5
 11
573.8
 21
85.3
 31
0.0
100
AcDbText
  0
TEXT
  5
49C
100
AcDbEntity
  8
LAY-6
  6
CONTINUOUS
 62
     2
100
AcDbText
 10
526.2
 20
302.9
 30
0.0
 40
6.0
  1
床　面
 41
0.672
  7
EXCADSTD
 72
     5
 11
540.600001
 21
302.9
 31
0.0
100
AcDbText
  0
TEXT
  5
49D
100
AcDbEntity
  8
LAY-6
  6
CONTINUOUS
 62
     2
100
AcDbText
 10
548.9
 20
315.1
 30
0.0
 40
5.0
  1
Ｌ
 50
90.0
 41
0.672
  7
EXCADSTD
 72
     5
 11
548.9
 21
318.3
 31
0.0
100
AcDbText
  0
TEXT
  5
49E
100
AcDbEntity
  8
LAY-6
  6
CONTINUOUS
 62
     2
100
AcDbText
 10
567.3
 20
474.5
 30
0.0
 40
5.0
  1
２.５～４.５
 50
90.0
 41
0.607347
  7
EXCADSTD
 72
     5
 11
567.3
 21
498.5
 31
0.0
100
AcDbText
  0
LINE
  5
49F
100
AcDbEntity
  8
LAY-6
  6
CONTINUOUS
 62
     1
100
AcDbLine
 10
573.552948
 20
486.4
 30
0.0
 11
565.952948
 21
486.4
 31
0.0
  0
ARC
  5
4A0
100
AcDbEntity
  8
LAY-6
  6
CONTINUOUS
 62
     1
100
AcDbCircle
 10
566.499969
 20
149.699969
 30
0.0
 40
33.0
100
AcDbArc
 50
38.47336
 51
69.542404
  0
ARC
  5
4A1
100
AcDbEntity
  8
LAY-6
  6
CONTINUOUS
 62
     1
100
AcDbCircle
 10
566.499969
 20
149.699969
 30
0.0
 40
33.0
100
AcDbArc
 50
220.749054
 51
249.950852
  0
TEXT
  5
4A2
100
AcDbEntity
  8
LAY-6
  6
CONTINUOUS
 62
     2
100
AcDbText
 10
696.8
 20
502.0
 30
0.0
 40
6.0
  1
上　枠
 41
0.672
  7
EXCADSTD
 72
     5
 11
711.200001
 21
502.0
 31
0.0
100
AcDbText
  0
INSERT
  5
4A3
100
AcDbEntity
  8
LAY-6
  6
CONTINUOUS
 62
     0
100
AcDbBlockReference
  2
SYM-4
 10
645.0
 20
207.8
 30
0.0
  0
TEXT
  5
4A4
100
AcDbEntity
  8
LAY-6
  6
CONTINUOUS
 62
     2
100
AcDbText
 10
557.81842
 20
388.1362
 30
0.0
 40
5.0
  1
６－Ｍ６×２０皿小ネジ
 41
0.672
  7
EXCADSTD
 72
     5
 11
601.81842
 21
388.1362
 31
0.0
100
AcDbText
  0
TEXT
  5
4A5
100
AcDbEntity
  8
LAY-6
  6
CONTINUOUS
 62
     2
100
AcDbText
 10
557.719025
 20
426.169739
 30
0.0
 40
5.0
  1
４－Ｍ６×１６皿小ネジ
 41
0.672
  7
EXCADSTD
 72
     5
 11
601.719025
 21
426.169739
 31
0.0
100
AcDbText
  0
CIRCLE
  5
4A6
100
AcDbEntity
  8
LAY-6
  6
CONTINUOUS
 62
     1
100
AcDbCircle
 10
486.429972
 20
222.5
 30
0.0
 40
4.0
  0
TEXT
  5
4A7
100
AcDbEntity
  8
LAY-6
  6
CONTINUOUS
 62
     2
100
AcDbText
 10
493.029972
 20
219.3
 30
0.0
 40
7.0
  1
本　体
 41
0.672
  7
EXCADSTD
 72
     5
 11
509.829971
 21
219.3
 31
0.0
100
AcDbText
  0
TEXT
  5
4A8
100
AcDbEntity
  8
LAY-6
  6
CONTINUOUS
 62
     2
100
AcDbText
 10
483.601545
 20
219.671573
 30
0.0
 40
5.656854
  1
４
 41
0.84
  7
EXCADSTD
 72
     5
 11
488.127028
 21
219.671573
 31
0.0
100
AcDbText
  0
LINE
  5
4A9
100
AcDbEntity
  8
LAY-6
  6
CONTINUOUS
 62
     1
100
AcDbLine
 10
490.429972
 20
218.8
 30
0.0
 11
511.4
 21
218.8
 31
0.0
  0
TEXT
  5
4AA
100
AcDbEntity
  8
LAY-6
  6
CONTINUOUS
 62
     2
100
AcDbText
 10
575.160877
 20
525.841335
 30
0.0
 40
5.0
  1
キャップ
 41
0.672
  7
EXCADSTD
 72
     5
 11
591.160877
 21
525.841335
 31
0.0
100
AcDbText
  0
POLYLINE
  5
4AB
100
AcDbEntity
  8
LAY-6
  6
CONTINUOUS
 62
     1
100
AcDb2dPolyline
 66
     1
 10
0.0
 20
0.0
 30
0.0
 70
   128
  0
VERTEX
  5
4AC
100
AcDbEntity
  8
LAY-6
  6
CONTINUOUS
 62
     1
100
AcDbVertex
100
AcDb2dVertex
 10
602.600061
 20
507.954437
 30
0.0
  0
VERTEX
  5
4AD
100
AcDbEntity
  8
LAY-6
  6
CONTINUOUS
 62
     1
100
AcDbVertex
100
AcDb2dVertex
 10
591.400061
 20
525.539236
 30
0.0
  0
VERTEX
  5
4AE
100
AcDbEntity
  8
LAY-6
  6
CONTINUOUS
 62
     1
100
AcDbVertex
100
AcDb2dVertex
 10
574.0
 20
525.539236
 30
0.0
  0
SEQEND
  5
4AF
100
AcDbEntity
  8
LAY-6
  6
CONTINUOUS
 62
     1
  0
LINE
  5
4B0
100
AcDbEntity
  8
LAY-6
  6
CONTINUOUS
 62
     1
100
AcDbLine
 10
600.566718
 20
510.216188
 30
0.0
 11
602.600061
 21
507.954437
 31
0.0
  0
LINE
  5
4B1
100
AcDbEntity
  8
LAY-6
  6
CONTINUOUS
 62
     1
100
AcDbLine
 10
602.600061
 20
507.954437
 30
0.0
 11
601.41017
 21
510.753394
 31
0.0
  0
LINE
  5
4B2
100
AcDbEntity
  8
LAY-6
  6
CONTINUOUS
 62
     1
100
AcDbLine
 10
573.552948
 20
514.254437
 30
0.0
 11
573.552948
 21
498.954437
 31
0.0
  0
LINE
  5
4B3
100
AcDbEntity
  8
LAY-6
  6
CONTINUOUS
 62
     1
100
AcDbLine
 10
573.552948
 20
503.954437
 30
0.0
 11
574.070586
 21
502.022585
 31
0.0
  0
LINE
  5
4B4
100
AcDbEntity
  8
LAY-6
  6
CONTINUOUS
 62
     1
100
AcDbLine
 10
573.552948
 20
503.954437
 30
0.0
 11
573.03531
 21
502.022585
 31
0.0
  0
LINE
  5
4B5
100
AcDbEntity
  8
LAY-6
  6
CONTINUOUS
 62
     1
100
AcDbLine
 10
573.552948
 20
507.954437
 30
0.0
 11
573.03531
 21
509.886288
 31
0.0
  0
LINE
  5
4B6
100
AcDbEntity
  8
LAY-6
  6
CONTINUOUS
 62
     1
100
AcDbLine
 10
573.552948
 20
507.954437
 30
0.0
 11
574.070586
 21
509.886288
 31
0.0
  0
ARC
  5
4B7
100
AcDbEntity
  8
LAY-6
  6
CONTINUOUS
 62
     4
100
AcDbCircle
 10
756.999999
 20
101.0
 30
0.0
 40
18.0
100
AcDbArc
 50
180.0
 51
225.487766
  0
ARC
  5
4B8
100
AcDbEntity
  8
LAY-6
  6
CONTINUOUS
 62
     4
100
AcDbCircle
 10
721.0
 20
101.0
 30
0.0
 40
18.0
100
AcDbArc
 50
314.424746
 51
0.0
  0
LINE
  5
4B9
100
AcDbEntity
  8
LAY-6
  6
CONTINUOUS
 62
     4
100
AcDbLine
 10
742.658807
 20
90.122032
 30
0.0
 11
761.5
 21
101.0
 31
0.0
  0
LINE
  5
4BA
100
AcDbEntity
  8
LAY-6
  6
CONTINUOUS
 62
     4
100
AcDbLine
 10
735.341193
 20
90.122032
 30
0.0
 11
716.499999
 21
101.0
 31
0.0
  0
LINE
  5
4BB
100
AcDbEntity
  8
LAY-6
  6
CONTINUOUS
 62
     4
100
AcDbLine
 10
716.5
 20
101.0
 30
0.0
 11
761.5
 21
101.0
 31
0.0
  0
LINE
  5
4BC
100
AcDbEntity
  8
LAY-6
  6
CONTINUOUS
 62
     4
100
AcDbLine
 10
761.5
 20
104.75
 30
0.0
 11
769.0
 21
104.75
 31
0.0
  0
LINE
  5
4BD
100
AcDbEntity
  8
LAY-6
  6
CONTINUOUS
 62
     4
100
AcDbLine
 10
716.5
 20
104.75
 30
0.0
 11
709.0
 21
104.75
 31
0.0
  0
LINE
  5
4BE
100
AcDbEntity
  8
LAY-6
  6
CONTINUOUS
 62
     4
100
AcDbLine
 10
716.5
 20
97.25
 30
0.0
 11
709.0
 21
97.25
 31
0.0
  0
LINE
  5
4BF
100
AcDbEntity
  8
LAY-6
  6
CONTINUOUS
 62
     4
100
AcDbLine
 10
716.5
 20
97.25
 30
0.0
 11
716.5
 21
104.75
 31
0.0
  0
LINE
  5
4C0
100
AcDbEntity
  8
LAY-6
  6
CONTINUOUS
 62
     4
100
AcDbLine
 10
709.0
 20
97.25
 30
0.0
 11
709.0
 21
104.75
 31
0.0
  0
LINE
  5
4C1
100
AcDbEntity
  8
LAY-6
  6
CONTINUOUS
 62
     4
100
AcDbLine
 10
761.5
 20
97.25
 30
0.0
 11
769.0
 21
97.25
 31
0.0
  0
LINE
  5
4C2
100
AcDbEntity
  8
LAY-6
  6
CONTINUOUS
 62
     4
100
AcDbLine
 10
761.5
 20
97.25
 30
0.0
 11
761.5
 21
104.75
 31
0.0
  0
LINE
  5
4C3
100
AcDbEntity
  8
LAY-6
  6
CONTINUOUS
 62
     4
100
AcDbLine
 10
769.0
 20
97.25
 30
0.0
 11
769.0
 21
104.75
 31
0.0
  0
LINE
  5
4C4
100
AcDbEntity
  8
LAY-6
  6
CONTINUOUS
 62
     2
100
AcDbLine
 10
745.000003
 20
113.765001
 30
0.0
 11
739.0
 21
107.764998
 31
0.0
  0
LINE
  5
4C5
100
AcDbEntity
  8
LAY-6
  6
CONTINUOUS
 62
     2
100
AcDbLine
 10
742.0
 20
113.765
 30
0.0
 11
745.000003
 21
113.765001
 31
0.0
  0
LINE
  5
4C6
100
AcDbEntity
  8
LAY-6
  6
CONTINUOUS
 62
     2
100
AcDbLine
 10
733.000003
 20
113.764995
 30
0.0
 11
739.0
 21
107.764998
 31
0.0
  0
LINE
  5
4C7
100
AcDbEntity
  8
LAY-6
  6
CONTINUOUS
 62
     2
100
AcDbLine
 10
733.000003
 20
113.764995
 30
0.0
 11
736.0
 21
113.764996
 31
0.0
  0
LINE
  5
4C8
100
AcDbEntity
  8
LAY-6
  6
CONTINUOUS
 62
     2
100
AcDbLine
 10
742.0
 20
113.765
 30
0.0
 11
742.0
 21
119.765
 31
0.0
  0
LINE
  5
4C9
100
AcDbEntity
  8
LAY-6
  6
CONTINUOUS
 62
     2
100
AcDbLine
 10
742.0
 20
119.765
 30
0.0
 11
739.0
 21
119.765
 31
0.0
  0
LINE
  5
4CA
100
AcDbEntity
  8
LAY-6
  6
CONTINUOUS
 62
     2
100
AcDbLine
 10
739.0
 20
119.765
 30
0.0
 11
736.0
 21
119.765
 31
0.0
  0
LINE
  5
4CB
100
AcDbEntity
  8
LAY-6
  6
CONTINUOUS
 62
     2
100
AcDbLine
 10
736.0
 20
113.764996
 30
0.0
 11
736.0
 21
119.764999
 31
0.0
  0
TEXT
  5
4CC
100
AcDbEntity
  8
LAY-6
  6
CONTINUOUS
 62
     2
100
AcDbText
 10
705.322841
 20
126.108318
 30
0.0
 40
9.0
  1
ドアの開き勝手基準
 41
0.672
  7
EXCADSTD
 72
     5
 11
770.122844
 21
126.108318
 31
0.0
100
AcDbText
  0
LINE
  5
4CD
100
AcDbEntity
  8
LAY-6
  6
CONTINUOUS
 62
     2
100
AcDbLine
 10
704.113457
 20
124.279497
 30
0.0
 11
773.263457
 21
124.279497
 31
0.0
  0
TEXT
  5
4CE
100
AcDbEntity
  8
LAY-6
  6
CONTINUOUS
 62
     2
100
AcDbText
 10
701.244428
 20
71.110529
 30
0.0
 40
9.0
  1
本図は右開きを示します
 41
0.672
  7
EXCADSTD
 72
     5
 11
780.444431
 21
71.110529
 31
0.0
100
AcDbText
  0
TEXT
  5
4CF
100
AcDbEntity
  8
LAY-6
  6
CONTINUOUS
 62
     2
100
AcDbText
 10
730.813134
 20
92.896519
 30
0.0
 40
7.5
  1
右
 41
0.672
  7
EXCADSTD
 72
     5
 11
735.613134
 21
92.896519
 31
0.0
100
AcDbText
  0
TEXT
  5
4D0
100
AcDbEntity
  8
LAY-6
  6
CONTINUOUS
 62
     2
100
AcDbText
 10
741.528085
 20
92.885
 30
0.0
 40
7.5
  1
左
 41
0.672
  7
EXCADSTD
 72
     5
 11
746.328085
 21
92.885
 31
0.0
100
AcDbText
  0
TEXT
  5
4D1
100
AcDbEntity
  8
LAY-6
  6
CONTINUOUS
 62
     2
100
AcDbText
 10
98.287335
 20
419.005955
 30
0.0
 40
5.0
  1
Ｒ
 50
42.1523
 41
0.672
  7
EXCADSTD
 72
     5
 11
100.659698
 21
421.153487
 31
0.0
100
AcDbText
  0
TEXT
  5
4D2
100
AcDbEntity
  8
LAY-6
  6
CONTINUOUS
 62
     2
100
AcDbText
 10
101.252789
 20
421.690369
 30
0.0
 40
5.0
  1
１８
 50
42.1523
 41
0.672
  7
EXCADSTD
 72
     5
 11
106.68906
 21
426.611438
 31
0.0
100
AcDbText
  0
LINE
  5
4D3
100
AcDbEntity
  8
LAY-6
  6
CONTINUOUS
 62
     1
100
AcDbLine
 10
108.655457
 20
427.920105
 30
0.0
 11
122.0
 21
439.999969
 31
0.0
  0
LINE
  5
4D4
100
AcDbEntity
  8
LAY-6
  6
CONTINUOUS
 62
     1
100
AcDbLine
 10
110.543996
 20
430.304098
 30
0.0
 11
108.655457
 21
427.920105
 31
0.0
  0
LINE
  5
4D5
100
AcDbEntity
  8
LAY-6
  6
CONTINUOUS
 62
     1
100
AcDbLine
 10
108.655457
 20
427.920105
 30
0.0
 11
111.2151
 21
429.562734
 31
0.0
  0
TEXT
  5
4D6
100
AcDbEntity
  8
LAY-6
  6
CONTINUOUS
 62
     2
100
AcDbText
 10
142.749969
 20
469.928192
 30
0.0
 40
5.0
  1
４１
 41
0.672
  7
EXCADSTD
 72
     5
 11
150.082769
 21
469.928192
 31
0.0
100
AcDbText
  0
LINE
  5
4D7
100
AcDbEntity
  8
LAY-6
  6
CONTINUOUS
 62
     1
100
AcDbLine
 10
125.999969
 20
469.428192
 30
0.0
 11
166.999969
 21
469.428192
 31
0.0
  0
LINE
  5
4D8
100
AcDbEntity
  8
LAY-6
  6
CONTINUOUS
 62
     1
100
AcDbLine
 10
128.999969
 20
469.928192
 30
0.0
 11
125.999969
 21
469.428192
 31
0.0
  0
LINE
  5
4D9
100
AcDbEntity
  8
LAY-6
  6
CONTINUOUS
 62
     1
100
AcDbLine
 10
125.999969
 20
469.428192
 30
0.0
 11
128.999969
 21
468.928192
 31
0.0
  0
LINE
  5
4DA
100
AcDbEntity
  8
LAY-6
  6
CONTINUOUS
 62
     1
100
AcDbLine
 10
163.999969
 20
468.928192
 30
0.0
 11
166.999969
 21
469.428192
 31
0.0
  0
LINE
  5
4DB
100
AcDbEntity
  8
LAY-6
  6
CONTINUOUS
 62
     1
100
AcDbLine
 10
166.999969
 20
469.428192
 30
0.0
 11
163.999969
 21
469.928192
 31
0.0
  0
TEXT
  5
4DC
100
AcDbEntity
  8
LAY-6
  6
CONTINUOUS
 62
     2
100
AcDbText
 10
140.027313
 20
487.354675
 30
0.0
 40
5.0
  1
Ｒ
 50
335.360396
 41
0.672
  7
EXCADSTD
 72
     5
 11
142.935947
 21
486.020566
 31
0.0
100
AcDbText
  0
TEXT
  5
4DD
100
AcDbEntity
  8
LAY-6
  6
CONTINUOUS
 62
     2
100
AcDbText
 10
143.663106
 20
485.687038
 30
0.0
 40
5.0
  1
４１
 50
335.360396
 41
0.672
  7
EXCADSTD
 72
     5
 11
150.328241
 21
482.629927
 31
0.0
100
AcDbText
  0
LINE
  5
4DE
100
AcDbEntity
  8
LAY-6
  6
CONTINUOUS
 62
     1
100
AcDbLine
 10
128.933075
 20
491.893203
 30
0.0
 11
166.199951
 21
474.799926
 31
0.0
  0
LINE
  5
4DF
100
AcDbEntity
  8
LAY-6
  6
CONTINUOUS
 62
     1
100
AcDbLine
 10
131.868374
 20
491.09695
 30
0.0
 11
128.933075
 21
491.893203
 31
0.0
  0
LINE
  5
4E0
100
AcDbEntity
  8
LAY-6
  6
CONTINUOUS
 62
     1
100
AcDbLine
 10
128.933075
 20
491.893203
 30
0.0
 11
131.451465
 21
490.188001
 31
0.0
  0
LINE
  5
4E1
100
AcDbEntity
  8
LAY-6
  6
CONTINUOUS
 62
     1
100
AcDbLine
 10
111.999969
 20
510.5
 30
0.0
 11
111.999969
 21
519.435516
 31
0.0
  0
TEXT
  5
4E2
100
AcDbEntity
  8
LAY-6
  6
CONTINUOUS
 62
     2
100
AcDbText
 10
113.25
 20
518.935516
 30
0.0
 40
5.0
  1
１０
 41
0.672
  7
EXCADSTD
 72
     5
 11
120.5828
 21
518.935516
 31
0.0
100
AcDbText
  0
LINE
  5
4E3
100
AcDbEntity
  8
LAY-6
  6
CONTINUOUS
 62
     1
100
AcDbLine
 10
111.999969
 20
518.435516
 30
0.0
 11
122.0
 21
518.435516
 31
0.0
  0
LINE
  5
4E4
100
AcDbEntity
  8
LAY-6
  6
CONTINUOUS
 62
     1
100
AcDbLine
 10
114.999969
 20
518.935516
 30
0.0
 11
111.999969
 21
518.435516
 31
0.0
  0
LINE
  5
4E5
100
AcDbEntity
  8
LAY-6
  6
CONTINUOUS
 62
     1
100
AcDbLine
 10
111.999969
 20
518.435516
 30
0.0
 11
114.999969
 21
517.935516
 31
0.0
  0
LINE
  5
4E6
100
AcDbEntity
  8
LAY-6
  6
CONTINUOUS
 62
     1
100
AcDbLine
 10
119.0
 20
517.935516
 30
0.0
 11
122.0
 21
518.435516
 31
0.0
  0
LINE
  5
4E7
100
AcDbEntity
  8
LAY-6
  6
CONTINUOUS
 62
     1
100
AcDbLine
 10
122.0
 20
518.435516
 30
0.0
 11
119.0
 21
518.935516
 31
0.0
  0
LINE
  5
4E8
100
AcDbEntity
  8
LAY-6
  6
CONTINUOUS
 62
     1
100
AcDbLine
 10
122.0
 20
510.499984
 30
0.0
 11
122.0
 21
519.435516
 31
0.0
  0
LINE
  5
4E9
100
AcDbEntity
  8
LAY-6
  6
CONTINUOUS
 62
     1
100
AcDbLine
 10
125.999969
 20
483.359802
 30
0.0
 11
125.999969
 21
519.435516
 31
0.0
  0
TEXT
  5
4EA
100
AcDbEntity
  8
LAY-6
  6
CONTINUOUS
 62
     2
100
AcDbText
 10
121.841736
 20
518.999649
 30
0.0
 40
5.0
  1
４
 41
0.672
  7
EXCADSTD
 72
     5
 11
125.041736
 21
518.999649
 31
0.0
100
AcDbText
  0
LINE
  5
4EB
100
AcDbEntity
  8
LAY-6
  6
CONTINUOUS
 62
     1
100
AcDbLine
 10
117.0
 20
518.435516
 30
0.0
 11
122.0
 21
518.435516
 31
0.0
  0
LINE
  5
4EC
100
AcDbEntity
  8
LAY-6
  6
CONTINUOUS
 62
     1
100
AcDbLine
 10
125.999969
 20
518.435516
 30
0.0
 11
130.999969
 21
518.435516
 31
0.0
  0
LINE
  5
4ED
100
AcDbEntity
  8
LAY-6
  6
CONTINUOUS
 62
     1
100
AcDbLine
 10
119.0
 20
517.935516
 30
0.0
 11
122.0
 21
518.435516
 31
0.0
  0
LINE
  5
4EE
100
AcDbEntity
  8
LAY-6
  6
CONTINUOUS
 62
     1
100
AcDbLine
 10
122.0
 20
518.435516
 30
0.0
 11
119.0
 21
518.935516
 31
0.0
  0
LINE
  5
4EF
100
AcDbEntity
  8
LAY-6
  6
CONTINUOUS
 62
     1
100
AcDbLine
 10
128.999969
 20
518.935516
 30
0.0
 11
125.999969
 21
518.435516
 31
0.0
  0
LINE
  5
4F0
100
AcDbEntity
  8
LAY-6
  6
CONTINUOUS
 62
     1
100
AcDbLine
 10
125.999969
 20
518.435516
 30
0.0
 11
128.999969
 21
517.935516
 31
0.0
  0
LINE
  5
4F1
100
AcDbEntity
  8
LAY-6
  6
CONTINUOUS
 62
     1
100
AcDbLine
 10
125.999969
 20
483.359802
 30
0.0
 11
125.999969
 21
519.435516
 31
0.0
  0
LINE
  5
4F2
100
AcDbEntity
  8
LAY-6
  6
CONTINUOUS
 62
     1
100
AcDbLine
 10
226.0
 20
500.499938
 30
0.0
 11
226.0
 21
519.435516
 31
0.0
  0
TEXT
  5
4F3
100
AcDbEntity
  8
LAY-6
  6
CONTINUOUS
 62
     2
100
AcDbText
 10
170.375
 20
518.935516
 30
0.0
 40
5.0
  1
１００
 41
0.672
  7
EXCADSTD
 72
     5
 11
182.375
 21
518.935516
 31
0.0
100
AcDbText
  0
LINE
  5
4F4
100
AcDbEntity
  8
LAY-6
  6
CONTINUOUS
 62
     1
100
AcDbLine
 10
125.999969
 20
518.435516
 30
0.0
 11
226.0
 21
518.435516
 31
0.0
  0
LINE
  5
4F5
100
AcDbEntity
  8
LAY-6
  6
CONTINUOUS
 62
     1
100
AcDbLine
 10
128.999969
 20
518.935516
 30
0.0
 11
125.999969
 21
518.435516
 31
0.0
  0
LINE
  5
4F6
100
AcDbEntity
  8
LAY-6
  6
CONTINUOUS
 62
     1
100
AcDbLine
 10
125.999969
 20
518.435516
 30
0.0
 11
128.999969
 21
517.935516
 31
0.0
  0
LINE
  5
4F7
100
AcDbEntity
  8
LAY-6
  6
CONTINUOUS
 62
     1
100
AcDbLine
 10
223.0
 20
517.935516
 30
0.0
 11
226.0
 21
518.435516
 31
0.0
  0
LINE
  5
4F8
100
AcDbEntity
  8
LAY-6
  6
CONTINUOUS
 62
     1
100
AcDbLine
 10
226.0
 20
518.435516
 30
0.0
 11
223.0
 21
518.935516
 31
0.0
  0
LINE
  5
4F9
100
AcDbEntity
  8
LAY-6
  6
CONTINUOUS
 62
     1
100
AcDbLine
 10
98.072853
 20
418.340428
 30
0.0
 11
108.655457
 21
427.920105
 31
0.0
  0
INSERT
  5
4FA
100
AcDbEntity
  8
LAY-6
  6
CONTINUOUS
 62
     0
100
AcDbBlockReference
  2
SYM-5
 10
77.0
 20
547.0
 30
0.0
  0
LINE
  5
4FB
100
AcDbEntity
  8
LAY-6
  6
CONTINUOUS
 62
     1
100
AcDbLine
 10
125.999969
 20
518.435516
 30
0.0
 11
122.0
 21
518.435516
 31
0.0
  0
TEXT
  5
4FC
100
AcDbEntity
  8
LAY-6
  6
CONTINUOUS
 62
     2
100
AcDbText
 10
90.1
 20
487.7
 30
0.0
 40
6.0
  1
竪　枠
 41
0.672
  7
EXCADSTD
 72
     5
 11
104.500001
 21
487.7
 31
0.0
100
AcDbText
  0
LINE
  5
4FD
100
AcDbEntity
  8
LAY-6
  6
CONTINUOUS
 62
     1
100
AcDbLine
 10
125.999952
 20
483.359707
 30
0.0
 11
125.999952
 21
509.0
 31
0.0
  0
LINE
  5
4FE
100
AcDbEntity
  8
LAY-6
  6
CONTINUOUS
 62
     1
100
AcDbLine
 10
141.000031
 20
487.640197
 30
0.0
 11
141.000031
 21
509.0
 31
0.0
  0
TEXT
  5
4FF
100
AcDbEntity
  8
LAY-6
  6
CONTINUOUS
 62
     2
100
AcDbText
 10
125.499991
 20
508.0
 30
0.0
 40
5.0
  1
（
 41
0.672
  7
EXCADSTD
 72
     5
 11
128.699991
 21
508.0
 31
0.0
100
AcDbText
  0
TEXT
  5
500
100
AcDbEntity
  8
LAY-6
  6
CONTINUOUS
 62
     2
100
AcDbText
 10
129.499991
 20
508.0
 30
0.0
 40
5.0
  1
１５
 41
0.672
  7
EXCADSTD
 72
     5
 11
136.832791
 21
508.0
 31
0.0
100
AcDbText
  0
TEXT
  5
501
100
AcDbEntity
  8
LAY-6
  6
CONTINUOUS
 62
     2
100
AcDbText
 10
137.499991
 20
508.0
 30
0.0
 40
5.0
  1
）
 41
0.672
  7
EXCADSTD
 72
     5
 11
140.699991
 21
508.0
 31
0.0
100
AcDbText
  0
LINE
  5
502
100
AcDbEntity
  8
LAY-6
  6
CONTINUOUS
 62
     1
100
AcDbLine
 10
125.999952
 20
507.5
 30
0.0
 11
141.000031
 21
507.5
 31
0.0
  0
LINE
  5
503
100
AcDbEntity
  8
LAY-6
  6
CONTINUOUS
 62
     1
100
AcDbLine
 10
127.999952
 20
507.833333
 30
0.0
 11
125.999952
 21
507.5
 31
0.0
  0
LINE
  5
504
100
AcDbEntity
  8
LAY-6
  6
CONTINUOUS
 62
     1
100
AcDbLine
 10
125.999952
 20
507.5
 30
0.0
 11
127.999952
 21
507.166667
 31
0.0
  0
LINE
  5
505
100
AcDbEntity
  8
LAY-6
  6
CONTINUOUS
 62
     1
100
AcDbLine
 10
139.000031
 20
507.166667
 30
0.0
 11
141.000031
 21
507.5
 31
0.0
  0
LINE
  5
506
100
AcDbEntity
  8
LAY-6
  6
CONTINUOUS
 62
     1
100
AcDbLine
 10
141.000031
 20
507.5
 30
0.0
 11
139.000031
 21
507.833333
 31
0.0
  0
LINE
  5
507
100
AcDbEntity
  8
LAY-6
  6
CONTINUOUS
 62
     1
100
AcDbLine
 10
156.000092
 20
497.640197
 30
0.0
 11
156.000092
 21
509.0
 31
0.0
  0
TEXT
  5
508
100
AcDbEntity
  8
LAY-6
  6
CONTINUOUS
 62
     2
100
AcDbText
 10
140.500062
 20
508.0
 30
0.0
 40
5.0
  1
（
 41
0.672
  7
EXCADSTD
 72
     5
 11
143.700062
 21
508.0
 31
0.0
100
AcDbText
  0
TEXT
  5
509
100
AcDbEntity
  8
LAY-6
  6
CONTINUOUS
 62
     2
100
AcDbText
 10
144.500062
 20
508.0
 30
0.0
 40
5.0
  1
１５
 41
0.672
  7
EXCADSTD
 72
     5
 11
151.832862
 21
508.0
 31
0.0
100
AcDbText
  0
TEXT
  5
50A
100
AcDbEntity
  8
LAY-6
  6
CONTINUOUS
 62
     2
100
AcDbText
 10
152.500062
 20
508.0
 30
0.0
 40
5.0
  1
）
 41
0.672
  7
EXCADSTD
 72
     5
 11
155.700062
 21
508.0
 31
0.0
100
AcDbText
  0
LINE
  5
50B
100
AcDbEntity
  8
LAY-6
  6
CONTINUOUS
 62
     1
100
AcDbLine
 10
141.000031
 20
507.5
 30
0.0
 11
156.000092
 21
507.5
 31
0.0
  0
LINE
  5
50C
100
AcDbEntity
  8
LAY-6
  6
CONTINUOUS
 62
     1
100
AcDbLine
 10
143.000031
 20
507.833333
 30
0.0
 11
141.000031
 21
507.5
 31
0.0
  0
LINE
  5
50D
100
AcDbEntity
  8
LAY-6
  6
CONTINUOUS
 62
     1
100
AcDbLine
 10
141.000031
 20
507.5
 30
0.0
 11
143.000031
 21
507.166667
 31
0.0
  0
LINE
  5
50E
100
AcDbEntity
  8
LAY-6
  6
CONTINUOUS
 62
     1
100
AcDbLine
 10
154.000092
 20
507.166667
 30
0.0
 11
156.000092
 21
507.5
 31
0.0
  0
LINE
  5
50F
100
AcDbEntity
  8
LAY-6
  6
CONTINUOUS
 62
     1
100
AcDbLine
 10
156.000092
 20
507.5
 30
0.0
 11
154.000092
 21
507.833333
 31
0.0
  0
LINE
  5
510
100
AcDbEntity
  8
LAY-6
  6
CONTINUOUS
 62
     1
100
AcDbLine
 10
196.000031
 20
487.640197
 30
0.0
 11
196.000031
 21
509.0
 31
0.0
  0
TEXT
  5
511
100
AcDbEntity
  8
LAY-6
  6
CONTINUOUS
 62
     2
100
AcDbText
 10
168.000062
 20
508.0
 30
0.0
 40
5.0
  1
（
 41
0.672
  7
EXCADSTD
 72
     5
 11
171.200062
 21
508.0
 31
0.0
100
AcDbText
  0
TEXT
  5
512
100
AcDbEntity
  8
LAY-6
  6
CONTINUOUS
 62
     2
100
AcDbText
 10
172.000062
 20
508.0
 30
0.0
 40
5.0
  1
４０
 41
0.672
  7
EXCADSTD
 72
     5
 11
179.332862
 21
508.0
 31
0.0
100
AcDbText
  0
TEXT
  5
513
100
AcDbEntity
  8
LAY-6
  6
CONTINUOUS
 62
     2
100
AcDbText
 10
180.000062
 20
508.0
 30
0.0
 40
5.0
  1
）
 41
0.672
  7
EXCADSTD
 72
     5
 11
183.200062
 21
508.0
 31
0.0
100
AcDbText
  0
LINE
  5
514
100
AcDbEntity
  8
LAY-6
  6
CONTINUOUS
 62
     1
100
AcDbLine
 10
156.000092
 20
507.5
 30
0.0
 11
196.000031
 21
507.5
 31
0.0
  0
LINE
  5
515
100
AcDbEntity
  8
LAY-6
  6
CONTINUOUS
 62
     1
100
AcDbLine
 10
158.000092
 20
507.833333
 30
0.0
 11
156.000092
 21
507.5
 31
0.0
  0
LINE
  5
516
100
AcDbEntity
  8
LAY-6
  6
CONTINUOUS
 62
     1
100
AcDbLine
 10
156.000092
 20
507.5
 30
0.0
 11
158.000092
 21
507.166667
 31
0.0
  0
LINE
  5
517
100
AcDbEntity
  8
LAY-6
  6
CONTINUOUS
 62
     1
100
AcDbLine
 10
194.000031
 20
507.166667
 30
0.0
 11
196.000031
 21
507.5
 31
0.0
  0
LINE
  5
518
100
AcDbEntity
  8
LAY-6
  6
CONTINUOUS
 62
     1
100
AcDbLine
 10
196.000031
 20
507.5
 30
0.0
 11
194.000031
 21
507.833333
 31
0.0
  0
LINE
  5
519
100
AcDbEntity
  8
LAY-6
  6
CONTINUOUS
 62
     1
100
AcDbLine
 10
216.000092
 20
497.640197
 30
0.0
 11
216.000092
 21
509.0
 31
0.0
  0
TEXT
  5
51A
100
AcDbEntity
  8
LAY-6
  6
CONTINUOUS
 62
     2
100
AcDbText
 10
198.000062
 20
508.0
 30
0.0
 40
5.0
  1
（
 41
0.672
  7
EXCADSTD
 72
     5
 11
201.200062
 21
508.0
 31
0.0
100
AcDbText
  0
TEXT
  5
51B
100
AcDbEntity
  8
LAY-6
  6
CONTINUOUS
 62
     2
100
AcDbText
 10
202.000062
 20
508.0
 30
0.0
 40
5.0
  1
２０
 41
0.672
  7
EXCADSTD
 72
     5
 11
209.332862
 21
508.0
 31
0.0
100
AcDbText
  0
TEXT
  5
51C
100
AcDbEntity
  8
LAY-6
  6
CONTINUOUS
 62
     2
100
AcDbText
 10
210.000062
 20
508.0
 30
0.0
 40
5.0
  1
）
 41
0.672
  7
EXCADSTD
 72
     5
 11
213.200062
 21
508.0
 31
0.0
100
AcDbText
  0
LINE
  5
51D
100
AcDbEntity
  8
LAY-6
  6
CONTINUOUS
 62
     1
100
AcDbLine
 10
196.000031
 20
507.5
 30
0.0
 11
216.000092
 21
507.5
 31
0.0
  0
LINE
  5
51E
100
AcDbEntity
  8
LAY-6
  6
CONTINUOUS
 62
     1
100
AcDbLine
 10
198.000031
 20
507.833333
 30
0.0
 11
196.000031
 21
507.5
 31
0.0
  0
LINE
  5
51F
100
AcDbEntity
  8
LAY-6
  6
CONTINUOUS
 62
     1
100
AcDbLine
 10
196.000031
 20
507.5
 30
0.0
 11
198.000031
 21
507.166667
 31
0.0
  0
LINE
  5
520
100
AcDbEntity
  8
LAY-6
  6
CONTINUOUS
 62
     1
100
AcDbLine
 10
214.000092
 20
507.166667
 30
0.0
 11
216.000092
 21
507.5
 31
0.0
  0
LINE
  5
521
100
AcDbEntity
  8
LAY-6
  6
CONTINUOUS
 62
     1
100
AcDbLine
 10
216.000092
 20
507.5
 30
0.0
 11
214.000092
 21
507.833333
 31
0.0
  0
LINE
  5
522
100
AcDbEntity
  8
LAY-6
  6
CONTINUOUS
 62
     1
100
AcDbLine
 10
111.999969
 20
510.5
 30
0.0
 11
111.999969
 21
530.1
 31
0.0
  0
LINE
  5
523
100
AcDbEntity
  8
LAY-6
  6
CONTINUOUS
 62
     1
100
AcDbLine
 10
125.999952
 20
483.359707
 30
0.0
 11
125.999952
 21
530.1
 31
0.0
  0
TEXT
  5
524
100
AcDbEntity
  8
LAY-6
  6
CONTINUOUS
 62
     2
100
AcDbText
 10
114.99996
 20
529.1
 30
0.0
 40
5.0
  1
１４
 41
0.672
  7
EXCADSTD
 72
     5
 11
122.33276
 21
529.1
 31
0.0
100
AcDbText
  0
LINE
  5
525
100
AcDbEntity
  8
LAY-6
  6
CONTINUOUS
 62
     1
100
AcDbLine
 10
111.999969
 20
528.6
 30
0.0
 11
125.999952
 21
528.6
 31
0.0
  0
LINE
  5
526
100
AcDbEntity
  8
LAY-6
  6
CONTINUOUS
 62
     1
100
AcDbLine
 10
113.999969
 20
528.933333
 30
0.0
 11
111.999969
 21
528.6
 31
0.0
  0
LINE
  5
527
100
AcDbEntity
  8
LAY-6
  6
CONTINUOUS
 62
     1
100
AcDbLine
 10
111.999969
 20
528.6
 30
0.0
 11
113.999969
 21
528.266667
 31
0.0
  0
LINE
  5
528
100
AcDbEntity
  8
LAY-6
  6
CONTINUOUS
 62
     1
100
AcDbLine
 10
123.999952
 20
528.266667
 30
0.0
 11
125.999952
 21
528.6
 31
0.0
  0
LINE
  5
529
100
AcDbEntity
  8
LAY-6
  6
CONTINUOUS
 62
     1
100
AcDbLine
 10
125.999952
 20
528.6
 30
0.0
 11
123.999952
 21
528.933333
 31
0.0
  0
TEXT
  5
52A
100
AcDbEntity
  8
LAY-6
  6
CONTINUOUS
 62
     2
100
AcDbText
 10
247.1
 20
493.135516
 30
0.0
 40
6.0
  1
上　枠
 41
0.672
  7
EXCADSTD
 72
     5
 11
261.500001
 21
493.135516
 31
0.0
100
AcDbText
  0
TEXT
  5
52B
100
AcDbEntity
  8
LAY-6
  6
CONTINUOUS
 62
     2
100
AcDbText
 10
159.73325
 20
450.497425
 30
0.0
 40
5.0
  1
４５
 50
292.500011
 41
0.672
  7
EXCADSTD
 72
     5
 11
162.539392
 21
443.722802
 31
0.0
100
AcDbText
  0
TEXT
  5
52C
100
AcDbEntity
  8
LAY-6
  6
CONTINUOUS
 62
     2
100
AcDbText
 10
162.794719
 20
443.106389
 30
0.0
 40
5.0
  1
ﾟ
 50
292.500011
 41
0.4
  7
EXCADSTD
 72
     5
 11
163.292207
 21
441.905346
 31
0.0
100
AcDbText
  0
ARC
  5
52D
100
AcDbEntity
  8
LAY-6
  6
CONTINUOUS
 62
     1
100
AcDbCircle
 10
147.455877
 20
440.000006
 30
0.0
 40
14.860004
100
AcDbArc
 50
359.999976
 51
45.000047
  0
LINE
  5
52E
100
AcDbEntity
  8
LAY-6
  6
CONTINUOUS
 62
     1
100
AcDbLine
 10
161.982547
 20
442.0
 30
0.0
 11
162.315881
 21
440.0
 31
0.0
  0
LINE
  5
52F
100
AcDbEntity
  8
LAY-6
  6
CONTINUOUS
 62
     1
100
AcDbLine
 10
162.315881
 20
440.0
 30
0.0
 11
162.649214
 21
442.0
 31
0.0
  0
LINE
  5
530
100
AcDbEntity
  8
LAY-6
  6
CONTINUOUS
 62
     1
100
AcDbLine
 10
159.613394
 20
449.329114
 30
0.0
 11
157.963478
 21
450.507624
 31
0.0
  0
LINE
  5
531
100
AcDbEntity
  8
LAY-6
  6
CONTINUOUS
 62
     1
100
AcDbLine
 10
157.963478
 20
450.507624
 30
0.0
 11
159.14199
 21
448.857709
 31
0.0
  0
LINE
  5
532
100
AcDbEntity
  8
LAY-6
  6
CONTINUOUS
 62
     1
100
AcDbLine
 10
192.939819
 20
440.0
 30
0.0
 11
241.8
 21
440.0
 31
0.0
  0
LINE
  5
533
100
AcDbEntity
  8
LAY-6
  6
CONTINUOUS
 62
     1
100
AcDbLine
 10
172.955826
 20
464.999984
 30
0.0
 11
241.8
 21
464.999984
 31
0.0
  0
TEXT
  5
534
100
AcDbEntity
  8
LAY-6
  6
CONTINUOUS
 62
     2
100
AcDbText
 10
239.8
 20
448.499992
 30
0.0
 40
5.0
  1
２５
 50
90.0
 41
0.672
  7
EXCADSTD
 72
     5
 11
239.8
 21
455.832792
 31
0.0
100
AcDbText
  0
LINE
  5
535
100
AcDbEntity
  8
LAY-6
  6
CONTINUOUS
 62
     1
100
AcDbLine
 10
240.3
 20
440.0
 30
0.0
 11
240.3
 21
464.999984
 31
0.0
  0
LINE
  5
536
100
AcDbEntity
  8
LAY-6
  6
CONTINUOUS
 62
     1
100
AcDbLine
 10
239.966667
 20
442.0
 30
0.0
 11
240.3
 21
440.0
 31
0.0
  0
LINE
  5
537
100
AcDbEntity
  8
LAY-6
  6
CONTINUOUS
 62
     1
100
AcDbLine
 10
240.3
 20
440.0
 30
0.0
 11
240.633333
 21
442.0
 31
0.0
  0
LINE
  5
538
100
AcDbEntity
  8
LAY-6
  6
CONTINUOUS
 62
     1
100
AcDbLine
 10
240.633333
 20
462.999984
 30
0.0
 11
240.3
 21
464.999984
 31
0.0
  0
LINE
  5
539
100
AcDbEntity
  8
LAY-6
  6
CONTINUOUS
 62
     1
100
AcDbLine
 10
240.3
 20
464.999984
 30
0.0
 11
239.966667
 21
462.999984
 31
0.0
  0
LINE
  5
53A
100
AcDbEntity
  8
LAY-6
  6
CONTINUOUS
 62
     1
100
AcDbLine
 10
224.5
 20
473.999938
 30
0.0
 11
241.8
 21
473.999938
 31
0.0
  0
TEXT
  5
53B
100
AcDbEntity
  8
LAY-6
  6
CONTINUOUS
 62
     2
100
AcDbText
 10
239.8
 20
467.499961
 30
0.0
 40
5.0
  1
９
 50
90.0
 41
0.672
  7
EXCADSTD
 72
     5
 11
239.8
 21
470.699961
 31
0.0
100
AcDbText
  0
LINE
  5
53C
100
AcDbEntity
  8
LAY-6
  6
CONTINUOUS
 62
     1
100
AcDbLine
 10
240.3
 20
464.999984
 30
0.0
 11
240.3
 21
473.999938
 31
0.0
  0
LINE
  5
53D
100
AcDbEntity
  8
LAY-6
  6
CONTINUOUS
 62
     1
100
AcDbLine
 10
239.966667
 20
466.999984
 30
0.0
 11
240.3
 21
464.999984
 31
0.0
  0
LINE
  5
53E
100
AcDbEntity
  8
LAY-6
  6
CONTINUOUS
 62
     1
100
AcDbLine
 10
240.3
 20
464.999984
 30
0.0
 11
240.633333
 21
466.999984
 31
0.0
  0
LINE
  5
53F
100
AcDbEntity
  8
LAY-6
  6
CONTINUOUS
 62
     1
100
AcDbLine
 10
240.633333
 20
471.999938
 30
0.0
 11
240.3
 21
473.999938
 31
0.0
  0
LINE
  5
540
100
AcDbEntity
  8
LAY-6
  6
CONTINUOUS
 62
     1
100
AcDbLine
 10
240.3
 20
473.999938
 30
0.0
 11
239.966667
 21
471.999938
 31
0.0
  0
LINE
  5
541
100
AcDbEntity
  8
LAY-6
  6
CONTINUOUS
 62
     1
100
AcDbLine
 10
224.5
 20
501.999938
 30
0.0
 11
241.8
 21
501.999938
 31
0.0
  0
TEXT
  5
542
100
AcDbEntity
  8
LAY-6
  6
CONTINUOUS
 62
     2
100
AcDbText
 10
239.8
 20
483.999938
 30
0.0
 40
5.0
  1
２８
 50
90.0
 41
0.672
  7
EXCADSTD
 72
     5
 11
239.8
 21
491.332738
 31
0.0
100
AcDbText
  0
LINE
  5
543
100
AcDbEntity
  8
LAY-6
  6
CONTINUOUS
 62
     1
100
AcDbLine
 10
240.3
 20
473.999938
 30
0.0
 11
240.3
 21
501.999938
 31
0.0
  0
LINE
  5
544
100
AcDbEntity
  8
LAY-6
  6
CONTINUOUS
 62
     1
100
AcDbLine
 10
239.966667
 20
475.999938
 30
0.0
 11
240.3
 21
473.999938
 31
0.0
  0
LINE
  5
545
100
AcDbEntity
  8
LAY-6
  6
CONTINUOUS
 62
     1
100
AcDbLine
 10
240.3
 20
473.999938
 30
0.0
 11
240.633333
 21
475.999938
 31
0.0
  0
LINE
  5
546
100
AcDbEntity
  8
LAY-6
  6
CONTINUOUS
 62
     1
100
AcDbLine
 10
240.633333
 20
499.999938
 30
0.0
 11
240.3
 21
501.999938
 31
0.0
  0
LINE
  5
547
100
AcDbEntity
  8
LAY-6
  6
CONTINUOUS
 62
     1
100
AcDbLine
 10
240.3
 20
501.999938
 30
0.0
 11
239.966667
 21
499.999938
 31
0.0
  0
LINE
  5
548
100
AcDbEntity
  8
LAY-6
  6
CONTINUOUS
 62
     1
100
AcDbLine
 10
203.070374
 20
482.999969
 30
0.0
 11
210.2
 21
482.999969
 31
0.0
  0
TEXT
  5
549
100
AcDbEntity
  8
LAY-6
  6
CONTINUOUS
 62
     2
100
AcDbText
 10
208.2
 20
474.499954
 30
0.0
 40
5.0
  1
(
 50
90.0
 41
0.4
  7
EXCADSTD
 72
     5
 11
208.2
 21
475.799954
 31
0.0
100
AcDbText
  0
TEXT
  5
54A
100
AcDbEntity
  8
LAY-6
  6
CONTINUOUS
 62
     2
100
AcDbText
 10
208.2
 20
476.499954
 30
0.0
 40
5.0
  1
９
 50
90.0
 41
0.672
  7
EXCADSTD
 72
     5
 11
208.2
 21
479.699953
 31
0.0
100
AcDbText
  0
TEXT
  5
54B
100
AcDbEntity
  8
LAY-6
  6
CONTINUOUS
 62
     2
100
AcDbText
 10
208.2
 20
480.499954
 30
0.0
 40
5.0
  1
)
 50
90.0
 41
0.4
  7
EXCADSTD
 72
     5
 11
208.2
 21
481.799954
 31
0.0
100
AcDbText
  0
LINE
  5
54C
100
AcDbEntity
  8
LAY-6
  6
CONTINUOUS
 62
     1
100
AcDbLine
 10
208.7
 20
473.999938
 30
0.0
 11
208.7
 21
482.999969
 31
0.0
  0
LINE
  5
54D
100
AcDbEntity
  8
LAY-6
  6
CONTINUOUS
 62
     1
100
AcDbLine
 10
208.366667
 20
475.999938
 30
0.0
 11
208.7
 21
473.999938
 31
0.0
  0
LINE
  5
54E
100
AcDbEntity
  8
LAY-6
  6
CONTINUOUS
 62
     1
100
AcDbLine
 10
208.7
 20
473.999938
 30
0.0
 11
209.033333
 21
475.999938
 31
0.0
  0
LINE
  5
54F
100
AcDbEntity
  8
LAY-6
  6
CONTINUOUS
 62
     1
100
AcDbLine
 10
209.033333
 20
480.999969
 30
0.0
 11
208.7
 21
482.999969
 31
0.0
  0
LINE
  5
550
100
AcDbEntity
  8
LAY-6
  6
CONTINUOUS
 62
     1
100
AcDbLine
 10
208.7
 20
482.999969
 30
0.0
 11
208.366667
 21
480.999969
 31
0.0
  0
LINE
  5
551
100
AcDbEntity
  8
LAY-6
  6
CONTINUOUS
 62
     1
100
AcDbLine
 10
210.070435
 20
492.999969
 30
0.0
 11
207.2
 21
492.999969
 31
0.0
  0
TEXT
  5
552
100
AcDbEntity
  8
LAY-6
  6
CONTINUOUS
 62
     2
100
AcDbText
 10
208.2
 20
482.629969
 30
0.0
 40
5.0
  1
(
 50
90.0
 41
0.4
  7
EXCADSTD
 72
     5
 11
208.2
 21
483.929969
 31
0.0
100
AcDbText
  0
TEXT
  5
553
100
AcDbEntity
  8
LAY-6
  6
CONTINUOUS
 62
     2
100
AcDbText
 10
208.2
 20
484.629969
 30
0.0
 40
5.0
  1
１０
 50
90.0
 41
0.672
  7
EXCADSTD
 72
     5
 11
208.2
 21
491.962769
 31
0.0
100
AcDbText
  0
TEXT
  5
554
100
AcDbEntity
  8
LAY-6
  6
CONTINUOUS
 62
     2
100
AcDbText
 10
208.2
 20
492.629969
 30
0.0
 40
5.0
  1
)
 50
90.0
 41
0.4
  7
EXCADSTD
 72
     5
 11
208.2
 21
493.929969
 31
0.0
100
AcDbText
  0
LINE
  5
555
100
AcDbEntity
  8
LAY-6
  6
CONTINUOUS
 62
     1
100
AcDbLine
 10
208.7
 20
482.999969
 30
0.0
 11
208.7
 21
492.999969
 31
0.0
  0
LINE
  5
556
100
AcDbEntity
  8
LAY-6
  6
CONTINUOUS
 62
     1
100
AcDbLine
 10
208.366667
 20
484.999969
 30
0.0
 11
208.7
 21
482.999969
 31
0.0
  0
LINE
  5
557
100
AcDbEntity
  8
LAY-6
  6
CONTINUOUS
 62
     1
100
AcDbLine
 10
208.7
 20
482.999969
 30
0.0
 11
209.033333
 21
484.999969
 31
0.0
  0
LINE
  5
558
100
AcDbEntity
  8
LAY-6
  6
CONTINUOUS
 62
     1
100
AcDbLine
 10
209.033333
 20
490.999969
 30
0.0
 11
208.7
 21
492.999969
 31
0.0
  0
LINE
  5
559
100
AcDbEntity
  8
LAY-6
  6
CONTINUOUS
 62
     1
100
AcDbLine
 10
208.7
 20
492.999969
 30
0.0
 11
208.366667
 21
490.999969
 31
0.0
  0
TEXT
  5
55A
100
AcDbEntity
  8
LAY-6
  6
CONTINUOUS
 62
     2
100
AcDbText
 10
232.5
 20
522.4
 30
0.0
 40
5.0
  1
４－Ｍ６×２０皿小ネジ(P=1.0)(別途)
 41
0.576198
  7
EXCADSTD
 72
     5
 11
302.5
 21
522.4
 31
0.0
100
AcDbText
  0
POLYLINE
  5
55B
100
AcDbEntity
  8
LAY-6
  6
CONTINUOUS
 62
     1
100
AcDb2dPolyline
 66
     1
 10
0.0
 20
0.0
 30
0.0
 70
   128
  0
VERTEX
  5
55C
100
AcDbEntity
  8
LAY-6
  6
CONTINUOUS
 62
     1
100
AcDbVertex
100
AcDb2dVertex
 10
216.000092
 20
492.999969
 30
0.0
  0
VERTEX
  5
55D
100
AcDbEntity
  8
LAY-6
  6
CONTINUOUS
 62
     1
100
AcDbVertex
100
AcDb2dVertex
 10
231.8
 20
521.9
 30
0.0
  0
VERTEX
  5
55E
100
AcDbEntity
  8
LAY-6
  6
CONTINUOUS
 62
     1
100
AcDbVertex
100
AcDb2dVertex
 10
303.2
 20
521.9
 30
0.0
  0
SEQEND
  5
55F
100
AcDbEntity
  8
LAY-6
  6
CONTINUOUS
 62
     1
  0
LINE
  5
560
100
AcDbEntity
  8
LAY-6
  6
CONTINUOUS
 62
     1
100
AcDbLine
 10
216.667015
 20
494.914734
 30
0.0
 11
216.000092
 21
492.999969
 31
0.0
  0
LINE
  5
561
100
AcDbEntity
  8
LAY-6
  6
CONTINUOUS
 62
     1
100
AcDbLine
 10
216.000092
 20
492.999969
 30
0.0
 11
217.25197
 21
494.594934
 31
0.0
  0
TEXT
  5
562
100
AcDbEntity
  8
LAY-6
  6
CONTINUOUS
 62
     2
100
AcDbText
 10
231.549164
 20
516.48396
 30
0.0
 40
5.0
  1
（タップ穴加工付はオプション）
 41
0.672
  7
EXCADSTD
 72
     5
 11
291.549164
 21
516.48396
 31
0.0
100
AcDbText
  0
TEXT
  5
563
100
AcDbEntity
  8
LAY-6
  6
CONTINUOUS
 62
     2
100
AcDbText
 10
139.0
 20
68.0
 30
0.0
 40
9.0
  1
■タップ型(①タ ップ穴加工付)は品番の後にＴＡＰを付けて下さい。(オプション)　発注例：ＴＯ－１２０ ＴＡＰ
 41
0.652192
  7
EXCADSTD
 72
     5
 11
509.79999
 21
68.0
 31
0.0
100
AcDbText
  0
TEXT
  5
564
100
AcDbEntity
  8
LAY-6
  6
CONTINUOUS
 62
     2
100
AcDbText
 10
139.0
 20
59.0
 30
0.0
 40
9.0
  1
　タップ穴は（　）内寸法をご参照下さい。
 41
0.672
  7
EXCADSTD
 72
     5
 11
282.999996
 21
59.0
 31
0.0
100
AcDbText
  0
TEXT
  5
565
100
AcDbEntity
  8
LAY-6
  6
CONTINUOUS
 62
     2
100
AcDbText
 10
139.0
 20
50.0
 30
0.0
 40
9.0
  1
■①カバー３㎜伸ばしは品番の後に①Ｔを付けて下さい。(オプション)　発注例：ＴＯ－１２０①Ｔ
 41
0.662836
  7
EXCADSTD
 72
     5
 11
462.999991
 21
50.0
 31
0.0
100
AcDbText
  0
LINE
  5
566
100
AcDbEntity
  8
LAY-6
  6
CONTINUOUS
 62
     1
100
AcDbLine
 10
115.000061
 20
341.900055
 30
0.0
 11
115.000061
 21
375.8
 31
0.0
  0
LINE
  5
567
100
AcDbEntity
  8
LAY-6
  6
CONTINUOUS
 62
     1
100
AcDbLine
 10
129.000031
 20
329.500031
 30
0.0
 11
129.000031
 21
375.8
 31
0.0
  0
LINE
  5
568
100
AcDbEntity
  8
LAY-6
  6
CONTINUOUS
 62
     1
100
AcDbLine
 10
115.000061
 20
374.3
 30
0.0
 11
129.000031
 21
374.3
 31
0.0
  0
LINE
  5
569
100
AcDbEntity
  8
LAY-6
  6
CONTINUOUS
 62
     1
100
AcDbLine
 10
117.000061
 20
374.633333
 30
0.0
 11
115.000061
 21
374.3
 31
0.0
  0
LINE
  5
56A
100
AcDbEntity
  8
LAY-6
  6
CONTINUOUS
 62
     1
100
AcDbLine
 10
115.000061
 20
374.3
 30
0.0
 11
117.000061
 21
373.966667
 31
0.0
  0
LINE
  5
56B
100
AcDbEntity
  8
LAY-6
  6
CONTINUOUS
 62
     1
100
AcDbLine
 10
127.000031
 20
373.966667
 30
0.0
 11
129.000031
 21
374.3
 31
0.0
  0
LINE
  5
56C
100
AcDbEntity
  8
LAY-6
  6
CONTINUOUS
 62
     1
100
AcDbLine
 10
129.000031
 20
374.3
 30
0.0
 11
127.000031
 21
374.633333
 31
0.0
  0
TEXT
  5
56D
100
AcDbEntity
  8
LAY-6
  6
CONTINUOUS
 62
     2
100
AcDbText
 10
118.000046
 20
374.8
 30
0.0
 40
5.0
  1
１４
 41
0.672
  7
EXCADSTD
 72
     5
 11
125.332846
 21
374.8
 31
0.0
100
AcDbText
  0
LINE
  5
56E
100
AcDbEntity
  8
LAY-9
  6
CONTINUOUS
 62
     1
100
AcDbLine
 10
122.999977
 20
140.5
 30
0.0
 11
122.999977
 21
144.204987
 31
0.0
  0
LINE
  5
56F
100
AcDbEntity
  8
LAY-9
  6
CONTINUOUS
 62
     1
100
AcDbLine
 10
632.993713
 20
503.954437
 30
0.0
 11
632.993713
 21
520.969269
 31
0.0
  0
LINE
  5
570
100
AcDbEntity
  8
LAY-9
  6
CONTINUOUS
 62
     1
100
AcDbLine
 10
636.000061
 20
467.954407
 30
0.0
 11
636.000061
 21
450.621033
 31
0.0
  0
LINE
  5
571
100
AcDbEntity
  8
LAY-9
  6
CONTINUOUS
 62
     1
100
AcDbLine
 10
636.000061
 20
467.954407
 30
0.0
 11
636.000061
 21
450.621033
 31
0.0
  0
LINE
  5
572
100
AcDbEntity
  8
LAY-9
  6
CONTINUOUS
 62
     1
100
AcDbLine
 10
636.0
 20
345.666718
 30
0.0
 11
636.0
 21
356.337738
 31
0.0
  0
LINE
  5
573
100
AcDbEntity
  8
LAY-9
  6
CONTINUOUS
 62
     1
100
AcDbLine
 10
636.0
 20
344.86673
 30
0.0
 11
636.0
 21
356.337738
 31
0.0
  0
LINE
  5
574
100
AcDbEntity
  8
LAY-9
  6
CONTINUOUS
 62
     1
100
AcDbLine
 10
640.741745
 20
489.054443
 30
0.0
 11
645.641701
 21
493.954399
 31
0.0
  0
LINE
  5
575
100
AcDbEntity
  8
LAY-9
  6
CONTINUOUS
 62
     1
100
AcDbLine
 10
643.570172
 20
489.054443
 30
0.0
 11
648.470126
 21
493.954397
 31
0.0
  0
LINE
  5
576
100
AcDbEntity
  8
LAY-9
  6
CONTINUOUS
 62
     1
100
AcDbLine
 10
666.197589
 20
489.054443
 30
0.0
 11
671.097527
 21
493.954381
 31
0.0
  0
LINE
  5
577
100
AcDbEntity
  8
LAY-9
  6
CONTINUOUS
 62
     1
100
AcDbLine
 10
669.026016
 20
489.054443
 30
0.0
 11
673.925952
 21
493.954379
 31
0.0
  0
LINE
  5
578
100
AcDbEntity
  8
LAY-9
  6
CONTINUOUS
 62
     1
100
AcDbLine
 10
639.900067
 20
472.484338
 30
0.0
 11
643.870136
 21
476.454407
 31
0.0
  0
LINE
  5
579
100
AcDbEntity
  8
LAY-9
  6
CONTINUOUS
 62
     1
100
AcDbLine
 10
667.654407
 20
471.954407
 30
0.0
 11
672.154407
 21
476.454407
 31
0.0
  0
LINE
  5
57A
100
AcDbEntity
  8
LAY-9
  6
CONTINUOUS
 62
     1
100
AcDbLine
 10
664.82598
 20
471.954407
 30
0.0
 11
669.32598
 21
476.454407
 31
0.0
  0
LINE
  5
57B
100
AcDbEntity
  8
LAY-9
  6
CONTINUOUS
 62
     1
100
AcDbLine
 10
642.198563
 20
471.954407
 30
0.0
 11
646.698563
 21
476.454407
 31
0.0
  0
LINE
  5
57C
100
AcDbEntity
  8
LAY-9
  6
CONTINUOUS
 62
     1
100
AcDbLine
 10
665.366773
 20
337.166773
 30
0.0
 11
669.866781
 21
341.666781
 31
0.0
  0
LINE
  5
57D
100
AcDbEntity
  8
LAY-9
  6
CONTINUOUS
 62
     1
100
AcDbLine
 10
662.538343
 20
337.16677
 30
0.0
 11
667.038351
 21
341.666779
 31
0.0
  0
LINE
  5
57E
100
AcDbEntity
  8
LAY-9
  6
CONTINUOUS
 62
     1
100
AcDbLine
 10
642.739334
 20
337.166751
 30
0.0
 11
647.239342
 21
341.666759
 31
0.0
  0
LINE
  5
57F
100
AcDbEntity
  8
LAY-9
  6
CONTINUOUS
 62
     1
100
AcDbLine
 10
645.567764
 20
337.166753
 30
0.0
 11
650.067772
 21
341.666762
 31
0.0
  0
LINE
  5
580
100
AcDbEntity
  8
LAY-9
  6
CONTINUOUS
 62
     1
100
AcDbLine
 10
536.499969
 20
175.235819
 30
0.0
 11
539.423771
 21
176.299996
 31
0.0
  0
LINE
  5
581
100
AcDbEntity
  8
LAY-9
  6
CONTINUOUS
 62
     1
100
AcDbLine
 10
537.951615
 20
174.699998
 30
0.0
 11
542.347574
 21
176.299996
 31
0.0
  0
LINE
  5
582
100
AcDbEntity
  8
LAY-9
  6
CONTINUOUS
 62
     1
100
AcDbLine
 10
540.875415
 20
174.699996
 30
0.0
 11
545.271376
 21
176.299995
 31
0.0
  0
LINE
  5
583
100
AcDbEntity
  8
LAY-9
  6
CONTINUOUS
 62
     1
100
AcDbLine
 10
543.799216
 20
174.699995
 30
0.0
 11
548.195179
 21
176.299994
 31
0.0
  0
LINE
  5
584
100
AcDbEntity
  8
LAY-9
  6
CONTINUOUS
 62
     1
100
AcDbLine
 10
546.723016
 20
174.699993
 30
0.0
 11
551.118981
 21
176.299993
 31
0.0
  0
LINE
  5
585
100
AcDbEntity
  8
LAY-9
  6
CONTINUOUS
 62
     1
100
AcDbLine
 10
549.646817
 20
174.699992
 30
0.0
 11
554.042783
 21
176.299993
 31
0.0
  0
LINE
  5
586
100
AcDbEntity
  8
LAY-9
  6
CONTINUOUS
 62
     1
100
AcDbLine
 10
552.570617
 20
174.69999
 30
0.0
 11
556.490555
 21
176.126731
 31
0.0
  0
LINE
  5
587
100
AcDbEntity
  8
LAY-9
  6
CONTINUOUS
 62
     1
100
AcDbLine
 10
116.600006
 20
180.0
 30
0.0
 11
343.75824
 21
180.0
 31
0.0
  0
LINE
  5
588
100
AcDbEntity
  8
LAY-9
  6
CONTINUOUS
 62
     1
100
AcDbLine
 10
116.600002
 20
178.399963
 30
0.0
 11
343.002379
 21
178.399963
 31
0.0
  0
ARC
  5
589
100
AcDbEntity
  8
LAY-9
  6
CONTINUOUS
 62
     1
100
AcDbCircle
 10
116.600006
 20
178.399994
 30
0.0
 40
1.6
100
AcDbArc
 50
89.999981
 51
180.00002
  0
LINE
  5
58A
100
AcDbEntity
  8
LAY-9
  6
CONTINUOUS
 62
     1
100
AcDbLine
 10
118.899998
 20
176.099945
 30
0.0
 11
131.599998
 21
176.099945
 31
0.0
  0
ARC
  5
58B
100
AcDbEntity
  8
LAY-9
  6
CONTINUOUS
 62
     1
100
AcDbCircle
 10
118.900002
 20
176.099976
 30
0.0
 40
2.3
100
AcDbArc
 50
89.999981
 51
180.00002
  0
LINE
  5
58C
100
AcDbEntity
  8
LAY-9
  6
CONTINUOUS
 62
     1
100
AcDbLine
 10
131.599998
 20
176.099945
 30
0.0
 11
131.599998
 21
178.399933
 31
0.0
  0
POLYLINE
  5
58D
100
AcDbEntity
  8
LAY-9
  6
CONTINUOUS
 62
     1
100
AcDb2dPolyline
 66
     1
 10
0.0
 20
0.0
 30
0.0
 70
   128
  0
VERTEX
  5
58E
100
AcDbEntity
  8
LAY-9
  6
CONTINUOUS
 62
     1
100
AcDbVertex
100
AcDb2dVertex
 10
343.75824
 20
180.0
 30
0.0
  0
VERTEX
  5
58F
100
AcDbEntity
  8
LAY-9
  6
CONTINUOUS
 62
     1
100
AcDbVertex
100
AcDb2dVertex
 10
343.694626
 20
179.832261
 30
0.0
  0
VERTEX
  5
590
100
AcDbEntity
  8
LAY-9
  6
CONTINUOUS
 62
     1
100
AcDbVertex
100
AcDb2dVertex
 10
343.520111
 20
179.35647
 30
0.0
  0
VERTEX
  5
591
100
AcDbEntity
  8
LAY-9
  6
CONTINUOUS
 62
     1
100
AcDbVertex
100
AcDb2dVertex
 10
343.259186
 20
178.613767
 30
0.0
  0
VERTEX
  5
592
100
AcDbEntity
  8
LAY-9
  6
CONTINUOUS
 62
     1
100
AcDbVertex
100
AcDb2dVertex
 10
342.936343
 20
177.64529
 30
0.0
  0
VERTEX
  5
593
100
AcDbEntity
  8
LAY-9
  6
CONTINUOUS
 62
     1
100
AcDbVertex
100
AcDb2dVertex
 10
342.576073
 20
176.49218
 30
0.0
  0
VERTEX
  5
594
100
AcDbEntity
  8
LAY-9
  6
CONTINUOUS
 62
     1
100
AcDbVertex
100
AcDb2dVertex
 10
342.202868
 20
175.195574
 30
0.0
  0
VERTEX
  5
595
100
AcDbEntity
  8
LAY-9
  6
CONTINUOUS
 62
     1
100
AcDbVertex
100
AcDb2dVertex
 10
341.841218
 20
173.796614
 30
0.0
  0
VERTEX
  5
596
100
AcDbEntity
  8
LAY-9
  6
CONTINUOUS
 62
     1
100
AcDbVertex
100
AcDb2dVertex
 10
341.515615
 20
172.336436
 30
0.0
  0
VERTEX
  5
597
100
AcDbEntity
  8
LAY-9
  6
CONTINUOUS
 62
     1
100
AcDbVertex
100
AcDb2dVertex
 10
341.25055
 20
170.856182
 30
0.0
  0
VERTEX
  5
598
100
AcDbEntity
  8
LAY-9
  6
CONTINUOUS
 62
     1
100
AcDbVertex
100
AcDb2dVertex
 10
341.070515
 20
169.39699
 30
0.0
  0
VERTEX
  5
599
100
AcDbEntity
  8
LAY-9
  6
CONTINUOUS
 62
     1
100
AcDbVertex
100
AcDb2dVertex
 10
341.0
 20
168.0
 30
0.0
  0
VERTEX
  5
59A
100
AcDbEntity
  8
LAY-9
  6
CONTINUOUS
 62
     1
100
AcDbVertex
100
AcDb2dVertex
 10
341.031375
 20
167.004146
 30
0.0
  0
VERTEX
  5
59B
100
AcDbEntity
  8
LAY-9
  6
CONTINUOUS
 62
     1
100
AcDbVertex
100
AcDb2dVertex
 10
341.131619
 20
166.062132
 30
0.0
  0
VERTEX
  5
59C
100
AcDbEntity
  8
LAY-9
  6
CONTINUOUS
 62
     1
100
AcDbVertex
100
AcDb2dVertex
 10
341.292654
 20
165.168463
 30
0.0
  0
VERTEX
  5
59D
100
AcDbEntity
  8
LAY-9
  6
CONTINUOUS
 62
     1
100
AcDbVertex
100
AcDb2dVertex
 10
341.5064
 20
164.317642
 30
0.0
  0
VERTEX
  5
59E
100
AcDbEntity
  8
LAY-9
  6
CONTINUOUS
 62
     1
100
AcDbVertex
100
AcDb2dVertex
 10
341.764781
 20
163.504174
 30
0.0
  0
VERTEX
  5
59F
100
AcDbEntity
  8
LAY-9
  6
CONTINUOUS
 62
     1
100
AcDbVertex
100
AcDb2dVertex
 10
342.059718
 20
162.722562
 30
0.0
  0
VERTEX
  5
5A0
100
AcDbEntity
  8
LAY-9
  6
CONTINUOUS
 62
     1
100
AcDbVertex
100
AcDb2dVertex
 10
342.383132
 20
161.967311
 30
0.0
  0
VERTEX
  5
5A1
100
AcDbEntity
  8
LAY-9
  6
CONTINUOUS
 62
     1
100
AcDbVertex
100
AcDb2dVertex
 10
342.726945
 20
161.232926
 30
0.0
  0
VERTEX
  5
5A2
100
AcDbEntity
  8
LAY-9
  6
CONTINUOUS
 62
     1
100
AcDbVertex
100
AcDb2dVertex
 10
343.08308
 20
160.513909
 30
0.0
  0
VERTEX
  5
5A3
100
AcDbEntity
  8
LAY-9
  6
CONTINUOUS
 62
     1
100
AcDbVertex
100
AcDb2dVertex
 10
343.443458
 20
159.804766
 30
0.0
  0
VERTEX
  5
5A4
100
AcDbEntity
  8
LAY-9
  6
CONTINUOUS
 62
     1
100
AcDbVertex
100
AcDb2dVertex
 10
343.8
 20
159.1
 30
0.0
  0
VERTEX
  5
5A5
100
AcDbEntity
  8
LAY-9
  6
CONTINUOUS
 62
     1
100
AcDbVertex
100
AcDb2dVertex
 10
344.180864
 20
158.31938
 30
0.0
  0
VERTEX
  5
5A6
100
AcDbEntity
  8
LAY-9
  6
CONTINUOUS
 62
     1
100
AcDbVertex
100
AcDb2dVertex
 10
344.541307
 20
157.530856
 30
0.0
  0
VERTEX
  5
5A7
100
AcDbEntity
  8
LAY-9
  6
CONTINUOUS
 62
     1
100
AcDbVertex
100
AcDb2dVertex
 10
344.875472
 20
156.727893
 30
0.0
  0
VERTEX
  5
5A8
100
AcDbEntity
  8
LAY-9
  6
CONTINUOUS
 62
     1
100
AcDbVertex
100
AcDb2dVertex
 10
345.177504
 20
155.903953
 30
0.0
  0
VERTEX
  5
5A9
100
AcDbEntity
  8
LAY-9
  6
CONTINUOUS
 62
     1
100
AcDbVertex
100
AcDb2dVertex
 10
345.441544
 20
155.052501
 30
0.0
  0
VERTEX
  5
5AA
100
AcDbEntity
  8
LAY-9
  6
CONTINUOUS
 62
     1
100
AcDbVertex
100
AcDb2dVertex
 10
345.661736
 20
154.167001
 30
0.0
  0
VERTEX
  5
5AB
100
AcDbEntity
  8
LAY-9
  6
CONTINUOUS
 62
     1
100
AcDbVertex
100
AcDb2dVertex
 10
345.832224
 20
153.240915
 30
0.0
  0
VERTEX
  5
5AC
100
AcDbEntity
  8
LAY-9
  6
CONTINUOUS
 62
     1
100
AcDbVertex
100
AcDb2dVertex
 10
345.947151
 20
152.267709
 30
0.0
  0
VERTEX
  5
5AD
100
AcDbEntity
  8
LAY-9
  6
CONTINUOUS
 62
     1
100
AcDbVertex
100
AcDb2dVertex
 10
346.000661
 20
151.240845
 30
0.0
  0
VERTEX
  5
5AE
100
AcDbEntity
  8
LAY-9
  6
CONTINUOUS
 62
     1
100
AcDbVertex
100
AcDb2dVertex
 10
345.986896
 20
150.153787
 30
0.0
  0
VERTEX
  5
5AF
100
AcDbEntity
  8
LAY-9
  6
CONTINUOUS
 62
     1
100
AcDbVertex
100
AcDb2dVertex
 10
345.9
 20
149.0
 30
0.0
  0
VERTEX
  5
5B0
100
AcDbEntity
  8
LAY-9
  6
CONTINUOUS
 62
     1
100
AcDbVertex
100
AcDb2dVertex
 10
345.758169
 20
147.909765
 30
0.0
  0
VERTEX
  5
5B1
100
AcDbEntity
  8
LAY-9
  6
CONTINUOUS
 62
     1
100
AcDbVertex
100
AcDb2dVertex
 10
345.566322
 20
146.789026
 30
0.0
  0
VERTEX
  5
5B2
100
AcDbEntity
  8
LAY-9
  6
CONTINUOUS
 62
     1
100
AcDbVertex
100
AcDb2dVertex
 10
345.337842
 20
145.666088
 30
0.0
  0
VERTEX
  5
5B3
100
AcDbEntity
  8
LAY-9
  6
CONTINUOUS
 62
     1
100
AcDbVertex
100
AcDb2dVertex
 10
345.086116
 20
144.569255
 30
0.0
  0
VERTEX
  5
5B4
100
AcDbEntity
  8
LAY-9
  6
CONTINUOUS
 62
     1
100
AcDbVertex
100
AcDb2dVertex
 10
344.824526
 20
143.526833
 30
0.0
  0
VERTEX
  5
5B5
100
AcDbEntity
  8
LAY-9
  6
CONTINUOUS
 62
     1
100
AcDbVertex
100
AcDb2dVertex
 10
344.566459
 20
142.567127
 30
0.0
  0
VERTEX
  5
5B6
100
AcDbEntity
  8
LAY-9
  6
CONTINUOUS
 62
     1
100
AcDbVertex
100
AcDb2dVertex
 10
344.325299
 20
141.718441
 30
0.0
  0
VERTEX
  5
5B7
100
AcDbEntity
  8
LAY-9
  6
CONTINUOUS
 62
     1
100
AcDbVertex
100
AcDb2dVertex
 10
344.114431
 20
141.00908
 30
0.0
  0
VERTEX
  5
5B8
100
AcDbEntity
  8
LAY-9
  6
CONTINUOUS
 62
     1
100
AcDbVertex
100
AcDb2dVertex
 10
343.947239
 20
140.46735
 30
0.0
  0
VERTEX
  5
5B9
100
AcDbEntity
  8
LAY-9
  6
CONTINUOUS
 62
     1
100
AcDbVertex
100
AcDb2dVertex
 10
343.837109
 20
140.121555
 30
0.0
  0
VERTEX
  5
5BA
100
AcDbEntity
  8
LAY-9
  6
CONTINUOUS
 62
     1
100
AcDbVertex
100
AcDb2dVertex
 10
343.797424
 20
140.0
 30
0.0
  0
SEQEND
  5
5BB
100
AcDbEntity
  8
LAY-9
  6
CONTINUOUS
 62
     1
  0
LINE
  5
5BC
100
AcDbEntity
  8
LAY-9
  6
CONTINUOUS
 62
     1
100
AcDbLine
 10
181.035767
 20
141.600006
 30
0.0
 11
344.324166
 21
141.600006
 31
0.0
  0
LINE
  5
5BD
100
AcDbEntity
  8
LAY-9
  6
CONTINUOUS
 62
     1
100
AcDbLine
 10
116.600006
 20
140.0
 30
0.0
 11
343.797424
 21
140.0
 31
0.0
  0
LINE
  5
5BE
100
AcDbEntity
  8
LAY-9
  6
CONTINUOUS
 62
     1
100
AcDbLine
 10
181.035767
 20
141.600006
 30
0.0
 11
174.999962
 21
141.600006
 31
0.0
  0
LINE
  5
5BF
100
AcDbEntity
  8
LAY-9
  6
CONTINUOUS
 62
     1
100
AcDbLine
 10
116.600002
 20
141.600006
 30
0.0
 11
122.999977
 21
141.600006
 31
0.0
  0
ARC
  5
5C0
100
AcDbEntity
  8
LAY-9
  6
CONTINUOUS
 62
     1
100
AcDbCircle
 10
116.600006
 20
141.600006
 30
0.0
 40
1.6
100
AcDbArc
 50
180.00002
 51
270.0
  0
LINE
  5
5C1
100
AcDbEntity
  8
LAY-9
  6
CONTINUOUS
 62
     1
100
AcDbLine
 10
118.900002
 20
143.899994
 30
0.0
 11
122.999981
 21
143.899994
 31
0.0
  0
ARC
  5
5C2
100
AcDbEntity
  8
LAY-9
  6
CONTINUOUS
 62
     1
100
AcDbCircle
 10
118.900002
 20
143.899994
 30
0.0
 40
2.3
100
AcDbArc
 50
180.00002
 51
270.0
  0
LINE
  5
5C3
100
AcDbEntity
  8
LAY-9
  6
CONTINUOUS
 62
     1
100
AcDbLine
 10
115.000008
 20
141.600006
 30
0.0
 11
115.000008
 21
178.399994
 31
0.0
  0
LINE
  5
5C4
100
AcDbEntity
  8
LAY-9
  6
CONTINUOUS
 62
     1
100
AcDbLine
 10
116.600002
 20
178.399963
 30
0.0
 11
116.600002
 21
141.600006
 31
0.0
  0
LINE
  5
5C5
100
AcDbEntity
  8
LAY-9
  6
CONTINUOUS
 62
     1
100
AcDbLine
 10
118.899998
 20
176.099945
 30
0.0
 11
118.899998
 21
143.900024
 31
0.0
  0
LINE
  5
5C6
100
AcDbEntity
  8
LAY-9
  6
CONTINUOUS
 62
     1
100
AcDbLine
 10
533.099976
 20
189.7
 30
0.0
 11
533.099991
 21
176.299998
 31
0.0
  0
LINE
  5
5C7
100
AcDbEntity
  8
LAY-9
  6
CONTINUOUS
 62
     1
100
AcDbLine
 10
531.499969
 20
189.7
 30
0.0
 11
531.499985
 21
176.299998
 31
0.0
  0
ARC
  5
5C8
100
AcDbEntity
  8
LAY-9
  6
CONTINUOUS
 62
     1
100
AcDbCircle
 10
533.099976
 20
176.299998
 30
0.0
 40
1.6
100
AcDbArc
 50
180.000077
 51
270.0
  0
ARC
  5
5C9
100
AcDbEntity
  8
LAY-9
  6
CONTINUOUS
 62
     1
100
AcDbCircle
 10
554.899963
 20
176.299983
 30
0.0
 40
1.6
100
AcDbArc
 50
270.0
 51
0.0
  0
ARC
  5
5CA
100
AcDbEntity
  8
LAY-9
  6
CONTINUOUS
 62
     1
100
AcDbCircle
 10
556.5
 20
219.7
 30
0.0
 40
1.6
100
AcDbArc
 50
89.999981
 51
179.999905
  0
LINE
  5
5CB
100
AcDbEntity
  8
LAY-9
  6
CONTINUOUS
 62
     1
100
AcDbLine
 10
531.499969
 20
189.7
 30
0.0
 11
533.09996
 21
189.7
 31
0.0
  0
LINE
  5
5CC
100
AcDbEntity
  8
LAY-9
  6
CONTINUOUS
 62
     1
100
AcDbLine
 10
556.5
 20
221.300006
 30
0.0
 11
569.899963
 21
221.300006
 31
0.0
  0
LINE
  5
5CD
100
AcDbEntity
  8
LAY-9
  6
CONTINUOUS
 62
     1
100
AcDbLine
 10
556.499969
 20
219.7
 30
0.0
 11
569.899963
 21
219.7
 31
0.0
  0
ARC
  5
5CE
100
AcDbEntity
  8
LAY-9
  6
CONTINUOUS
 62
     1
100
AcDbCircle
 10
569.899963
 20
221.300006
 30
0.0
 40
1.6
100
AcDbArc
 50
270.0
 51
0.0
  0
LINE
  5
5CF
100
AcDbEntity
  8
LAY-9
  6
CONTINUOUS
 62
     1
100
AcDbLine
 10
569.899963
 20
221.300006
 30
0.0
 11
569.899963
 21
234.7
 31
0.0
  0
LINE
  5
5D0
100
AcDbEntity
  8
LAY-9
  6
CONTINUOUS
 62
     1
100
AcDbLine
 10
571.499969
 20
221.300006
 30
0.0
 11
571.499969
 21
234.7
 31
0.0
  0
LINE
  5
5D1
100
AcDbEntity
  8
LAY-9
  6
CONTINUOUS
 62
     1
100
AcDbLine
 10
116.600067
 20
343.000062
 30
0.0
 11
264.039856
 21
343.000062
 31
0.0
  0
LINE
  5
5D2
100
AcDbEntity
  8
LAY-9
  6
CONTINUOUS
 62
     1
100
AcDbLine
 10
116.600067
 20
341.400055
 30
0.0
 11
263.284008
 21
341.400055
 31
0.0
  0
ARC
  5
5D3
100
AcDbEntity
  8
LAY-9
  6
CONTINUOUS
 62
     1
100
AcDbCircle
 10
116.600067
 20
341.400055
 30
0.0
 40
1.6
100
AcDbArc
 50
89.999981
 51
180.00002
  0
LINE
  5
5D4
100
AcDbEntity
  8
LAY-9
  6
CONTINUOUS
 62
     1
100
AcDbLine
 10
118.900085
 20
339.100068
 30
0.0
 11
131.600098
 21
339.100068
 31
0.0
  0
LINE
  5
5D5
100
AcDbEntity
  8
LAY-9
  6
CONTINUOUS
 62
     1
100
AcDbLine
 10
131.600098
 20
339.100068
 30
0.0
 11
131.600098
 21
341.400055
 31
0.0
  0
ARC
  5
5D6
100
AcDbEntity
  8
LAY-9
  6
CONTINUOUS
 62
     1
100
AcDbCircle
 10
118.900055
 20
339.100068
 30
0.0
 40
2.3
100
AcDbArc
 50
89.999981
 51
180.00002
  0
LINE
  5
5D7
100
AcDbEntity
  8
LAY-9
  6
CONTINUOUS
 62
     1
100
AcDbLine
 10
115.000061
 20
304.600068
 30
0.0
 11
115.000061
 21
341.400055
 31
0.0
  0
LINE
  5
5D8
100
AcDbEntity
  8
LAY-9
  6
CONTINUOUS
 62
     1
100
AcDbLine
 10
116.600067
 20
304.600068
 30
0.0
 11
116.600067
 21
341.400055
 31
0.0
  0
LINE
  5
5D9
100
AcDbEntity
  8
LAY-9
  6
CONTINUOUS
 62
     1
100
AcDbLine
 10
116.600067
 20
339.100068
 30
0.0
 11
116.600067
 21
315.71988
 31
0.0
  0
ARC
  5
5DA
100
AcDbEntity
  8
LAY-9
  6
CONTINUOUS
 62
     1
100
AcDbCircle
 10
116.600067
 20
304.600068
 30
0.0
 40
1.6
100
AcDbArc
 50
180.00002
 51
270.0
  0
LINE
  5
5DB
100
AcDbEntity
  8
LAY-9
  6
CONTINUOUS
 62
     1
100
AcDbLine
 10
118.900085
 20
306.900055
 30
0.0
 11
118.900085
 21
339.100068
 31
0.0
  0
ARC
  5
5DC
100
AcDbEntity
  8
LAY-9
  6
CONTINUOUS
 62
     1
100
AcDbCircle
 10
118.900055
 20
306.900055
 30
0.0
 40
2.3
100
AcDbArc
 50
180.00002
 51
270.0
  0
LINE
  5
5DD
100
AcDbEntity
  8
LAY-9
  6
CONTINUOUS
 62
     1
100
AcDbLine
 10
116.600067
 20
303.000062
 30
0.0
 11
124.544189
 21
303.000062
 31
0.0
  0
LINE
  5
5DE
100
AcDbEntity
  8
LAY-9
  6
CONTINUOUS
 62
     1
100
AcDbLine
 10
116.600067
 20
304.600068
 30
0.0
 11
129.000061
 21
304.600068
 31
0.0
  0
LINE
  5
5DF
100
AcDbEntity
  8
LAY-9
  6
CONTINUOUS
 62
     1
100
AcDbLine
 10
118.900085
 20
306.900055
 30
0.0
 11
129.000031
 21
306.900055
 31
0.0
  0
LINE
  5
5E0
100
AcDbEntity
  8
LAY-9
  6
CONTINUOUS
 62
     1
100
AcDbLine
 10
175.455872
 20
304.600098
 30
0.0
 11
264.605792
 21
304.600098
 31
0.0
  0
LINE
  5
5E1
100
AcDbEntity
  8
LAY-9
  6
CONTINUOUS
 62
     1
100
AcDbLine
 10
175.455872
 20
303.000092
 30
0.0
 11
264.204437
 21
303.000092
 31
0.0
  0
LINE
  5
5E2
100
AcDbEntity
  8
LAY-9
  6
CONTINUOUS
 62
     1
100
AcDbLine
 10
175.455872
 20
304.600098
 30
0.0
 11
170.000031
 21
304.600098
 31
0.0
  0
POLYLINE
  5
5E3
100
AcDbEntity
  8
LAY-9
  6
CONTINUOUS
 62
     1
100
AcDb2dPolyline
 66
     1
 10
0.0
 20
0.0
 30
0.0
 70
   128
  0
VERTEX
  5
5E4
100
AcDbEntity
  8
LAY-9
  6
CONTINUOUS
 62
     1
100
AcDbVertex
100
AcDb2dVertex
 10
264.039856
 20
343.000062
 30
0.0
  0
VERTEX
  5
5E5
100
AcDbEntity
  8
LAY-9
  6
CONTINUOUS
 62
     1
100
AcDbVertex
100
AcDb2dVertex
 10
263.976242
 20
342.832323
 30
0.0
  0
VERTEX
  5
5E6
100
AcDbEntity
  8
LAY-9
  6
CONTINUOUS
 62
     1
100
AcDbVertex
100
AcDb2dVertex
 10
263.801727
 20
342.356532
 30
0.0
  0
VERTEX
  5
5E7
100
AcDbEntity
  8
LAY-9
  6
CONTINUOUS
 62
     1
100
AcDbVertex
100
AcDb2dVertex
 10
263.540802
 20
341.613829
 30
0.0
  0
VERTEX
  5
5E8
100
AcDbEntity
  8
LAY-9
  6
CONTINUOUS
 62
     1
100
AcDbVertex
100
AcDb2dVertex
 10
263.217959
 20
340.645352
 30
0.0
  0
VERTEX
  5
5E9
100
AcDbEntity
  8
LAY-9
  6
CONTINUOUS
 62
     1
100
AcDbVertex
100
AcDb2dVertex
 10
262.857689
 20
339.492242
 30
0.0
  0
VERTEX
  5
5EA
100
AcDbEntity
  8
LAY-9
  6
CONTINUOUS
 62
     1
100
AcDbVertex
100
AcDb2dVertex
 10
262.484484
 20
338.195636
 30
0.0
  0
VERTEX
  5
5EB
100
AcDbEntity
  8
LAY-9
  6
CONTINUOUS
 62
     1
100
AcDbVertex
100
AcDb2dVertex
 10
262.122834
 20
336.796676
 30
0.0
  0
VERTEX
  5
5EC
100
AcDbEntity
  8
LAY-9
  6
CONTINUOUS
 62
     1
100
AcDbVertex
100
AcDb2dVertex
 10
261.797231
 20
335.336498
 30
0.0
  0
VERTEX
  5
5ED
100
AcDbEntity
  8
LAY-9
  6
CONTINUOUS
 62
     1
100
AcDbVertex
100
AcDb2dVertex
 10
261.532166
 20
333.856244
 30
0.0
  0
VERTEX
  5
5EE
100
AcDbEntity
  8
LAY-9
  6
CONTINUOUS
 62
     1
100
AcDbVertex
100
AcDb2dVertex
 10
261.352131
 20
332.397052
 30
0.0
  0
VERTEX
  5
5EF
100
AcDbEntity
  8
LAY-9
  6
CONTINUOUS
 62
     1
100
AcDbVertex
100
AcDb2dVertex
 10
261.281616
 20
331.000062
 30
0.0
  0
VERTEX
  5
5F0
100
AcDbEntity
  8
LAY-9
  6
CONTINUOUS
 62
     1
100
AcDbVertex
100
AcDb2dVertex
 10
261.312991
 20
330.004208
 30
0.0
  0
VERTEX
  5
5F1
100
AcDbEntity
  8
LAY-9
  6
CONTINUOUS
 62
     1
100
AcDbVertex
100
AcDb2dVertex
 10
261.413235
 20
329.062194
 30
0.0
  0
VERTEX
  5
5F2
100
AcDbEntity
  8
LAY-9
  6
CONTINUOUS
 62
     1
100
AcDbVertex
100
AcDb2dVertex
 10
261.57427
 20
328.168525
 30
0.0
  0
VERTEX
  5
5F3
100
AcDbEntity
  8
LAY-9
  6
CONTINUOUS
 62
     1
100
AcDbVertex
100
AcDb2dVertex
 10
261.788016
 20
327.317704
 30
0.0
  0
VERTEX
  5
5F4
100
AcDbEntity
  8
LAY-9
  6
CONTINUOUS
 62
     1
100
AcDbVertex
100
AcDb2dVertex
 10
262.046397
 20
326.504236
 30
0.0
  0
VERTEX
  5
5F5
100
AcDbEntity
  8
LAY-9
  6
CONTINUOUS
 62
     1
100
AcDbVertex
100
AcDb2dVertex
 10
262.341334
 20
325.722624
 30
0.0
  0
VERTEX
  5
5F6
100
AcDbEntity
  8
LAY-9
  6
CONTINUOUS
 62
     1
100
AcDbVertex
100
AcDb2dVertex
 10
262.664748
 20
324.967373
 30
0.0
  0
VERTEX
  5
5F7
100
AcDbEntity
  8
LAY-9
  6
CONTINUOUS
 62
     1
100
AcDbVertex
100
AcDb2dVertex
 10
263.008561
 20
324.232988
 30
0.0
  0
VERTEX
  5
5F8
100
AcDbEntity
  8
LAY-9
  6
CONTINUOUS
 62
     1
100
AcDbVertex
100
AcDb2dVertex
 10
263.364696
 20
323.513971
 30
0.0
  0
VERTEX
  5
5F9
100
AcDbEntity
  8
LAY-9
  6
CONTINUOUS
 62
     1
100
AcDbVertex
100
AcDb2dVertex
 10
263.725074
 20
322.804828
 30
0.0
  0
VERTEX
  5
5FA
100
AcDbEntity
  8
LAY-9
  6
CONTINUOUS
 62
     1
100
AcDbVertex
100
AcDb2dVertex
 10
264.081616
 20
322.100062
 30
0.0
  0
VERTEX
  5
5FB
100
AcDbEntity
  8
LAY-9
  6
CONTINUOUS
 62
     1
100
AcDbVertex
100
AcDb2dVertex
 10
264.46248
 20
321.319442
 30
0.0
  0
VERTEX
  5
5FC
100
AcDbEntity
  8
LAY-9
  6
CONTINUOUS
 62
     1
100
AcDbVertex
100
AcDb2dVertex
 10
264.822923
 20
320.530918
 30
0.0
  0
VERTEX
  5
5FD
100
AcDbEntity
  8
LAY-9
  6
CONTINUOUS
 62
     1
100
AcDbVertex
100
AcDb2dVertex
 10
265.157088
 20
319.727955
 30
0.0
  0
VERTEX
  5
5FE
100
AcDbEntity
  8
LAY-9
  6
CONTINUOUS
 62
     1
100
AcDbVertex
100
AcDb2dVertex
 10
265.45912
 20
318.904015
 30
0.0
  0
VERTEX
  5
5FF
100
AcDbEntity
  8
LAY-9
  6
CONTINUOUS
 62
     1
100
AcDbVertex
100
AcDb2dVertex
 10
265.72316
 20
318.052563
 30
0.0
  0
VERTEX
  5
600
100
AcDbEntity
  8
LAY-9
  6
CONTINUOUS
 62
     1
100
AcDbVertex
100
AcDb2dVertex
 10
265.943352
 20
317.167063
 30
0.0
  0
VERTEX
  5
601
100
AcDbEntity
  8
LAY-9
  6
CONTINUOUS
 62
     1
100
AcDbVertex
100
AcDb2dVertex
 10
266.11384
 20
316.240977
 30
0.0
  0
VERTEX
  5
602
100
AcDbEntity
  8
LAY-9
  6
CONTINUOUS
 62
     1
100
AcDbVertex
100
AcDb2dVertex
 10
266.228767
 20
315.267771
 30
0.0
  0
VERTEX
  5
603
100
AcDbEntity
  8
LAY-9
  6
CONTINUOUS
 62
     1
100
AcDbVertex
100
AcDb2dVertex
 10
266.282277
 20
314.240907
 30
0.0
  0
VERTEX
  5
604
100
AcDbEntity
  8
LAY-9
  6
CONTINUOUS
 62
     1
100
AcDbVertex
100
AcDb2dVertex
 10
266.268512
 20
313.153849
 30
0.0
  0
VERTEX
  5
605
100
AcDbEntity
  8
LAY-9
  6
CONTINUOUS
 62
     1
100
AcDbVertex
100
AcDb2dVertex
 10
266.181616
 20
312.000062
 30
0.0
  0
VERTEX
  5
606
100
AcDbEntity
  8
LAY-9
  6
CONTINUOUS
 62
     1
100
AcDbVertex
100
AcDb2dVertex
 10
266.039785
 20
310.909827
 30
0.0
  0
VERTEX
  5
607
100
AcDbEntity
  8
LAY-9
  6
CONTINUOUS
 62
     1
100
AcDbVertex
100
AcDb2dVertex
 10
265.847938
 20
309.789088
 30
0.0
  0
VERTEX
  5
608
100
AcDbEntity
  8
LAY-9
  6
CONTINUOUS
 62
     1
100
AcDbVertex
100
AcDb2dVertex
 10
265.619458
 20
308.66615
 30
0.0
  0
VERTEX
  5
609
100
AcDbEntity
  8
LAY-9
  6
CONTINUOUS
 62
     1
100
AcDbVertex
100
AcDb2dVertex
 10
265.367732
 20
307.569317
 30
0.0
  0
VERTEX
  5
60A
100
AcDbEntity
  8
LAY-9
  6
CONTINUOUS
 62
     1
100
AcDbVertex
100
AcDb2dVertex
 10
265.106142
 20
306.526895
 30
0.0
  0
VERTEX
  5
60B
100
AcDbEntity
  8
LAY-9
  6
CONTINUOUS
 62
     1
100
AcDbVertex
100
AcDb2dVertex
 10
264.848075
 20
305.567189
 30
0.0
  0
VERTEX
  5
60C
100
AcDbEntity
  8
LAY-9
  6
CONTINUOUS
 62
     1
100
AcDbVertex
100
AcDb2dVertex
 10
264.606915
 20
304.718503
 30
0.0
  0
VERTEX
  5
60D
100
AcDbEntity
  8
LAY-9
  6
CONTINUOUS
 62
     1
100
AcDbVertex
100
AcDb2dVertex
 10
264.396047
 20
304.009142
 30
0.0
  0
VERTEX
  5
60E
100
AcDbEntity
  8
LAY-9
  6
CONTINUOUS
 62
     1
100
AcDbVertex
100
AcDb2dVertex
 10
264.228855
 20
303.467412
 30
0.0
  0
VERTEX
  5
60F
100
AcDbEntity
  8
LAY-9
  6
CONTINUOUS
 62
     1
100
AcDbVertex
100
AcDb2dVertex
 10
264.118725
 20
303.121617
 30
0.0
  0
VERTEX
  5
610
100
AcDbEntity
  8
LAY-9
  6
CONTINUOUS
 62
     1
100
AcDbVertex
100
AcDb2dVertex
 10
264.07904
 20
303.000062
 30
0.0
  0
SEQEND
  5
611
100
AcDbEntity
  8
LAY-9
  6
CONTINUOUS
 62
     1
  0
ARC
  5
612
100
AcDbEntity
  8
LAY-9
  6
CONTINUOUS
 62
     1
100
AcDbCircle
 10
634.59375
 20
510.854462
 30
0.0
 40
1.6
100
AcDbArc
 50
89.999981
 51
180.00002
  0
LINE
  5
613
100
AcDbEntity
  8
LAY-9
  6
CONTINUOUS
 62
     1
100
AcDbLine
 10
634.593781
 20
510.854462
 30
0.0
 11
634.593781
 21
501.954437
 31
0.0
  0
LINE
  5
614
100
AcDbEntity
  8
LAY-9
  6
CONTINUOUS
 62
     1
100
AcDbLine
 10
634.59375
 20
512.454468
 30
0.0
 11
647.993774
 21
512.454468
 31
0.0
  0
LINE
  5
615
100
AcDbEntity
  8
LAY-9
  6
CONTINUOUS
 62
     1
100
AcDbLine
 10
647.993774
 20
512.454468
 30
0.0
 11
647.993774
 21
510.854462
 31
0.0
  0
LINE
  5
616
100
AcDbEntity
  8
LAY-9
  6
CONTINUOUS
 62
     1
100
AcDbLine
 10
647.993774
 20
510.854462
 30
0.0
 11
634.593781
 21
510.854462
 31
0.0
  0
ARC
  5
617
100
AcDbEntity
  8
LAY-9
  6
CONTINUOUS
 62
     1
100
AcDbCircle
 10
634.59375
 20
489.054443
 30
0.0
 40
1.6
100
AcDbArc
 50
180.00002
 51
270.0
  0
LINE
  5
618
100
AcDbEntity
  8
LAY-9
  6
CONTINUOUS
 62
     1
100
AcDbLine
 10
634.593811
 20
489.054443
 30
0.0
 11
634.593811
 21
493.954407
 31
0.0
  0
LINE
  5
619
100
AcDbEntity
  8
LAY-9
  6
CONTINUOUS
 62
     1
100
AcDbLine
 10
634.59375
 20
487.454437
 30
0.0
 11
677.993713
 21
487.454437
 31
0.0
  0
LINE
  5
61A
100
AcDbEntity
  8
LAY-9
  6
CONTINUOUS
 62
     1
100
AcDbLine
 10
634.593811
 20
489.054443
 30
0.0
 11
677.993835
 21
489.054443
 31
0.0
  0
ARC
  5
61B
100
AcDbEntity
  8
LAY-9
  6
CONTINUOUS
 62
     1
100
AcDbCircle
 10
677.993835
 20
487.454437
 30
0.0
 40
1.6
100
AcDbArc
 50
0.0
 51
89.999981
  0
LINE
  5
61C
100
AcDbEntity
  8
LAY-9
  6
CONTINUOUS
 62
     1
100
AcDbLine
 10
677.993835
 20
489.054443
 30
0.0
 11
677.993835
 21
493.954407
 31
0.0
  0
LINE
  5
61D
100
AcDbEntity
  8
LAY-9
  6
CONTINUOUS
 62
     1
100
AcDbLine
 10
677.993774
 20
487.454468
 30
0.0
 11
677.993774
 21
474.054474
 31
0.0
  0
LINE
  5
61E
100
AcDbEntity
  8
LAY-9
  6
CONTINUOUS
 62
     1
100
AcDbLine
 10
679.593811
 20
487.454437
 30
0.0
 11
679.593811
 21
474.054443
 31
0.0
  0
ARC
  5
61F
100
AcDbEntity
  8
LAY-9
  6
CONTINUOUS
 62
     1
100
AcDbCircle
 10
679.59375
 20
474.054474
 30
0.0
 40
1.6
100
AcDbArc
 50
180.00002
 51
270.0
  0
ARC
  5
620
100
AcDbEntity
  8
LAY-9
  6
CONTINUOUS
 62
     1
100
AcDbCircle
 10
674.400085
 20
482.854401
 30
0.0
 40
1.6
100
AcDbArc
 50
0.0
 51
89.999981
  0
LINE
  5
621
100
AcDbEntity
  8
LAY-9
  6
CONTINUOUS
 62
     1
100
AcDbLine
 10
674.400085
 20
484.454407
 30
0.0
 11
667.000061
 21
484.454407
 31
0.0
  0
LINE
  5
622
100
AcDbEntity
  8
LAY-9
  6
CONTINUOUS
 62
     1
100
AcDbLine
 10
676.000061
 20
482.854401
 30
0.0
 11
676.000061
 21
406.166718
 31
0.0
  0
LINE
  5
623
100
AcDbEntity
  8
LAY-9
  6
CONTINUOUS
 62
     1
100
AcDbLine
 10
636.000061
 20
468.454407
 30
0.0
 11
636.000061
 21
406.166718
 31
0.0
  0
LINE
  5
624
100
AcDbEntity
  8
LAY-9
  6
CONTINUOUS
 62
     1
100
AcDbLine
 10
637.600067
 20
406.166718
 30
0.0
 11
637.600067
 21
476.454407
 31
0.0
  0
LINE
  5
625
100
AcDbEntity
  8
LAY-9
  6
DASHDOT
 62
     1
100
AcDbLine
 10
626.000031
 20
401.166718
 30
0.0
 11
686.0
 21
401.166718
 31
0.0
  0
LINE
  5
626
100
AcDbEntity
  8
LAY-9
  6
DASHDOT
 62
     1
100
AcDbLine
 10
626.000031
 20
406.166718
 30
0.0
 11
686.0
 21
406.166718
 31
0.0
  0
LINE
  5
627
100
AcDbEntity
  8
LAY-9
  6
CONTINUOUS
 62
     1
100
AcDbLine
 10
637.600037
 20
401.166718
 30
0.0
 11
637.600037
 21
337.166748
 31
0.0
  0
LINE
  5
628
100
AcDbEntity
  8
LAY-9
  6
CONTINUOUS
 62
     1
100
AcDbLine
 10
533.099991
 20
176.299998
 30
0.0
 11
536.499969
 21
176.299997
 31
0.0
  0
LINE
  5
629
100
AcDbEntity
  8
LAY-9
  6
CONTINUOUS
 62
     1
100
AcDbLine
 10
536.499969
 20
176.299997
 30
0.0
 11
554.899933
 21
176.299993
 31
0.0
  0
LINE
  5
62A
100
AcDbEntity
  8
LAY-9
  6
CONTINUOUS
 62
     1
100
AcDbLine
 10
533.099976
 20
174.7
 30
0.0
 11
536.499969
 21
174.699998
 31
0.0
  0
LINE
  5
62B
100
AcDbEntity
  8
LAY-9
  6
CONTINUOUS
 62
     1
100
AcDbLine
 10
536.499969
 20
174.699998
 30
0.0
 11
554.904355
 21
174.699989
 31
0.0
  0
LINE
  5
62C
100
AcDbEntity
  8
LAY-9
  6
CONTINUOUS
 62
     1
100
AcDbLine
 10
554.899933
 20
176.29999
 30
0.0
 11
554.899952
 21
189.699969
 31
0.0
  0
LINE
  5
62D
100
AcDbEntity
  8
LAY-9
  6
CONTINUOUS
 62
     1
100
AcDbLine
 10
554.899952
 20
189.699969
 30
0.0
 11
554.899994
 21
219.700015
 31
0.0
  0
LINE
  5
62E
100
AcDbEntity
  8
LAY-9
  6
CONTINUOUS
 62
     1
100
AcDbLine
 10
556.499969
 20
176.299983
 30
0.0
 11
556.499969
 21
189.699969
 31
0.0
  0
LINE
  5
62F
100
AcDbEntity
  8
LAY-9
  6
CONTINUOUS
 62
     1
100
AcDbLine
 10
556.499969
 20
189.699969
 30
0.0
 11
556.499969
 21
219.7
 31
0.0
  0
LINE
  5
630
100
AcDbEntity
  8
LAY-9
  6
CONTINUOUS
 62
     1
100
AcDbLine
 10
677.400024
 20
314.166725
 30
0.0
 11
648.000061
 21
314.16672
 31
0.0
  0
LINE
  5
631
100
AcDbEntity
  8
LAY-9
  6
CONTINUOUS
 62
     1
100
AcDbLine
 10
568.000061
 20
314.16671
 30
0.0
 11
514.2
 21
314.16671
 31
0.0
  0
POLYLINE
  5
632
100
AcDbEntity
  8
LAY-9
  6
CONTINUOUS
 62
     1
100
AcDb2dPolyline
 66
     1
 10
0.0
 20
0.0
 30
0.0
 70
   128
  0
VERTEX
  5
633
100
AcDbEntity
  8
LAY-9
  6
CONTINUOUS
 62
     1
100
AcDbVertex
100
AcDb2dVertex
 10
514.2
 20
314.16671
 30
0.0
  0
VERTEX
  5
634
100
AcDbEntity
  8
LAY-9
  6
CONTINUOUS
 62
     1
100
AcDbVertex
100
AcDb2dVertex
 10
514.233045
 20
314.095935
 30
0.0
  0
VERTEX
  5
635
100
AcDbEntity
  8
LAY-9
  6
CONTINUOUS
 62
     1
100
AcDbVertex
100
AcDb2dVertex
 10
514.32458
 20
313.89451
 30
0.0
  0
VERTEX
  5
636
100
AcDbEntity
  8
LAY-9
  6
CONTINUOUS
 62
     1
100
AcDbVertex
100
AcDb2dVertex
 10
514.46321
 20
313.578784
 30
0.0
  0
VERTEX
  5
637
100
AcDbEntity
  8
LAY-9
  6
CONTINUOUS
 62
     1
100
AcDbVertex
100
AcDb2dVertex
 10
514.637537
 20
313.165105
 30
0.0
  0
VERTEX
  5
638
100
AcDbEntity
  8
LAY-9
  6
CONTINUOUS
 62
     1
100
AcDbVertex
100
AcDb2dVertex
 10
514.836164
 20
312.669822
 30
0.0
  0
VERTEX
  5
639
100
AcDbEntity
  8
LAY-9
  6
CONTINUOUS
 62
     1
100
AcDbVertex
100
AcDb2dVertex
 10
515.047694
 20
312.109284
 30
0.0
  0
VERTEX
  5
63A
100
AcDbEntity
  8
LAY-9
  6
CONTINUOUS
 62
     1
100
AcDbVertex
100
AcDb2dVertex
 10
515.260731
 20
311.49984
 30
0.0
  0
VERTEX
  5
63B
100
AcDbEntity
  8
LAY-9
  6
CONTINUOUS
 62
     1
100
AcDbVertex
100
AcDb2dVertex
 10
515.463876
 20
310.857839
 30
0.0
  0
VERTEX
  5
63C
100
AcDbEntity
  8
LAY-9
  6
CONTINUOUS
 62
     1
100
AcDbVertex
100
AcDb2dVertex
 10
515.645734
 20
310.199629
 30
0.0
  0
VERTEX
  5
63D
100
AcDbEntity
  8
LAY-9
  6
CONTINUOUS
 62
     1
100
AcDbVertex
100
AcDb2dVertex
 10
515.794908
 20
309.54156
 30
0.0
  0
VERTEX
  5
63E
100
AcDbEntity
  8
LAY-9
  6
CONTINUOUS
 62
     1
100
AcDbVertex
100
AcDb2dVertex
 10
515.9
 20
308.899979
 30
0.0
  0
VERTEX
  5
63F
100
AcDbEntity
  8
LAY-9
  6
CONTINUOUS
 62
     1
100
AcDbVertex
100
AcDb2dVertex
 10
515.956663
 20
308.171467
 30
0.0
  0
VERTEX
  5
640
100
AcDbEntity
  8
LAY-9
  6
CONTINUOUS
 62
     1
100
AcDbVertex
100
AcDb2dVertex
 10
515.943195
 20
307.485549
 30
0.0
  0
VERTEX
  5
641
100
AcDbEntity
  8
LAY-9
  6
CONTINUOUS
 62
     1
100
AcDbVertex
100
AcDb2dVertex
 10
515.868893
 20
306.837808
 30
0.0
  0
VERTEX
  5
642
100
AcDbEntity
  8
LAY-9
  6
CONTINUOUS
 62
     1
100
AcDbVertex
100
AcDb2dVertex
 10
515.743052
 20
306.223823
 30
0.0
  0
VERTEX
  5
643
100
AcDbEntity
  8
LAY-9
  6
CONTINUOUS
 62
     1
100
AcDbVertex
100
AcDb2dVertex
 10
515.57497
 20
305.639178
 30
0.0
  0
VERTEX
  5
644
100
AcDbEntity
  8
LAY-9
  6
CONTINUOUS
 62
     1
100
AcDbVertex
100
AcDb2dVertex
 10
515.373943
 20
305.079453
 30
0.0
  0
VERTEX
  5
645
100
AcDbEntity
  8
LAY-9
  6
CONTINUOUS
 62
     1
100
AcDbVertex
100
AcDb2dVertex
 10
515.149267
 20
304.540229
 30
0.0
  0
VERTEX
  5
646
100
AcDbEntity
  8
LAY-9
  6
CONTINUOUS
 62
     1
100
AcDbVertex
100
AcDb2dVertex
 10
514.910238
 20
304.017089
 30
0.0
  0
VERTEX
  5
647
100
AcDbEntity
  8
LAY-9
  6
CONTINUOUS
 62
     1
100
AcDbVertex
100
AcDb2dVertex
 10
514.666153
 20
303.505613
 30
0.0
  0
VERTEX
  5
648
100
AcDbEntity
  8
LAY-9
  6
CONTINUOUS
 62
     1
100
AcDbVertex
100
AcDb2dVertex
 10
514.426308
 20
303.001382
 30
0.0
  0
VERTEX
  5
649
100
AcDbEntity
  8
LAY-9
  6
CONTINUOUS
 62
     1
100
AcDbVertex
100
AcDb2dVertex
 10
514.2
 20
302.499979
 30
0.0
  0
VERTEX
  5
64A
100
AcDbEntity
  8
LAY-9
  6
CONTINUOUS
 62
     1
100
AcDbVertex
100
AcDb2dVertex
 10
513.979456
 20
301.956311
 30
0.0
  0
VERTEX
  5
64B
100
AcDbEntity
  8
LAY-9
  6
CONTINUOUS
 62
     1
100
AcDbVertex
100
AcDb2dVertex
 10
513.785852
 20
301.40616
 30
0.0
  0
VERTEX
  5
64C
100
AcDbEntity
  8
LAY-9
  6
CONTINUOUS
 62
     1
100
AcDbVertex
100
AcDb2dVertex
 10
513.619455
 20
300.8449
 30
0.0
  0
VERTEX
  5
64D
100
AcDbEntity
  8
LAY-9
  6
CONTINUOUS
 62
     1
100
AcDbVertex
100
AcDb2dVertex
 10
513.480535
 20
300.267908
 30
0.0
  0
VERTEX
  5
64E
100
AcDbEntity
  8
LAY-9
  6
CONTINUOUS
 62
     1
100
AcDbVertex
100
AcDb2dVertex
 10
513.36936
 20
299.670558
 30
0.0
  0
VERTEX
  5
64F
100
AcDbEntity
  8
LAY-9
  6
CONTINUOUS
 62
     1
100
AcDbVertex
100
AcDb2dVertex
 10
513.286199
 20
299.048227
 30
0.0
  0
VERTEX
  5
650
100
AcDbEntity
  8
LAY-9
  6
CONTINUOUS
 62
     1
100
AcDbVertex
100
AcDb2dVertex
 10
513.23132
 20
298.396289
 30
0.0
  0
VERTEX
  5
651
100
AcDbEntity
  8
LAY-9
  6
CONTINUOUS
 62
     1
100
AcDbVertex
100
AcDb2dVertex
 10
513.204992
 20
297.710119
 30
0.0
  0
VERTEX
  5
652
100
AcDbEntity
  8
LAY-9
  6
CONTINUOUS
 62
     1
100
AcDbVertex
100
AcDb2dVertex
 10
513.207484
 20
296.985095
 30
0.0
  0
VERTEX
  5
653
100
AcDbEntity
  8
LAY-9
  6
CONTINUOUS
 62
     1
100
AcDbVertex
100
AcDb2dVertex
 10
513.239063
 20
296.216589
 30
0.0
  0
VERTEX
  5
654
100
AcDbEntity
  8
LAY-9
  6
CONTINUOUS
 62
     1
100
AcDbVertex
100
AcDb2dVertex
 10
513.3
 20
295.399979
 30
0.0
  0
VERTEX
  5
655
100
AcDbEntity
  8
LAY-9
  6
CONTINUOUS
 62
     1
100
AcDbVertex
100
AcDb2dVertex
 10
513.374001
 20
294.670176
 30
0.0
  0
VERTEX
  5
656
100
AcDbEntity
  8
LAY-9
  6
CONTINUOUS
 62
     1
100
AcDbVertex
100
AcDb2dVertex
 10
513.464361
 20
293.921169
 30
0.0
  0
VERTEX
  5
657
100
AcDbEntity
  8
LAY-9
  6
CONTINUOUS
 62
     1
100
AcDbVertex
100
AcDb2dVertex
 10
513.566148
 20
293.17165
 30
0.0
  0
VERTEX
  5
658
100
AcDbEntity
  8
LAY-9
  6
CONTINUOUS
 62
     1
100
AcDbVertex
100
AcDb2dVertex
 10
513.674431
 20
292.440309
 30
0.0
  0
VERTEX
  5
659
100
AcDbEntity
  8
LAY-9
  6
CONTINUOUS
 62
     1
100
AcDbVertex
100
AcDb2dVertex
 10
513.784276
 20
291.745837
 30
0.0
  0
VERTEX
  5
65A
100
AcDbEntity
  8
LAY-9
  6
CONTINUOUS
 62
     1
100
AcDbVertex
100
AcDb2dVertex
 10
513.890754
 20
291.106927
 30
0.0
  0
VERTEX
  5
65B
100
AcDbEntity
  8
LAY-9
  6
CONTINUOUS
 62
     1
100
AcDbVertex
100
AcDb2dVertex
 10
513.988931
 20
290.542269
 30
0.0
  0
VERTEX
  5
65C
100
AcDbEntity
  8
LAY-9
  6
CONTINUOUS
 62
     1
100
AcDbVertex
100
AcDb2dVertex
 10
514.073876
 20
290.070554
 30
0.0
  0
VERTEX
  5
65D
100
AcDbEntity
  8
LAY-9
  6
CONTINUOUS
 62
     1
100
AcDbVertex
100
AcDb2dVertex
 10
514.140657
 20
289.710473
 30
0.0
  0
VERTEX
  5
65E
100
AcDbEntity
  8
LAY-9
  6
CONTINUOUS
 62
     1
100
AcDbVertex
100
AcDb2dVertex
 10
514.184342
 20
289.480718
 30
0.0
  0
VERTEX
  5
65F
100
AcDbEntity
  8
LAY-9
  6
CONTINUOUS
 62
     1
100
AcDbVertex
100
AcDb2dVertex
 10
514.2
 20
289.399979
 30
0.0
  0
SEQEND
  5
660
100
AcDbEntity
  8
LAY-9
  6
CONTINUOUS
 62
     1
  0
LINE
  5
661
100
AcDbEntity
  8
LAY-9
  6
CONTINUOUS
 62
     1
100
AcDbLine
 10
636.000031
 20
324.166718
 30
0.0
 11
636.000031
 21
401.166718
 31
0.0
  0
LINE
  5
662
100
AcDbEntity
  8
LAY-9
  6
CONTINUOUS
 62
     1
100
AcDbLine
 10
674.400024
 20
324.166718
 30
0.0
 11
676.0
 21
324.166718
 31
0.0
  0
LINE
  5
663
100
AcDbEntity
  8
LAY-9
  6
CONTINUOUS
 62
     1
100
AcDbLine
 10
676.0
 20
324.166718
 30
0.0
 11
676.0
 21
401.166718
 31
0.0
  0
LINE
  5
664
100
AcDbEntity
  8
LAY-9
  6
CONTINUOUS
 62
     1
100
AcDbLine
 10
639.900024
 20
341.666752
 30
0.0
 11
639.900024
 21
337.166748
 31
0.0
  0
LINE
  5
665
100
AcDbEntity
  8
LAY-9
  6
CONTINUOUS
 62
     1
100
AcDbLine
 10
674.400024
 20
401.166718
 30
0.0
 11
674.400024
 21
324.166718
 31
0.0
  0
LINE
  5
666
100
AcDbEntity
  8
LAY-9
  6
CONTINUOUS
 62
     1
100
AcDbLine
 10
639.900024
 20
341.666752
 30
0.0
 11
672.100024
 21
341.666784
 31
0.0
  0
LINE
  5
667
100
AcDbEntity
  8
LAY-9
  6
CONTINUOUS
 62
     1
100
AcDbLine
 10
674.400024
 20
324.166718
 30
0.0
 11
672.100024
 21
324.166718
 31
0.0
  0
LINE
  5
668
100
AcDbEntity
  8
LAY-9
  6
CONTINUOUS
 62
     1
100
AcDbLine
 10
672.100024
 20
341.666784
 30
0.0
 11
672.100024
 21
324.166718
 31
0.0
  0
ARC
  5
669
100
AcDbEntity
  8
LAY-9
  6
CONTINUOUS
 62
     1
100
AcDbCircle
 10
672.100024
 20
341.666784
 30
0.0
 40
2.3
100
AcDbArc
 50
0.0
 51
90.000057
  0
ARC
  5
66A
100
AcDbEntity
  8
LAY-9
  6
CONTINUOUS
 62
     1
100
AcDbCircle
 10
639.900037
 20
341.666752
 30
0.0
 40
2.3
100
AcDbArc
 50
90.000057
 51
180.0
  0
LINE
  5
66B
100
AcDbEntity
  8
LAY-9
  6
CONTINUOUS
 62
     1
100
AcDbLine
 10
672.100022
 20
343.966784
 30
0.0
 11
639.900035
 21
343.966752
 31
0.0
  0
LINE
  5
66C
100
AcDbEntity
  8
LAY-9
  6
CONTINUOUS
 62
     1
100
AcDbLine
 10
674.400024
 20
482.854407
 30
0.0
 11
674.400024
 21
406.166718
 31
0.0
  0
LINE
  5
66D
100
AcDbEntity
  8
LAY-9
  6
CONTINUOUS
 62
     1
100
AcDbLine
 10
674.400024
 20
482.854407
 30
0.0
 11
669.724548
 21
482.854407
 31
0.0
  0
LINE
  5
66E
100
AcDbEntity
  8
LAY-9
  6
CONTINUOUS
 62
     1
100
AcDbLine
 10
672.100024
 20
480.554407
 30
0.0
 11
670.000061
 21
480.554407
 31
0.0
  0
ARC
  5
66F
100
AcDbEntity
  8
LAY-9
  6
CONTINUOUS
 62
     1
100
AcDbCircle
 10
672.100024
 20
480.554407
 30
0.0
 40
2.3
100
AcDbArc
 50
0.0
 51
90.0
  0
LINE
  5
670
100
AcDbEntity
  8
LAY-9
  6
CONTINUOUS
 62
     1
100
AcDbLine
 10
672.100024
 20
480.554407
 30
0.0
 11
672.100024
 21
462.854407
 31
0.0
  0
LINE
  5
671
100
AcDbEntity
  8
LAY-9
  6
CONTINUOUS
 62
     1
100
AcDbLine
 10
674.400024
 20
462.854407
 30
0.0
 11
672.100024
 21
462.854407
 31
0.0
  0
LINE
  5
672
100
AcDbEntity
  8
LAY-9
  6
CONTINUOUS
 62
     1
100
AcDbLine
 10
639.900067
 20
462.854407
 30
0.0
 11
639.900067
 21
476.454407
 31
0.0
  0
LINE
  5
673
100
AcDbEntity
  8
LAY-9
  6
CONTINUOUS
 62
     1
100
AcDbLine
 10
639.900067
 20
462.854407
 30
0.0
 11
637.600067
 21
462.854407
 31
0.0
  0
LINE
  5
674
100
AcDbEntity
  8
LAY-9
  6
CONTINUOUS
 62
     1
100
AcDbLine
 10
667.739441
 20
476.454407
 30
0.0
 11
672.154407
 21
476.454407
 31
0.0
  0
LINE
  5
675
100
AcDbEntity
  8
LAY-9
  6
CONTINUOUS
 62
     1
100
AcDbLine
 10
672.100024
 20
471.954407
 30
0.0
 11
639.900067
 21
471.954407
 31
0.0
  0
LINE
  5
676
100
AcDbEntity
  8
LAY-9
  6
CONTINUOUS
 62
     1
100
AcDbLine
 10
554.899935
 20
177.52
 30
0.0
 11
556.499969
 21
178.36
 31
0.0
  0
LINE
  5
677
100
AcDbEntity
  8
LAY-9
  6
CONTINUOUS
 62
     1
100
AcDbLine
 10
554.899938
 20
179.778863
 30
0.0
 11
556.499969
 21
180.618861
 31
0.0
  0
LINE
  5
678
100
AcDbEntity
  8
LAY-9
  6
CONTINUOUS
 62
     1
100
AcDbLine
 10
554.899941
 20
182.037725
 30
0.0
 11
556.499969
 21
182.877722
 31
0.0
  0
LINE
  5
679
100
AcDbEntity
  8
LAY-9
  6
CONTINUOUS
 62
     1
100
AcDbLine
 10
554.899944
 20
184.296588
 30
0.0
 11
556.499969
 21
185.136583
 31
0.0
  0
LINE
  5
67A
100
AcDbEntity
  8
LAY-9
  6
CONTINUOUS
 62
     1
100
AcDbLine
 10
554.899947
 20
186.55545
 30
0.0
 11
556.499969
 21
187.395444
 31
0.0
  0
LINE
  5
67B
100
AcDbEntity
  8
LAY-9
  6
CONTINUOUS
 62
     1
100
AcDbLine
 10
554.899951
 20
188.814313
 30
0.0
 11
556.499969
 21
189.654305
 31
0.0
  0
LINE
  5
67C
100
AcDbEntity
  8
LAY-9
  6
CONTINUOUS
 62
     1
100
AcDbLine
 10
679.59375
 20
472.454468
 30
0.0
 11
688.0
 21
472.454468
 31
0.0
  0
LINE
  5
67D
100
AcDbEntity
  8
LAY-9
  6
CONTINUOUS
 62
     1
100
AcDbLine
 10
679.593811
 20
474.054443
 30
0.0
 11
688.0
 21
474.054443
 31
0.0
  0
LINE
  5
67E
100
AcDbEntity
  8
LAY-9
  6
CONTINUOUS
 62
     1
100
AcDbLine
 10
88.599976
 20
480.0
 30
0.0
 11
88.599991
 21
466.599998
 31
0.0
  0
LINE
  5
67F
100
AcDbEntity
  8
LAY-9
  6
CONTINUOUS
 62
     1
100
AcDbLine
 10
86.999969
 20
480.0
 30
0.0
 11
86.999985
 21
466.599998
 31
0.0
  0
LINE
  5
680
100
AcDbEntity
  8
LAY-9
  6
CONTINUOUS
 62
     1
100
AcDbLine
 10
88.599991
 20
466.599998
 30
0.0
 11
110.399933
 21
466.59999
 31
0.0
  0
LINE
  5
681
100
AcDbEntity
  8
LAY-9
  6
CONTINUOUS
 62
     1
100
AcDbLine
 10
88.599976
 20
465.0
 30
0.0
 11
110.399963
 21
464.999984
 31
0.0
  0
LINE
  5
682
100
AcDbEntity
  8
LAY-9
  6
CONTINUOUS
 62
     1
100
AcDbLine
 10
110.399933
 20
466.59999
 30
0.0
 11
110.399994
 21
510.000015
 31
0.0
  0
LINE
  5
683
100
AcDbEntity
  8
LAY-9
  6
CONTINUOUS
 62
     1
100
AcDbLine
 10
111.999969
 20
466.599983
 30
0.0
 11
111.999969
 21
510.0
 31
0.0
  0
ARC
  5
684
100
AcDbEntity
  8
LAY-9
  6
CONTINUOUS
 62
     1
100
AcDbCircle
 10
88.599976
 20
466.599998
 30
0.0
 40
1.6
100
AcDbArc
 50
180.000077
 51
270.0
  0
ARC
  5
685
100
AcDbEntity
  8
LAY-9
  6
CONTINUOUS
 62
     1
100
AcDbCircle
 10
110.399963
 20
466.599983
 30
0.0
 40
1.6
100
AcDbArc
 50
270.0
 51
0.0
  0
ARC
  5
686
100
AcDbEntity
  8
LAY-9
  6
CONTINUOUS
 62
     1
100
AcDbCircle
 10
112.0
 20
510.0
 30
0.0
 40
1.6
100
AcDbArc
 50
89.999981
 51
179.999905
  0
LINE
  5
687
100
AcDbEntity
  8
LAY-9
  6
CONTINUOUS
 62
     1
100
AcDbLine
 10
86.999969
 20
480.0
 30
0.0
 11
88.59996
 21
480.0
 31
0.0
  0
LINE
  5
688
100
AcDbEntity
  8
LAY-9
  6
CONTINUOUS
 62
     1
100
AcDbLine
 10
112.0
 20
511.600006
 30
0.0
 11
125.399963
 21
511.600006
 31
0.0
  0
LINE
  5
689
100
AcDbEntity
  8
LAY-9
  6
CONTINUOUS
 62
     1
100
AcDbLine
 10
111.999969
 20
510.0
 30
0.0
 11
125.399963
 21
510.0
 31
0.0
  0
ARC
  5
68A
100
AcDbEntity
  8
LAY-9
  6
CONTINUOUS
 62
     1
100
AcDbCircle
 10
125.399963
 20
511.600006
 30
0.0
 40
1.6
100
AcDbArc
 50
270.0
 51
0.0
  0
LINE
  5
68B
100
AcDbEntity
  8
LAY-9
  6
CONTINUOUS
 62
     1
100
AcDbLine
 10
125.399963
 20
511.600006
 30
0.0
 11
125.399963
 21
525.0
 31
0.0
  0
LINE
  5
68C
100
AcDbEntity
  8
LAY-9
  6
CONTINUOUS
 62
     1
100
AcDbLine
 10
126.999969
 20
511.600006
 30
0.0
 11
126.999969
 21
525.0
 31
0.0
  0
LINE
  5
68D
100
AcDbEntity
  8
LAY-9
  6
CONTINUOUS
 62
     1
100
AcDbLine
 10
110.399963
 20
464.999984
 30
0.0
 11
125.999969
 21
464.999984
 31
0.0
  0
POLYLINE
  5
68E
100
AcDbEntity
  8
LAY-9
  6
CONTINUOUS
 62
     1
100
AcDb2dPolyline
 66
     1
 10
0.0
 20
0.0
 30
0.0
 70
   128
  0
VERTEX
  5
68F
100
AcDbEntity
  8
LAY-9
  6
CONTINUOUS
 62
     1
100
AcDbVertex
100
AcDb2dVertex
 10
268.925232
 20
464.999984
 30
0.0
  0
VERTEX
  5
690
100
AcDbEntity
  8
LAY-9
  6
CONTINUOUS
 62
     1
100
AcDbVertex
100
AcDb2dVertex
 10
268.983493
 20
465.115314
 30
0.0
  0
VERTEX
  5
691
100
AcDbEntity
  8
LAY-9
  6
CONTINUOUS
 62
     1
100
AcDbVertex
100
AcDb2dVertex
 10
269.144805
 20
465.443273
 30
0.0
  0
VERTEX
  5
692
100
AcDbEntity
  8
LAY-9
  6
CONTINUOUS
 62
     1
100
AcDbVertex
100
AcDb2dVertex
 10
269.388964
 20
465.956809
 30
0.0
  0
VERTEX
  5
693
100
AcDbEntity
  8
LAY-9
  6
CONTINUOUS
 62
     1
100
AcDbVertex
100
AcDb2dVertex
 10
269.695762
 20
466.628874
 30
0.0
  0
VERTEX
  5
694
100
AcDbEntity
  8
LAY-9
  6
CONTINUOUS
 62
     1
100
AcDbVertex
100
AcDb2dVertex
 10
270.044995
 20
467.432419
 30
0.0
  0
VERTEX
  5
695
100
AcDbEntity
  8
LAY-9
  6
CONTINUOUS
 62
     1
100
AcDbVertex
100
AcDb2dVertex
 10
270.416457
 20
468.340392
 30
0.0
  0
VERTEX
  5
696
100
AcDbEntity
  8
LAY-9
  6
CONTINUOUS
 62
     1
100
AcDbVertex
100
AcDb2dVertex
 10
270.789942
 20
469.325746
 30
0.0
  0
VERTEX
  5
697
100
AcDbEntity
  8
LAY-9
  6
CONTINUOUS
 62
     1
100
AcDbVertex
100
AcDb2dVertex
 10
271.145244
 20
470.36143
 30
0.0
  0
VERTEX
  5
698
100
AcDbEntity
  8
LAY-9
  6
CONTINUOUS
 62
     1
100
AcDbVertex
100
AcDb2dVertex
 10
271.462158
 20
471.420395
 30
0.0
  0
VERTEX
  5
699
100
AcDbEntity
  8
LAY-9
  6
CONTINUOUS
 62
     1
100
AcDbVertex
100
AcDb2dVertex
 10
271.720479
 20
472.475591
 30
0.0
  0
VERTEX
  5
69A
100
AcDbEntity
  8
LAY-9
  6
CONTINUOUS
 62
     1
100
AcDbVertex
100
AcDb2dVertex
 10
271.9
 20
473.499969
 30
0.0
  0
VERTEX
  5
69B
100
AcDbEntity
  8
LAY-9
  6
CONTINUOUS
 62
     1
100
AcDbVertex
100
AcDb2dVertex
 10
271.984912
 20
474.465878
 30
0.0
  0
VERTEX
  5
69C
100
AcDbEntity
  8
LAY-9
  6
CONTINUOUS
 62
     1
100
AcDbVertex
100
AcDb2dVertex
 10
271.979522
 20
475.379268
 30
0.0
  0
VERTEX
  5
69D
100
AcDbEntity
  8
LAY-9
  6
CONTINUOUS
 62
     1
100
AcDbVertex
100
AcDb2dVertex
 10
271.891298
 20
476.244765
 30
0.0
  0
VERTEX
  5
69E
100
AcDbEntity
  8
LAY-9
  6
CONTINUOUS
 62
     1
100
AcDbVertex
100
AcDb2dVertex
 10
271.727713
 20
477.066998
 30
0.0
  0
VERTEX
  5
69F
100
AcDbEntity
  8
LAY-9
  6
CONTINUOUS
 62
     1
100
AcDbVertex
100
AcDb2dVertex
 10
271.496237
 20
477.850594
 30
0.0
  0
VERTEX
  5
6A0
100
AcDbEntity
  8
LAY-9
  6
CONTINUOUS
 62
     1
100
AcDbVertex
100
AcDb2dVertex
 10
271.204339
 20
478.600182
 30
0.0
  0
VERTEX
  5
6A1
100
AcDbEntity
  8
LAY-9
  6
CONTINUOUS
 62
     1
100
AcDbVertex
100
AcDb2dVertex
 10
270.859491
 20
479.320389
 30
0.0
  0
VERTEX
  5
6A2
100
AcDbEntity
  8
LAY-9
  6
CONTINUOUS
 62
     1
100
AcDbVertex
100
AcDb2dVertex
 10
270.469162
 20
480.015843
 30
0.0
  0
VERTEX
  5
6A3
100
AcDbEntity
  8
LAY-9
  6
CONTINUOUS
 62
     1
100
AcDbVertex
100
AcDb2dVertex
 10
270.040824
 20
480.691173
 30
0.0
  0
VERTEX
  5
6A4
100
AcDbEntity
  8
LAY-9
  6
CONTINUOUS
 62
     1
100
AcDbVertex
100
AcDb2dVertex
 10
269.581946
 20
481.351006
 30
0.0
  0
VERTEX
  5
6A5
100
AcDbEntity
  8
LAY-9
  6
CONTINUOUS
 62
     1
100
AcDbVertex
100
AcDb2dVertex
 10
269.1
 20
481.999969
 30
0.0
  0
VERTEX
  5
6A6
100
AcDbEntity
  8
LAY-9
  6
CONTINUOUS
 62
     1
100
AcDbVertex
100
AcDb2dVertex
 10
268.751277
 20
482.453708
 30
0.0
  0
VERTEX
  5
6A7
100
AcDbEntity
  8
LAY-9
  6
CONTINUOUS
 62
     1
100
AcDbVertex
100
AcDb2dVertex
 10
268.401908
 20
482.908344
 30
0.0
  0
VERTEX
  5
6A8
100
AcDbEntity
  8
LAY-9
  6
CONTINUOUS
 62
     1
100
AcDbVertex
100
AcDb2dVertex
 10
268.058991
 20
483.367874
 30
0.0
  0
VERTEX
  5
6A9
100
AcDbEntity
  8
LAY-9
  6
CONTINUOUS
 62
     1
100
AcDbVertex
100
AcDb2dVertex
 10
267.729627
 20
483.836296
 30
0.0
  0
VERTEX
  5
6AA
100
AcDbEntity
  8
LAY-9
  6
CONTINUOUS
 62
     1
100
AcDbVertex
100
AcDb2dVertex
 10
267.420917
 20
484.317607
 30
0.0
  0
VERTEX
  5
6AB
100
AcDbEntity
  8
LAY-9
  6
CONTINUOUS
 62
     1
100
AcDbVertex
100
AcDb2dVertex
 10
267.139961
 20
484.815803
 30
0.0
  0
VERTEX
  5
6AC
100
AcDbEntity
  8
LAY-9
  6
CONTINUOUS
 62
     1
100
AcDbVertex
100
AcDb2dVertex
 10
266.893859
 20
485.334882
 30
0.0
  0
VERTEX
  5
6AD
100
AcDbEntity
  8
LAY-9
  6
CONTINUOUS
 62
     1
100
AcDbVertex
100
AcDb2dVertex
 10
266.689712
 20
485.878841
 30
0.0
  0
VERTEX
  5
6AE
100
AcDbEntity
  8
LAY-9
  6
CONTINUOUS
 62
     1
100
AcDbVertex
100
AcDb2dVertex
 10
266.534619
 20
486.451677
 30
0.0
  0
VERTEX
  5
6AF
100
AcDbEntity
  8
LAY-9
  6
CONTINUOUS
 62
     1
100
AcDbVertex
100
AcDb2dVertex
 10
266.435682
 20
487.057387
 30
0.0
  0
VERTEX
  5
6B0
100
AcDbEntity
  8
LAY-9
  6
CONTINUOUS
 62
     1
100
AcDbVertex
100
AcDb2dVertex
 10
266.4
 20
487.699969
 30
0.0
  0
VERTEX
  5
6B1
100
AcDbEntity
  8
LAY-9
  6
CONTINUOUS
 62
     1
100
AcDbVertex
100
AcDb2dVertex
 10
266.460955
 20
488.650795
 30
0.0
  0
VERTEX
  5
6B2
100
AcDbEntity
  8
LAY-9
  6
CONTINUOUS
 62
     1
100
AcDbVertex
100
AcDb2dVertex
 10
266.632185
 20
489.650506
 30
0.0
  0
VERTEX
  5
6B3
100
AcDbEntity
  8
LAY-9
  6
CONTINUOUS
 62
     1
100
AcDbVertex
100
AcDb2dVertex
 10
266.889232
 20
490.669721
 30
0.0
  0
VERTEX
  5
6B4
100
AcDbEntity
  8
LAY-9
  6
CONTINUOUS
 62
     1
100
AcDbVertex
100
AcDb2dVertex
 10
267.207637
 20
491.67906
 30
0.0
  0
VERTEX
  5
6B5
100
AcDbEntity
  8
LAY-9
  6
CONTINUOUS
 62
     1
100
AcDbVertex
100
AcDb2dVertex
 10
267.562942
 20
492.649142
 30
0.0
  0
VERTEX
  5
6B6
100
AcDbEntity
  8
LAY-9
  6
CONTINUOUS
 62
     1
100
AcDbVertex
100
AcDb2dVertex
 10
267.930689
 20
493.550589
 30
0.0
  0
VERTEX
  5
6B7
100
AcDbEntity
  8
LAY-9
  6
CONTINUOUS
 62
     1
100
AcDbVertex
100
AcDb2dVertex
 10
268.286418
 20
494.354018
 30
0.0
  0
VERTEX
  5
6B8
100
AcDbEntity
  8
LAY-9
  6
CONTINUOUS
 62
     1
100
AcDbVertex
100
AcDb2dVertex
 10
268.605673
 20
495.030052
 30
0.0
  0
VERTEX
  5
6B9
100
AcDbEntity
  8
LAY-9
  6
CONTINUOUS
 62
     1
100
AcDbVertex
100
AcDb2dVertex
 10
268.863993
 20
495.549308
 30
0.0
  0
VERTEX
  5
6BA
100
AcDbEntity
  8
LAY-9
  6
CONTINUOUS
 62
     1
100
AcDbVertex
100
AcDb2dVertex
 10
269.036922
 20
495.882407
 30
0.0
  0
VERTEX
  5
6BB
100
AcDbEntity
  8
LAY-9
  6
CONTINUOUS
 62
     1
100
AcDbVertex
100
AcDb2dVertex
 10
269.1
 20
495.999969
 30
0.0
  0
SEQEND
  5
6BC
100
AcDbEntity
  8
LAY-9
  6
CONTINUOUS
 62
     1
  0
LINE
  5
6BD
100
AcDbEntity
  8
LAY-9
  6
CONTINUOUS
 62
     1
100
AcDbLine
 10
166.999969
 20
464.999984
 30
0.0
 11
268.925232
 21
464.999984
 31
0.0
  0
LINE
  5
6BE
100
AcDbEntity
  8
LAY-10
  6
CONTINUOUS
 62
     5
100
AcDbLine
 10
15.0
 20
15.0
 30
0.0
 11
826.0
 21
15.0
 31
0.0
  0
LINE
  5
6BF
100
AcDbEntity
  8
LAY-10
  6
CONTINUOUS
 62
     5
100
AcDbLine
 10
826.0
 20
15.0
 30
0.0
 11
826.0
 21
579.0
 31
0.0
  0
LINE
  5
6C0
100
AcDbEntity
  8
LAY-10
  6
CONTINUOUS
 62
     5
100
AcDbLine
 10
15.0
 20
15.0
 30
0.0
 11
15.0
 21
579.0
 31
0.0
  0
LINE
  5
6C1
100
AcDbEntity
  8
LAY-10
  6
CONTINUOUS
 62
     5
100
AcDbLine
 10
15.0
 20
579.0
 30
0.0
 11
826.0
 21
579.0
 31
0.0
  0
LINE
  5
6C2
100
AcDbEntity
  8
LAY-10
  6
CONTINUOUS
 62
     5
100
AcDbLine
 10
15.0
 20
40.0
 30
0.0
 11
826.0
 21
40.0
 31
0.0
  0
LINE
  5
6C3
100
AcDbEntity
  8
LAY-10
  6
CONTINUOUS
 62
     1
100
AcDbLine
 10
224.0
 20
40.0
 30
0.0
 11
224.0
 21
15.0
 31
0.0
  0
LINE
  5
6C4
100
AcDbEntity
  8
LAY-10
  6
CONTINUOUS
 62
     1
100
AcDbLine
 10
249.5
 20
40.0
 30
0.0
 11
249.5
 21
15.0
 31
0.0
  0
LINE
  5
6C5
100
AcDbEntity
  8
LAY-10
  6
CONTINUOUS
 62
     1
100
AcDbLine
 10
275.0
 20
40.0
 30
0.0
 11
275.0
 21
15.0
 31
0.0
  0
LINE
  5
6C6
100
AcDbEntity
  8
LAY-10
  6
CONTINUOUS
 62
     1
100
AcDbLine
 10
300.5
 20
40.0
 30
0.0
 11
300.5
 21
15.0
 31
0.0
  0
LINE
  5
6C7
100
AcDbEntity
  8
LAY-10
  6
CONTINUOUS
 62
     1
100
AcDbLine
 10
326.0
 20
40.0
 30
0.0
 11
326.0
 21
15.0
 31
0.0
  0
LINE
  5
6C8
100
AcDbEntity
  8
LAY-10
  6
CONTINUOUS
 62
     1
100
AcDbLine
 10
377.0
 20
40.0
 30
0.0
 11
377.0
 21
15.0
 31
0.0
  0
LINE
  5
6C9
100
AcDbEntity
  8
LAY-10
  6
CONTINUOUS
 62
     1
100
AcDbLine
 10
738.0
 20
40.0
 30
0.0
 11
738.0
 21
15.0
 31
0.0
  0
LINE
  5
6CA
100
AcDbEntity
  8
LAY-10
  6
CONTINUOUS
 62
     1
100
AcDbLine
 10
224.0
 20
32.0
 30
0.0
 11
377.0
 21
32.0
 31
0.0
  0
TEXT
  5
6CB
100
AcDbEntity
  8
LAY-10
  6
CONTINUOUS
 62
     4
100
AcDbText
 10
227.5
 20
33.0
 30
0.0
 40
6.0
  1
検　  図
 41
0.57856
  7
EXCADSTD
 72
     5
 11
246.700001
 21
33.0
 31
0.0
100
AcDbText
  0
TEXT
  5
6CC
100
AcDbEntity
  8
LAY-10
  6
CONTINUOUS
 62
     4
100
AcDbText
 10
253.2
 20
33.0
 30
0.0
 40
6.0
  1
担　　当
 41
0.672
  7
EXCADSTD
 72
     5
 11
272.400001
 21
33.0
 31
0.0
100
AcDbText
  0
TEXT
  5
6CD
100
AcDbEntity
  8
LAY-10
  6
CONTINUOUS
 62
     4
100
AcDbText
 10
278.4
 20
33.0
 30
0.0
 40
6.0
  1
製　　図
 41
0.672
  7
EXCADSTD
 72
     5
 11
297.600001
 21
33.0
 31
0.0
100
AcDbText
  0
TEXT
  5
6CE
100
AcDbEntity
  8
LAY-10
  6
CONTINUOUS
 62
     4
100
AcDbText
 10
303.9
 20
33.0
 30
0.0
 40
6.0
  1
尺　　度
 41
0.672
  7
EXCADSTD
 72
     5
 11
323.100001
 21
33.0
 31
0.0
100
AcDbText
  0
TEXT
  5
6CF
100
AcDbEntity
  8
LAY-10
  6
CONTINUOUS
 62
     4
100
AcDbText
 10
339.5
 20
33.0
 30
0.0
 40
6.0
  1
作成年月日
 41
0.672
  7
EXCADSTD
 72
     5
 11
363.500001
 21
33.0
 31
0.0
100
AcDbText
  0
TEXT
  5
6D0
100
AcDbEntity
  8
LAY-10
  6
CONTINUOUS
 62
   134
100
AcDbText
 10
42.98
 20
20.91
 30
0.0
 40
13.0
  1
日本ドアーチエック製造株式会社
 41
0.653908
  7
EXCADSTD
 72
     5
 11
194.779994
 21
20.91
 31
0.0
100
AcDbText
  0
LINE
  5
6D1
100
AcDbEntity
  8
LAY-10
  6
CONTINUOUS
 62
     1
100
AcDbLine
 10
841.0
 20
0.0
 30
0.0
 11
841.0
 21
2.0
 31
0.0
  0
LINE
  5
6D2
100
AcDbEntity
  8
LAY-10
  6
CONTINUOUS
 62
     1
100
AcDbLine
 10
841.0
 20
592.0
 30
0.0
 11
841.0
 21
594.0
 31
0.0
  0
LINE
  5
6D3
100
AcDbEntity
  8
LAY-10
  6
CONTINUOUS
 62
     1
100
AcDbLine
 10
841.0
 20
594.0
 30
0.0
 11
839.0
 21
594.0
 31
0.0
  0
LINE
  5
6D4
100
AcDbEntity
  8
LAY-10
  6
CONTINUOUS
 62
     1
100
AcDbLine
 10
2.0
 20
594.0
 30
0.0
 11
0.0
 21
594.0
 31
0.0
  0
LINE
  5
6D5
100
AcDbEntity
  8
LAY-10
  6
CONTINUOUS
 62
     1
100
AcDbLine
 10
0.0
 20
594.0
 30
0.0
 11
0.0
 21
592.0
 31
0.0
  0
LINE
  5
6D6
100
AcDbEntity
  8
LAY-10
  6
CONTINUOUS
 62
     1
100
AcDbLine
 10
0.0
 20
2.0
 30
0.0
 11
0.0
 21
0.0
 31
0.0
  0
LINE
  5
6D7
100
AcDbEntity
  8
LAY-10
  6
CONTINUOUS
 62
     1
100
AcDbLine
 10
0.0
 20
0.0
 30
0.0
 11
2.0
 21
0.0
 31
0.0
  0
LINE
  5
6D8
100
AcDbEntity
  8
LAY-10
  6
CONTINUOUS
 62
     1
100
AcDbLine
 10
839.0
 20
0.0
 30
0.0
 11
841.0
 21
0.0
 31
0.0
  0
TEXT
  5
6D9
100
AcDbEntity
  8
LAY-10
  6
CONTINUOUS
 62
     4
100
AcDbText
 10
383.0
 20
33.0
 30
0.0
 40
6.0
  1
図 面 名
 41
0.57856
  7
EXCADSTD
 72
     5
 11
402.200001
 21
33.0
 31
0.0
100
AcDbText
  0
TEXT
  5
6DA
100
AcDbEntity
  8
LAY-10
  6
CONTINUOUS
 62
     4
100
AcDbText
 10
744.0
 20
33.0
 30
0.0
 40
6.0
  1
図面番号
 41
0.672
  7
EXCADSTD
 72
     5
 11
763.200001
 21
33.0
 31
0.0
100
AcDbText
  0
TEXT
  5
6DB
100
AcDbEntity
  8
LAY-10
  6
CONTINUOUS
 62
     2
100
AcDbText
 10
306.5
 20
20.2
 30
0.0
 40
6.0
  1
１／１
 41
0.672
  7
EXCADSTD
 72
     5
 11
320.900001
 21
20.2
 31
0.0
100
AcDbText
  0
TEXT
  5
6DC
100
AcDbEntity
  8
LAY-10
  6
CONTINUOUS
 62
     2
100
AcDbText
 10
332.6
 20
20.2
 30
0.0
 40
6.0
  1
Ｈ１３.　７.　２
 41
0.622617
  7
EXCADSTD
 72
     5
 11
371.000002
 21
20.2
 31
0.0
100
AcDbText
  0
TEXT
  5
6DD
100
AcDbEntity
  8
LAY-10
  6
CONTINUOUS
 62
     2
100
AcDbText
 10
406.828367
 20
19.274519
 30
0.0
 40
10.0
  1
ピボットヒンジ　ＴＯ－１２０(本体埋込型 )　納まり図
 41
0.655621
  7
EXCADSTD
 72
     5
 11
606.828367
 21
19.274519
 31
0.0
100
AcDbText
  0
ENDSEC
  0
SECTION
  2
OBJECTS
  0
DICTIONARY
  5
19
100
AcDbDictionary
  3
ACAD_GROUP
350
1A
  3
ACAD_MLINESTYLE
350
1B
  0
DICTIONARY
  5
1A
102
{ACAD_REACTORS
330
19
102
}
100
AcDbDictionary
  0
DICTIONARY
  5
1B
102
{ACAD_REACTORS
330
19
102
}
100
AcDbDictionary
  3
STANDARD
350
1C
  0
MLINESTYLE
  5
1C
102
{ACAD_REACTORS
330
1B
102
}
100
AcDbMlineStyle
  2
Standard
 70
     0
  3

 62
     0
 51
90.0
 52
90.0
 71
     2
 49
0.5
 62
   256
  6
ByLayer
 49
-0.5
 62
   256
  6
ByLayer
  0
ENDSEC
  0
EOF
