  0
SECTION
  2
HEADER
  9
$ACADVER
  1
AC1014
  9
$ACADMAINTVER
 70
     0
  9
$DWGCODEPAGE
  3
ANSI_932
  9
$INSBASE
 10
0.0
 20
0.0
 30
0.0
  9
$EXTMIN
 10
0.0
 20
0.0
 30
0.0
  9
$EXTMAX
 10
841.0
 20
594.0
 30
0.0
  9
$LIMMIN
 10
0.0
 20
0.0
  9
$LIMMAX
 10
841.0
 20
594.0
  9
$ORTHOMODE
 70
     0
  9
$REGENMODE
 70
     1
  9
$FILLMODE
 70
     1
  9
$QTEXTMODE
 70
     0
  9
$MIRRTEXT
 70
     1
  9
$DRAGMODE
 70
     2
  9
$LTSCALE
 40
1.0
  9
$OSMODE
 70
     0
  9
$ATTMODE
 70
     1
  9
$TEXTSIZE
 40
0.2
  9
$TRACEWID
 40
0.05
  9
$TEXTSTYLE
  7
STANDARD
  9
$CLAYER
  8
LAY-1
  9
$CELTYPE
  6
CONTINUOUS
  9
$CECOLOR
 62
   256
  9
$CELTSCALE
 40
1.0
  9
$DELOBJ
 70
     1
  9
$DISPSILH
 70
     0
  9
$DIMSCALE
 40
1.0
  9
$DIMASZ
 40
0.18
  9
$DIMEXO
 40
0.0625
  9
$DIMDLI
 40
0.38
  9
$DIMRND
 40
0.0
  9
$DIMDLE
 40
0.0
  9
$DIMEXE
 40
0.18
  9
$DIMTP
 40
0.0
  9
$DIMTM
 40
0.0
  9
$DIMTXT
 40
0.18
  9
$DIMCEN
 40
0.09
  9
$DIMTSZ
 40
0.0
  9
$DIMTOL
 70
     0
  9
$DIMLIM
 70
     0
  9
$DIMTIH
 70
     1
  9
$DIMTOH
 70
     1
  9
$DIMSE1
 70
     0
  9
$DIMSE2
 70
     0
  9
$DIMTAD
 70
     0
  9
$DIMZIN
 70
     0
  9
$DIMBLK
  1

  9
$DIMASO
 70
     1
  9
$DIMSHO
 70
     1
  9
$DIMPOST
  1

  9
$DIMAPOST
  1

  9
$DIMALT
 70
     0
  9
$DIMALTD
 70
     2
  9
$DIMALTF
 40
25.4
  9
$DIMLFAC
 40
1.0
  9
$DIMTOFL
 70
     0
  9
$DIMTVP
 40
0.0
  9
$DIMTIX
 70
     0
  9
$DIMSOXD
 70
     0
  9
$DIMSAH
 70
     0
  9
$DIMBLK1
  1

  9
$DIMBLK2
  1

  9
$DIMSTYLE
  2
STANDARD
  9
$DIMCLRD
 70
     0
  9
$DIMCLRE
 70
     0
  9
$DIMCLRT
 70
     0
  9
$DIMTFAC
 40
1.0
  9
$DIMGAP
 40
0.09
  9
$DIMJUST
 70
     0
  9
$DIMSD1
 70
     0
  9
$DIMSD2
 70
     0
  9
$DIMTOLJ
 70
     1
  9
$DIMTZIN
 70
     0
  9
$DIMALTZ
 70
     0
  9
$DIMALTTZ
 70
     0
  9
$DIMFIT
 70
     3
  9
$DIMUPT
 70
     0
  9
$DIMUNIT
 70
     2
  9
$DIMDEC
 70
     4
  9
$DIMTDEC
 70
     4
  9
$DIMALTU
 70
     2
  9
$DIMALTTD
 70
     2
  9
$DIMTXSTY
  7
STANDARD
  9
$DIMAUNIT
 70
     0
  9
$LUNITS
 70
     2
  9
$LUPREC
 70
     4
  9
$SKETCHINC
 40
0.1
  9
$FILLETRAD
 40
0.0
  9
$AUNITS
 70
     0
  9
$AUPREC
 70
     0
  9
$MENU
  1
acad
  9
$ELEVATION
 40
0.0
  9
$PELEVATION
 40
0.0
  9
$THICKNESS
 40
0.0
  9
$LIMCHECK
 70
     0
  9
$BLIPMODE
 70
     1
  9
$CHAMFERA
 40
0.0
  9
$CHAMFERB
 40
0.0
  9
$CHAMFERC
 40
0.0
  9
$CHAMFERD
 40
0.0
  9
$SKPOLY
 70
     0
  9
$TDCREATE
 40
2454542.030274468
  9
$TDUPDATE
 40
2454542.030274468
  9
$TDINDWG
 40
0.0000000000
  9
$TDUSRTIMER
 40
0.0000000000
  9
$USRTIMER
 70
     1
  9
$ANGBASE
 50
0.0
  9
$ANGDIR
 70
     0
  9
$PDMODE
 70
     0
  9
$PDSIZE
 40
0.0
  9
$PLINEWID
 40
0.0
  9
$COORDS
 70
     1
  9
$SPLFRAME
 70
     0
  9
$SPLINETYPE
 70
     6
  9
$SPLINESEGS
 70
     8
  9
$ATTDIA
 70
     0
  9
$ATTREQ
 70
     1
  9
$HANDLING
 70
     1
  9
$HANDSEED
  5
7CC
  9
$SURFTAB1
 70
     6
  9
$SURFTAB2
 70
     6
  9
$SURFTYPE
 70
     6
  9
$SURFU
 70
     6
  9
$SURFV
 70
     6
  9
$UCSNAME
  2

  9
$UCSORG
 10
0.0
 20
0.0
 30
0.0
  9
$UCSXDIR
 10
1.0
 20
0.0
 30
0.0
  9
$UCSYDIR
 10
0.0
 20
1.0
 30
0.0
  9
$PUCSNAME
  2

  9
$PUCSORG
 10
0.0
 20
0.0
 30
0.0
  9
$PUCSXDIR
 10
1.0
 20
0.0
 30
0.0
  9
$PUCSYDIR
 10
0.0
 20
1.0
 30
0.0
  9
$USERI1
 70
     0
  9
$USERI2
 70
     0
  9
$USERI3
 70
     0
  9
$USERI4
 70
     0
  9
$USERI5
 70
     0
  9
$USERR1
 40
0.0
  9
$USERR2
 40
0.0
  9
$USERR3
 40
0.0
  9
$USERR4
 40
0.0
  9
$USERR5
 40
0.0
  9
$WORLDVIEW
 70
     1
  9
$SHADEDGE
 70
     3
  9
$SHADEDIF
 70
    70
  9
$TILEMODE
 70
     1
  9
$MAXACTVP
 70
    16
  9
$PINSBASE
 10
0.0
 20
0.0
 30
0.0
  9
$PLIMCHECK
 70
     0
  9
$PEXTMIN
 10
1.000000E+20
 20
1.000000E+20
 30
1.000000E+20
  9
$PEXTMAX
 10
-1.000000E+20
 20
-1.000000E+20
 30
-1.000000E+20
  9
$PLIMMIN
 10
0.0
 20
0.0
  9
$PLIMMAX
 10
12.0
 20
9.0
  9
$UNITMODE
 70
     0
  9
$VISRETAIN
 70
     0
  9
$PLINEGEN
 70
     1
  9
$PSLTSCALE
 70
     0
  9
$TREEDEPTH
 70
  3020
  9
$PICKSTYLE
 70
     1
  9
$CMLSTYLE
  2
Standard
  9
$CMLJUST
 70
     0
  9
$CMLSCALE
 40
1.0
  9
$PROXYGRAPHICS
 70
     0
  9
$MEASUREMENT
 70
     0
  0
ENDSEC
  0
SECTION
  2
CLASSES
  0
CLASS
  1
LWPOLYLINE
  2
AcDbPolyline
  3
"AutoCAD"
 90
        0
280
     0
281
     1
  0
CLASS
  1
IMAGE
  2
AcDbRasterImage
  3
ISM
 90
      127
280
     0
281
     1
  0
CLASS
  1
OLE2FRAME
  2
AcDbOle2Frame
  3
""
 90
        0
280
     0
281
     1
  0
CLASS
  1
HATCH
  2
AcDbHatch
  3
"ACAD_SEDONA"
 90
        0
280
     0
281
     1
  0
CLASS
  1
DICTIONARYVAR
  2
AcDbDictionaryVar
  3
"AutoCAD"
 90
        0
280
     0
281
     0
  0
CLASS
  1
RASTERVARIABLES
  2
AcDbRasterVariables
  3
ISM
 90
        0
280
     0
281
     0
  0
CLASS
  1
IMAGEDEF
  2
AcDbRasterImageDef
  3
ISM
 90
        0
280
     0
281
     0
  0
CLASS
  1
IMAGEDEF_REACTOR
  2
AcDbRasterImageDefReactor
  3
ISM
 90
        1
280
     0
281
     0
  0
CLASS
  1
IDBUFFER
  2
AcDbIdBuffer
  3
"Acad"
 90
        0
280
     0
281
     0
  0
CLASS
  1
SPATIAL_FILTER
  2
AcDbSpatialFilter
  3
"Acad"
 90
        0
280
     0
281
     0
  0
CLASS
  1
XRECORD
  2
AcDbXrecord
  3
"<Built In>"
 90
        0
280
     0
281
     0
  0
CLASS
  1
SORTENTSTABLE
  2
AcDbSortentsTable
  3
"AutoCAD"
 90
        0
280
     0
281
     0
  0
CLASS
  1
LAYER_INDEX
  2
AcDbLayerIndex
  3
"Acad"
 90
        0
280
     0
281
     0
  0
CLASS
  1
SPATIAL_INDEX
  2
AcDbSpatialIndex
  3
"Acad"
 90
        0
280
     0
281
     0
  0
CLASS
  1
OBJECT_PTR
  2
CAseDLPNTableRecord
  3
"ASE-LPNTableRecord"
 90
        1
280
     0
281
     0
  0
CLASS
  1
LAYOUT
  2
AcDbLayout
  3
"AutoCAD 2000"
 90
        0
280
     0
281
     0
  0
CLASS
  1
PLOTSETTINGS
  2
AcDbPlotSettings
  3
"AutoCAD 2000"
 90
        0
280
     0
281
     0
  0
CLASS
  1
ACDBDICTIONARYWDFLT
  2
AcDbDictionaryWithDefault
  3
"AutoCAD 2000"
 90
        0
280
     0
281
     0
  0
CLASS
  1
ACDBPLACEHOLDER
  2
AcDbPlaceHolder
  3
"AutoCAD 2000"
 90
        0
280
     0
281
     0
  0
CLASS
  1
VBA_PROJECT
  2
AcDbVbaProject
  3
"acadvba"
 90
        0
280
     0
281
     0
  0
CLASS
  1
WIPEOUT
  2
AcDbWipeout
  3
WipeOut|AutoCAD Express Tool|expresstools@autodesk.com
 90
      127
280
     0
281
     1
  0
CLASS
  1
WIPEOUTVARIABLES
  2
AcDbWipeoutVariables
  3
WipeOut|AutoCAD Express Tool|expresstools@autodesk.com
 90
        0
280
     0
281
     0
  0
CLASS
  1
RTEXT
  2
RText
  3
RText|AutoCAD Express Tool|expresstools@autodesk.com
 90
        0
280
     0
281
     1
  0
CLASS
  1
ARCALIGNEDTEXT
  2
AcDbArcAlignedText
  3
ATEXT|AutoCAD Express Tool|expresstools@autodesk.com
 90
        0
280
     0
281
     1
  0
ENDSEC
  0
SECTION
  2
TABLES
  0
TABLE
  2
VPORT
  5
7
100
AcDbSymbolTable
 70
     1
  0
VPORT
  5
15
100
AcDbSymbolTableRecord
100
AcDbViewportTableRecord
  2
*ACTIVE
 70
     0
 10
0.0
 20
0.0
 11
1.0
 21
1.0
 12
420.5
 22
297.0
 13
0.0
 23
0.0
 14
1.0
 24
1.0
 15
0.0
 25
0.0
 16
0.0
 26
0.0
 36
1.0
 17
0.0
 27
0.0
 37
0.0
 40
594.0
 41
1.722533
 42
50.0
 43
0.0
 44
0.0
 50
0.0
 51
0.0
 71
     0
 72
   100
 73
     1
 74
     1
 75
     0
 76
     0
 77
     0
 78
     0
  0
ENDTAB
  0
TABLE
  2
LTYPE
  5
4
100
AcDbSymbolTable
 70
     9
  0
LTYPE
  5
11
100
AcDbSymbolTableRecord
100
AcDbLinetypeTableRecord
  2
BYBLOCK
 70
    64
  3

 72
    65
 73
     0
 40
0.0
  0
LTYPE
  5
12
100
AcDbSymbolTableRecord
100
AcDbLinetypeTableRecord
  2
BYLAYER
 70
    64
  3

 72
    65
 73
     0
 40
0.0
  0
LTYPE
  5
13
100
AcDbSymbolTableRecord
100
AcDbLinetypeTableRecord
  2
CONTINUOUS
 70
    64
  3
実線
 72
    65
 73
     0
 40
0.0
  0
LTYPE
  5
1D
100
AcDbSymbolTableRecord
100
AcDbLinetypeTableRecord
  2
DASHED
 70
    64
  3
Dashed __ __ __ __ __ __ __ __ __ __ __ __ __ _
 72
    65
 73
     2
 40
19.05
 49
12.7
 74
     0
 49
-6.35
 74
     0
  0
LTYPE
  5
1E
100
AcDbSymbolTableRecord
100
AcDbLinetypeTableRecord
  2
DASHED2
 70
    64
  3
Dashed (.5x) _ _ _ _ _ _ _ _ _ _ _ _ _ _ _ _ _ 
 72
    65
 73
     2
 40
9.525
 49
6.35
 74
     0
 49
-3.175
 74
     0
  0
LTYPE
  5
1F
100
AcDbSymbolTableRecord
100
AcDbLinetypeTableRecord
  2
DASHDOT
 70
    64
  3
Dash dot __ . __ . __ . __ . __ . __ . __ . __
 72
    65
 73
     4
 40
25.4
 49
12.7
 74
     0
 49
-6.35
 74
     0
 49
0.0
 74
     0
 49
-6.35
 74
     0
  0
LTYPE
  5
20
100
AcDbSymbolTableRecord
100
AcDbLinetypeTableRecord
  2
DIVIDE
 70
    64
  3
Divide ____ . . ____ . . ____ . . ____ . . ____
 72
    65
 73
     6
 40
31.75
 49
12.7
 74
     0
 49
-6.35
 74
     0
 49
0.0
 74
     0
 49
-6.35
 74
     0
 49
0.0
 74
     0
 49
-6.35
 74
     0
  0
LTYPE
  5
21
100
AcDbSymbolTableRecord
100
AcDbLinetypeTableRecord
  2
ACAD_ISO06W100
 70
    64
  3
ISO long-dash triple-dot ____ ... ____ ... ____
 72
    65
 73
     8
 40
36.0
 49
24.0
 74
     0
 49
-3.0
 74
     0
 49
0.0
 74
     0
 49
-3.0
 74
     0
 49
0.0
 74
     0
 49
-3.0
 74
     0
 49
0.0
 74
     0
 49
-3.0
 74
     0
  0
LTYPE
  5
22
100
AcDbSymbolTableRecord
100
AcDbLinetypeTableRecord
  2
ACAD_ISO15W100
 70
    64
  3
ISO double-dash triple-dot __ __ . . . __ __ . .
 72
    65
 73
    10
 40
39.0
 49
12.0
 74
     0
 49
-3.0
 74
     0
 49
12.0
 74
     0
 49
-3.0
 74
     0
 49
0.0
 74
     0
 49
-3.0
 74
     0
 49
0.0
 74
     0
 49
-3.0
 74
     0
 49
0.0
 74
     0
 49
-3.0
 74
     0
  0
ENDTAB
  0
TABLE
  2
LAYER
  5
2
100
AcDbSymbolTable
 70
     9
  0
LAYER
  5
14
100
AcDbSymbolTableRecord
100
AcDbLayerTableRecord
  2
0
 70
     0
 62
     7
  6
CONTINUOUS
  0
LAYER
  5
25
100
AcDbSymbolTableRecord
100
AcDbLayerTableRecord
  2
LAY-1
 70
    64
 62
     3
  6
CONTINUOUS
  0
LAYER
  5
26
100
AcDbSymbolTableRecord
100
AcDbLayerTableRecord
  2
LAY-2
 70
    64
 62
     3
  6
CONTINUOUS
  0
LAYER
  5
27
100
AcDbSymbolTableRecord
100
AcDbLayerTableRecord
  2
LAY-3
 70
    64
 62
     3
  6
CONTINUOUS
  0
LAYER
  5
28
100
AcDbSymbolTableRecord
100
AcDbLayerTableRecord
  2
LAY-4
 70
    64
 62
     3
  6
CONTINUOUS
  0
LAYER
  5
29
100
AcDbSymbolTableRecord
100
AcDbLayerTableRecord
  2
LAY-5
 70
    64
 62
     1
  6
DASHDOT
  0
LAYER
  5
2A
100
AcDbSymbolTableRecord
100
AcDbLayerTableRecord
  2
LAY-6
 70
    64
 62
     2
  6
CONTINUOUS
  0
LAYER
  5
2B
100
AcDbSymbolTableRecord
100
AcDbLayerTableRecord
  2
LAY-9
 70
    64
 62
     1
  6
CONTINUOUS
  0
LAYER
  5
2C
100
AcDbSymbolTableRecord
100
AcDbLayerTableRecord
  2
LAY-10
 70
    64
 62
     5
  6
CONTINUOUS
  0
ENDTAB
  0
TABLE
  2
STYLE
  5
3
100
AcDbSymbolTable
 70
     3
  0
STYLE
  5
17
100
AcDbSymbolTableRecord
100
AcDbTextStyleTableRecord
  2
STANDARD
 70
     0
 40
0.0
 41
1.0
 50
0.0
 71
     0
 42
0.0
  3
monotxt
  4
extfont
  0
STYLE
  5
23
100
AcDbSymbolTableRecord
100
AcDbTextStyleTableRecord
  2
EXCADSTD
 70
    64
 40
0.0
 41
1.0
 50
0.0
 71
     0
 42
0.2
  3
monotxt
  4
extfont
  0
STYLE
  5
24
100
AcDbSymbolTableRecord
100
AcDbTextStyleTableRecord
  2
EXCADVERT
 70
    68
 40
0.0
 41
1.0
 50
0.0
 71
     0
 42
0.286885
  3
monotxt
  4
extfont
  0
ENDTAB
  0
TABLE
  2
VIEW
  5
5
100
AcDbSymbolTable
 70
     0
  0
ENDTAB
  0
TABLE
  2
UCS
  5
6
100
AcDbSymbolTable
 70
     0
  0
ENDTAB
  0
TABLE
  2
APPID
  5
8
100
AcDbSymbolTable
 70
     1
  0
APPID
  5
16
100
AcDbSymbolTableRecord
100
AcDbRegAppTableRecord
  2
ACAD
 70
     0
  0
ENDTAB
  0
TABLE
  2
DIMSTYLE
  5
9
100
AcDbSymbolTable
 70
     1
  0
DIMSTYLE
105
18
100
AcDbSymbolTableRecord
100
AcDbDimStyleTableRecord
  2
STANDARD
 70
     0
  3

  4

  5

  6

  7

 40
1.0
 41
0.18
 42
0.0625
 43
0.38
 44
0.18
 45
0.0
 46
0.0
 47
0.0
 48
0.0
 71
     0
 72
     0
 73
     1
 74
     1
 75
     0
 76
     0
 77
     0
 78
     0
140
0.18
141
0.09
142
0.0
143
25.4
144
1.0
145
0.0
146
1.0
147
0.09
170
     0
171
     2
172
     1
173
     0
174
     0
175
     0
176
     0
177
     0
178
     0
270
     2
271
     4
272
     4
273
     2
274
     2
275
     0
280
     0
281
     0
282
     0
283
     1
284
     0
285
     0
286
     0
287
     3
288
     0
340
17
  0
ENDTAB
  0
TABLE
  2
BLOCK_RECORD
  5
1
100
AcDbSymbolTable
 70
    19
  0
BLOCK_RECORD
  5
A
100
AcDbSymbolTableRecord
100
AcDbBlockTableRecord
  2
*MODEL_SPACE
  0
BLOCK_RECORD
  5
B
100
AcDbSymbolTableRecord
100
AcDbBlockTableRecord
  2
*PAPER_SPACE
  0
BLOCK_RECORD
  5
2D
100
AcDbSymbolTableRecord
100
AcDbBlockTableRecord
  2
_EX_NORM
  0
BLOCK_RECORD
  5
2E
100
AcDbSymbolTableRecord
100
AcDbBlockTableRecord
  2
_EX_BNORM
  0
BLOCK_RECORD
  5
2F
100
AcDbSymbolTableRecord
100
AcDbBlockTableRecord
  2
_EX_BCIR
  0
BLOCK_RECORD
  5
30
100
AcDbSymbolTableRecord
100
AcDbBlockTableRecord
  2
_EX_RCIVIL
  0
BLOCK_RECORD
  5
31
100
AcDbSymbolTableRecord
100
AcDbBlockTableRecord
  2
_EX_SLANT
  0
BLOCK_RECORD
  5
32
100
AcDbSymbolTableRecord
100
AcDbBlockTableRecord
  2
_EX_NONE
  0
BLOCK_RECORD
  5
33
100
AcDbSymbolTableRecord
100
AcDbBlockTableRecord
  2
_EX_CIVIL
  0
BLOCK_RECORD
  5
34
100
AcDbSymbolTableRecord
100
AcDbBlockTableRecord
  2
_EX_WCIR
  0
BLOCK_RECORD
  5
35
100
AcDbSymbolTableRecord
100
AcDbBlockTableRecord
  2
_EX_WCIR2
  0
BLOCK_RECORD
  5
36
100
AcDbSymbolTableRecord
100
AcDbBlockTableRecord
  2
_EX_WNORM
  0
BLOCK_RECORD
  5
37
100
AcDbSymbolTableRecord
100
AcDbBlockTableRecord
  2
_EX_NNORM
  0
BLOCK_RECORD
  5
38
100
AcDbSymbolTableRecord
100
AcDbBlockTableRecord
  2
_EX_BBOX
  0
BLOCK_RECORD
  5
39
100
AcDbSymbolTableRecord
100
AcDbBlockTableRecord
  2
_EX_WBOX
  0
BLOCK_RECORD
  5
3A
100
AcDbSymbolTableRecord
100
AcDbBlockTableRecord
  2
_EX_INTEGRAL
  0
BLOCK_RECORD
  5
3B
100
AcDbSymbolTableRecord
100
AcDbBlockTableRecord
  2
SYM-1
  0
BLOCK_RECORD
  5
3C
100
AcDbSymbolTableRecord
100
AcDbBlockTableRecord
  2
SYM-2
  0
BLOCK_RECORD
  5
3D
100
AcDbSymbolTableRecord
100
AcDbBlockTableRecord
  2
SYM-3
  0
BLOCK_RECORD
  5
3E
100
AcDbSymbolTableRecord
100
AcDbBlockTableRecord
  2
SYM-4
  0
BLOCK_RECORD
  5
3F
100
AcDbSymbolTableRecord
100
AcDbBlockTableRecord
  2
SYM-5
  0
ENDTAB
  0
ENDSEC
  0
SECTION
  2
BLOCKS
  0
BLOCK
  5
D
100
AcDbEntity
  8
0
100
AcDbBlockBegin
  2
*MODEL_SPACE
 70
     0
 10
0.0
 20
0.0
 30
0.0
  3
*MODEL_SPACE
  1

  0
ENDBLK
  5
E
100
AcDbEntity
  8
0
100
AcDbBlockEnd
  0
BLOCK
  5
F
100
AcDbEntity
 67
     1
  8
0
100
AcDbBlockBegin
  2
*PAPER_SPACE
 70
     0
 10
0.0
 20
0.0
 30
0.0
  3
*PAPER_SPACE
  1

  0
ENDBLK
  5
10
100
AcDbEntity
 67
     1
  8
0
100
AcDbBlockEnd
  0
BLOCK
  5
40
100
AcDbEntity
  8
0
100
AcDbBlockBegin
  2
_EX_NORM
 70
     0
 10
0.0
 20
0.0
 30
0.0
  3
_EX_NORM
  1

  0
LINE
  5
41
100
AcDbEntity
  8
0
  6
CONTINUOUS
 62
     0
100
AcDbLine
 10
0.0
 20
0.0
 30
0.0
 11
-1.0
 21
0.0
 31
0.0
  0
LINE
  5
42
100
AcDbEntity
  8
0
  6
CONTINUOUS
 62
     0
100
AcDbLine
 10
0.0
 20
0.0
 30
0.0
 11
-1.0
 21
0.166667
 31
0.0
  0
LINE
  5
43
100
AcDbEntity
  8
0
  6
CONTINUOUS
 62
     0
100
AcDbLine
 10
0.0
 20
0.0
 30
0.0
 11
-1.0
 21
-0.166667
 31
0.0
  0
ENDBLK
  5
44
100
AcDbEntity
  8
0
100
AcDbBlockEnd
  0
BLOCK
  5
45
100
AcDbEntity
  8
0
100
AcDbBlockBegin
  2
_EX_BNORM
 70
     0
 10
0.0
 20
0.0
 30
0.0
  3
_EX_BNORM
  1

  0
LINE
  5
46
100
AcDbEntity
  8
0
  6
CONTINUOUS
 62
     0
100
AcDbLine
 10
0.0
 20
0.0
 30
0.0
 11
-1.0
 21
0.0
 31
0.0
  0
LINE
  5
47
100
AcDbEntity
  8
0
  6
CONTINUOUS
 62
     0
100
AcDbLine
 10
0.0
 20
0.0
 30
0.0
 11
-1.0
 21
0.166667
 31
0.0
  0
LINE
  5
48
100
AcDbEntity
  8
0
  6
CONTINUOUS
 62
     0
100
AcDbLine
 10
0.0
 20
0.0
 30
0.0
 11
-1.0
 21
-0.166667
 31
0.0
  0
LINE
  5
49
100
AcDbEntity
  8
0
  6
CONTINUOUS
 62
     0
100
AcDbLine
 10
0.0
 20
0.0
 30
0.0
 11
-1.0
 21
0.083333
 31
0.0
  0
LINE
  5
4A
100
AcDbEntity
  8
0
  6
CONTINUOUS
 62
     0
100
AcDbLine
 10
0.0
 20
0.0
 30
0.0
 11
-1.0
 21
-0.083333
 31
0.0
  0
LINE
  5
4B
100
AcDbEntity
  8
0
  6
CONTINUOUS
 62
     0
100
AcDbLine
 10
-1.0
 20
0.166667
 30
0.0
 11
-1.0
 21
-0.166667
 31
0.0
  0
ENDBLK
  5
4C
100
AcDbEntity
  8
0
100
AcDbBlockEnd
  0
BLOCK
  5
4D
100
AcDbEntity
  8
0
100
AcDbBlockBegin
  2
_EX_BCIR
 70
     0
 10
0.0
 20
0.0
 30
0.0
  3
_EX_BCIR
  1

  0
LINE
  5
4E
100
AcDbEntity
  8
0
  6
CONTINUOUS
 62
     0
100
AcDbLine
 10
0.0
 20
0.0
 30
0.0
 11
-1.0
 21
0.0
 31
0.0
  0
CIRCLE
  5
4F
100
AcDbEntity
  8
0
  6
CONTINUOUS
 62
     0
100
AcDbCircle
 10
0.0
 20
0.0
 30
0.0
 40
0.5
  0
CIRCLE
  5
50
100
AcDbEntity
  8
0
  6
CONTINUOUS
 62
     0
100
AcDbCircle
 10
0.0
 20
0.0
 30
0.0
 40
0.25
  0
ENDBLK
  5
51
100
AcDbEntity
  8
0
100
AcDbBlockEnd
  0
BLOCK
  5
52
100
AcDbEntity
  8
0
100
AcDbBlockBegin
  2
_EX_RCIVIL
 70
     0
 10
0.0
 20
0.0
 30
0.0
  3
_EX_RCIVIL
  1

  0
LINE
  5
53
100
AcDbEntity
  8
0
  6
CONTINUOUS
 62
     0
100
AcDbLine
 10
0.0
 20
0.0
 30
0.0
 11
-1.0
 21
0.0
 31
0.0
  0
LINE
  5
54
100
AcDbEntity
  8
0
  6
CONTINUOUS
 62
     0
100
AcDbLine
 10
-1.0
 20
-0.25
 30
0.0
 11
0.0
 21
-0.25
 31
0.0
  0
LINE
  5
55
100
AcDbEntity
  8
0
  6
CONTINUOUS
 62
     0
100
AcDbLine
 10
-1.0
 20
-0.125
 30
0.0
 11
0.0
 21
-0.125
 31
0.0
  0
ENDBLK
  5
56
100
AcDbEntity
  8
0
100
AcDbBlockEnd
  0
BLOCK
  5
57
100
AcDbEntity
  8
0
100
AcDbBlockBegin
  2
_EX_SLANT
 70
     0
 10
0.0
 20
0.0
 30
0.0
  3
_EX_SLANT
  1

  0
LINE
  5
58
100
AcDbEntity
  8
0
  6
CONTINUOUS
 62
     0
100
AcDbLine
 10
0.0
 20
0.0
 30
0.0
 11
-1.0
 21
0.0
 31
0.0
  0
LINE
  5
59
100
AcDbEntity
  8
0
  6
CONTINUOUS
 62
     0
100
AcDbLine
 10
0.707107
 20
0.707107
 30
0.0
 11
-0.707107
 21
-0.707107
 31
0.0
  0
ENDBLK
  5
5A
100
AcDbEntity
  8
0
100
AcDbBlockEnd
  0
BLOCK
  5
5B
100
AcDbEntity
  8
0
100
AcDbBlockBegin
  2
_EX_NONE
 70
     0
 10
0.0
 20
0.0
 30
0.0
  3
_EX_NONE
  1

  0
LINE
  5
5C
100
AcDbEntity
  8
0
  6
CONTINUOUS
 62
     0
100
AcDbLine
 10
0.0
 20
0.0
 30
0.0
 11
-1.0
 21
0.0
 31
0.0
  0
ENDBLK
  5
5D
100
AcDbEntity
  8
0
100
AcDbBlockEnd
  0
BLOCK
  5
5E
100
AcDbEntity
  8
0
100
AcDbBlockBegin
  2
_EX_CIVIL
 70
     0
 10
0.0
 20
0.0
 30
0.0
  3
_EX_CIVIL
  1

  0
LINE
  5
5F
100
AcDbEntity
  8
0
  6
CONTINUOUS
 62
     0
100
AcDbLine
 10
0.0
 20
0.0
 30
0.0
 11
-1.0
 21
0.0
 31
0.0
  0
LINE
  5
60
100
AcDbEntity
  8
0
  6
CONTINUOUS
 62
     0
100
AcDbLine
 10
-1.0
 20
0.25
 30
0.0
 11
0.0
 21
0.25
 31
0.0
  0
LINE
  5
61
100
AcDbEntity
  8
0
  6
CONTINUOUS
 62
     0
100
AcDbLine
 10
-1.0
 20
0.125
 30
0.0
 11
0.0
 21
0.125
 31
0.0
  0
ENDBLK
  5
62
100
AcDbEntity
  8
0
100
AcDbBlockEnd
  0
BLOCK
  5
63
100
AcDbEntity
  8
0
100
AcDbBlockBegin
  2
_EX_WCIR
 70
     0
 10
0.0
 20
0.0
 30
0.0
  3
_EX_WCIR
  1

  0
LINE
  5
64
100
AcDbEntity
  8
0
  6
CONTINUOUS
 62
     0
100
AcDbLine
 10
0.0
 20
0.0
 30
0.0
 11
-1.0
 21
0.0
 31
0.0
  0
CIRCLE
  5
65
100
AcDbEntity
  8
0
  6
CONTINUOUS
 62
     0
100
AcDbCircle
 10
0.0
 20
0.0
 30
0.0
 40
0.5
  0
ENDBLK
  5
66
100
AcDbEntity
  8
0
100
AcDbBlockEnd
  0
BLOCK
  5
67
100
AcDbEntity
  8
0
100
AcDbBlockBegin
  2
_EX_WCIR2
 70
     0
 10
0.0
 20
0.0
 30
0.0
  3
_EX_WCIR2
  1

  0
LINE
  5
68
100
AcDbEntity
  8
0
  6
CONTINUOUS
 62
     0
100
AcDbLine
 10
-0.5
 20
0.0
 30
0.0
 11
-1.0
 21
0.0
 31
0.0
  0
CIRCLE
  5
69
100
AcDbEntity
  8
0
  6
CONTINUOUS
 62
     0
100
AcDbCircle
 10
0.0
 20
0.0
 30
0.0
 40
0.5
  0
ENDBLK
  5
6A
100
AcDbEntity
  8
0
100
AcDbBlockEnd
  0
BLOCK
  5
6B
100
AcDbEntity
  8
0
100
AcDbBlockBegin
  2
_EX_WNORM
 70
     0
 10
0.0
 20
0.0
 30
0.0
  3
_EX_WNORM
  1

  0
LINE
  5
6C
100
AcDbEntity
  8
0
  6
CONTINUOUS
 62
     0
100
AcDbLine
 10
-1.0
 20
0.0
 30
0.0
 11
-1.0
 21
0.0
 31
0.0
  0
LINE
  5
6D
100
AcDbEntity
  8
0
  6
CONTINUOUS
 62
     0
100
AcDbLine
 10
0.0
 20
0.0
 30
0.0
 11
-1.0
 21
0.166667
 31
0.0
  0
LINE
  5
6E
100
AcDbEntity
  8
0
  6
CONTINUOUS
 62
     0
100
AcDbLine
 10
0.0
 20
0.0
 30
0.0
 11
-1.0
 21
-0.166667
 31
0.0
  0
LINE
  5
6F
100
AcDbEntity
  8
0
  6
CONTINUOUS
 62
     0
100
AcDbLine
 10
-1.0
 20
0.166667
 30
0.0
 11
-1.0
 21
-0.166667
 31
0.0
  0
ENDBLK
  5
70
100
AcDbEntity
  8
0
100
AcDbBlockEnd
  0
BLOCK
  5
71
100
AcDbEntity
  8
0
100
AcDbBlockBegin
  2
_EX_NNORM
 70
     0
 10
0.0
 20
0.0
 30
0.0
  3
_EX_NNORM
  1

  0
LINE
  5
72
100
AcDbEntity
  8
0
  6
CONTINUOUS
 62
     0
100
AcDbLine
 10
0.0
 20
0.0
 30
0.0
 11
-1.0
 21
0.0
 31
0.0
  0
LINE
  5
73
100
AcDbEntity
  8
0
  6
CONTINUOUS
 62
     0
100
AcDbLine
 10
0.0
 20
0.0
 30
0.0
 11
-1.0
 21
0.166667
 31
0.0
  0
LINE
  5
74
100
AcDbEntity
  8
0
  6
CONTINUOUS
 62
     0
100
AcDbLine
 10
0.0
 20
0.0
 30
0.0
 11
-1.0
 21
-0.166667
 31
0.0
  0
LINE
  5
75
100
AcDbEntity
  8
0
  6
CONTINUOUS
 62
     0
100
AcDbLine
 10
-1.0
 20
0.166667
 30
0.0
 11
-1.0
 21
-0.166667
 31
0.0
  0
ENDBLK
  5
76
100
AcDbEntity
  8
0
100
AcDbBlockEnd
  0
BLOCK
  5
77
100
AcDbEntity
  8
0
100
AcDbBlockBegin
  2
_EX_BBOX
 70
     0
 10
0.0
 20
0.0
 30
0.0
  3
_EX_BBOX
  1

  0
LINE
  5
78
100
AcDbEntity
  8
0
  6
CONTINUOUS
 62
     0
100
AcDbLine
 10
0.0
 20
0.0
 30
0.0
 11
-1.0
 21
0.0
 31
0.0
  0
LINE
  5
79
100
AcDbEntity
  8
0
  6
CONTINUOUS
 62
     0
100
AcDbLine
 10
-0.5
 20
0.5
 30
0.0
 11
0.5
 21
0.5
 31
0.0
  0
LINE
  5
7A
100
AcDbEntity
  8
0
  6
CONTINUOUS
 62
     0
100
AcDbLine
 10
0.5
 20
0.5
 30
0.0
 11
0.5
 21
-0.5
 31
0.0
  0
LINE
  5
7B
100
AcDbEntity
  8
0
  6
CONTINUOUS
 62
     0
100
AcDbLine
 10
0.5
 20
-0.5
 30
0.0
 11
-0.5
 21
-0.5
 31
0.0
  0
LINE
  5
7C
100
AcDbEntity
  8
0
  6
CONTINUOUS
 62
     0
100
AcDbLine
 10
-0.5
 20
-0.5
 30
0.0
 11
-0.5
 21
0.5
 31
0.0
  0
LINE
  5
7D
100
AcDbEntity
  8
0
  6
CONTINUOUS
 62
     0
100
AcDbLine
 10
-0.25
 20
0.25
 30
0.0
 11
0.25
 21
0.25
 31
0.0
  0
LINE
  5
7E
100
AcDbEntity
  8
0
  6
CONTINUOUS
 62
     0
100
AcDbLine
 10
0.25
 20
0.25
 30
0.0
 11
0.25
 21
-0.25
 31
0.0
  0
LINE
  5
7F
100
AcDbEntity
  8
0
  6
CONTINUOUS
 62
     0
100
AcDbLine
 10
0.25
 20
-0.25
 30
0.0
 11
-0.25
 21
-0.25
 31
0.0
  0
LINE
  5
80
100
AcDbEntity
  8
0
  6
CONTINUOUS
 62
     0
100
AcDbLine
 10
-0.25
 20
-0.25
 30
0.0
 11
-0.25
 21
0.25
 31
0.0
  0
ENDBLK
  5
81
100
AcDbEntity
  8
0
100
AcDbBlockEnd
  0
BLOCK
  5
82
100
AcDbEntity
  8
0
100
AcDbBlockBegin
  2
_EX_WBOX
 70
     0
 10
0.0
 20
0.0
 30
0.0
  3
_EX_WBOX
  1

  0
LINE
  5
83
100
AcDbEntity
  8
0
  6
CONTINUOUS
 62
     0
100
AcDbLine
 10
-0.5
 20
0.0
 30
0.0
 11
-1.0
 21
0.0
 31
0.0
  0
LINE
  5
84
100
AcDbEntity
  8
0
  6
CONTINUOUS
 62
     0
100
AcDbLine
 10
-0.5
 20
0.5
 30
0.0
 11
0.5
 21
0.5
 31
0.0
  0
LINE
  5
85
100
AcDbEntity
  8
0
  6
CONTINUOUS
 62
     0
100
AcDbLine
 10
0.5
 20
0.5
 30
0.0
 11
0.5
 21
-0.5
 31
0.0
  0
LINE
  5
86
100
AcDbEntity
  8
0
  6
CONTINUOUS
 62
     0
100
AcDbLine
 10
0.5
 20
-0.5
 30
0.0
 11
-0.5
 21
-0.5
 31
0.0
  0
LINE
  5
87
100
AcDbEntity
  8
0
  6
CONTINUOUS
 62
     0
100
AcDbLine
 10
-0.5
 20
-0.5
 30
0.0
 11
-0.5
 21
0.5
 31
0.0
  0
ENDBLK
  5
88
100
AcDbEntity
  8
0
100
AcDbBlockEnd
  0
BLOCK
  5
89
100
AcDbEntity
  8
0
100
AcDbBlockBegin
  2
_EX_INTEGRAL
 70
     0
 10
0.0
 20
0.0
 30
0.0
  3
_EX_INTEGRAL
  1

  0
LINE
  5
8A
100
AcDbEntity
  8
0
  6
CONTINUOUS
 62
     0
100
AcDbLine
 10
0.0
 20
0.0
 30
0.0
 11
-1.0
 21
0.0
 31
0.0
  0
ARC
  5
8B
100
AcDbEntity
  8
0
  6
CONTINUOUS
 62
     0
100
AcDbCircle
 10
0.542115
 20
0.164992
 30
0.0
 40
0.56667
100
AcDbArc
 50
73.07249
 51
196.927513
  0
ARC
  5
8C
100
AcDbEntity
  8
0
  6
CONTINUOUS
 62
     0
100
AcDbCircle
 10
-0.542115
 20
-0.164992
 30
0.0
 40
0.56667
100
AcDbArc
 50
253.072487
 51
16.927513
  0
ENDBLK
  5
8D
100
AcDbEntity
  8
0
100
AcDbBlockEnd
  0
BLOCK
  5
8E
100
AcDbEntity
  8
0
100
AcDbBlockBegin
  2
SYM-1
 70
     0
 10
0.0
 20
0.0
 30
0.0
  3
SYM-1
  1

  0
TEXT
  5
8F
100
AcDbEntity
  8
0
  6
CONTINUOUS
 62
     2
100
AcDbText
 10
-2.7
 20
-1.0
 30
0.0
 40
5.0
  1
Ｐ
 41
0.672
  7
EXCADSTD
 72
     5
 11
0.5
 21
-1.0
 31
0.0
100
AcDbText
  0
TEXT
  5
90
100
AcDbEntity
  8
0
  6
CONTINUOUS
 62
     2
100
AcDbText
 10
-1.8
 20
-0.9
 30
0.0
 40
5.0
  1
Ｌ
 41
0.672
  7
EXCADSTD
 72
     5
 11
1.4
 21
-0.9
 31
0.0
100
AcDbText
  0
ENDBLK
  5
91
100
AcDbEntity
  8
0
100
AcDbBlockEnd
  0
BLOCK
  5
92
100
AcDbEntity
  8
0
100
AcDbBlockBegin
  2
SYM-2
 70
     0
 10
0.0
 20
0.0
 30
0.0
  3
SYM-2
  1

  0
TEXT
  5
93
100
AcDbEntity
  8
0
  6
CONTINUOUS
 62
     2
100
AcDbText
 10
-2.828427
 20
-2.828427
 30
0.0
 40
5.656854
  1
２
 41
0.84
  7
EXCADSTD
 72
     5
 11
1.697056
 21
-2.828427
 31
0.0
100
AcDbText
  0
CIRCLE
  5
94
100
AcDbEntity
  8
0
  6
CONTINUOUS
 62
     1
100
AcDbCircle
 10
0.0
 20
0.0
 30
0.0
 40
4.0
  0
TEXT
  5
95
100
AcDbEntity
  8
0
  6
CONTINUOUS
 62
     2
100
AcDbText
 10
6.6
 20
-3.2
 30
0.0
 40
7.0
  1
トップピボット（ドア側）
 41
0.672
  7
EXCADSTD
 72
     5
 11
73.799999
 21
-3.2
 31
0.0
100
AcDbText
  0
LINE
  5
96
100
AcDbEntity
  8
0
  6
CONTINUOUS
 62
     1
100
AcDbLine
 10
4.0
 20
-3.7
 30
0.0
 11
71.0
 21
-3.7
 31
0.0
  0
ENDBLK
  5
97
100
AcDbEntity
  8
0
100
AcDbBlockEnd
  0
BLOCK
  5
98
100
AcDbEntity
  8
0
100
AcDbBlockBegin
  2
SYM-3
 70
     0
 10
0.0
 20
0.0
 30
0.0
  3
SYM-3
  1

  0
TEXT
  5
99
100
AcDbEntity
  8
0
  6
CONTINUOUS
 62
     2
100
AcDbText
 10
-2.828427
 20
-2.828427
 30
0.0
 40
5.656854
  1
３
 41
0.84
  7
EXCADSTD
 72
     5
 11
1.697056
 21
-2.828427
 31
0.0
100
AcDbText
  0
CIRCLE
  5
9A
100
AcDbEntity
  8
0
  6
CONTINUOUS
 62
     1
100
AcDbCircle
 10
0.0
 20
0.0
 30
0.0
 40
4.0
  0
TEXT
  5
9B
100
AcDbEntity
  8
0
  6
CONTINUOUS
 62
     2
100
AcDbText
 10
6.6
 20
-3.2
 30
0.0
 40
7.0
  1
ア　ー　ム
 41
0.672
  7
EXCADSTD
 72
     5
 11
34.6
 21
-3.2
 31
0.0
100
AcDbText
  0
LINE
  5
9C
100
AcDbEntity
  8
0
  6
CONTINUOUS
 62
     1
100
AcDbLine
 10
4.0
 20
-3.7
 30
0.0
 11
34.9
 21
-3.7
 31
0.0
  0
ENDBLK
  5
9D
100
AcDbEntity
  8
0
100
AcDbBlockEnd
  0
BLOCK
  5
9E
100
AcDbEntity
  8
0
100
AcDbBlockBegin
  2
SYM-4
 70
     0
 10
0.0
 20
0.0
 30
0.0
  3
SYM-4
  1

  0
TEXT
  5
9F
100
AcDbEntity
  8
0
  6
CONTINUOUS
 62
     2
100
AcDbText
 10
-2.828427
 20
-2.828427
 30
0.0
 40
5.656854
  1
４
 41
0.84
  7
EXCADSTD
 72
     5
 11
1.697056
 21
-2.828427
 31
0.0
100
AcDbText
  0
CIRCLE
  5
A0
100
AcDbEntity
  8
0
  6
CONTINUOUS
 62
     1
100
AcDbCircle
 10
0.0
 20
0.0
 30
0.0
 40
4.0
  0
TEXT
  5
A1
100
AcDbEntity
  8
0
  6
CONTINUOUS
 62
     2
100
AcDbText
 10
6.6
 20
-3.2
 30
0.0
 40
7.0
  1
床面軸座
 41
0.672
  7
EXCADSTD
 72
     5
 11
29.0
 21
-3.2
 31
0.0
100
AcDbText
  0
LINE
  5
A2
100
AcDbEntity
  8
0
  6
CONTINUOUS
 62
     1
100
AcDbLine
 10
4.0
 20
-3.7
 30
0.0
 11
29.3
 21
-3.7
 31
0.0
  0
ENDBLK
  5
A3
100
AcDbEntity
  8
0
100
AcDbBlockEnd
  0
BLOCK
  5
A4
100
AcDbEntity
  8
0
100
AcDbBlockBegin
  2
SYM-5
 70
     0
 10
0.0
 20
0.0
 30
0.0
  3
SYM-5
  1

  0
TEXT
  5
A5
100
AcDbEntity
  8
0
  6
CONTINUOUS
 62
     2
100
AcDbText
 10
-2.828427
 20
-2.828427
 30
0.0
 40
5.656854
  1
１
 41
0.84
  7
EXCADSTD
 72
     5
 11
1.697056
 21
-2.828427
 31
0.0
100
AcDbText
  0
CIRCLE
  5
A6
100
AcDbEntity
  8
0
  6
CONTINUOUS
 62
     1
100
AcDbCircle
 10
0.0
 20
0.0
 30
0.0
 40
4.0
  0
TEXT
  5
A7
100
AcDbEntity
  8
0
  6
CONTINUOUS
 62
     2
100
AcDbText
 10
6.6
 20
-3.2
 30
0.0
 40
7.0
  1
トップピボット（上枠側）
 41
0.672
  7
EXCADSTD
 72
     5
 11
73.799999
 21
-3.2
 31
0.0
100
AcDbText
  0
LINE
  5
A8
100
AcDbEntity
  8
0
  6
CONTINUOUS
 62
     1
100
AcDbLine
 10
4.0
 20
-3.7
 30
0.0
 11
70.1
 21
-3.7
 31
0.0
  0
ENDBLK
  5
A9
100
AcDbEntity
  8
0
100
AcDbBlockEnd
  0
ENDSEC
  0
SECTION
  2
ENTITIES
  0
LINE
  5
AA
100
AcDbEntity
  8
LAY-1
  6
CONTINUOUS
 62
     3
100
AcDbLine
 10
200.971329
 20
419.009826
 30
0.0
 11
200.971329
 21
416.809814
 31
0.0
  0
LINE
  5
AB
100
AcDbEntity
  8
LAY-1
  6
CONTINUOUS
 62
     3
100
AcDbLine
 10
188.471329
 20
419.009826
 30
0.0
 11
188.471329
 21
416.809814
 31
0.0
  0
LINE
  5
AC
100
AcDbEntity
  8
LAY-1
  6
CONTINUOUS
 62
     3
100
AcDbLine
 10
335.721344
 20
419.809814
 30
0.0
 11
153.721344
 21
419.809814
 31
0.0
  0
LINE
  5
AD
100
AcDbEntity
  8
LAY-1
  6
CONTINUOUS
 62
     3
100
AcDbLine
 10
335.721344
 20
419.009826
 30
0.0
 11
153.721344
 21
419.009826
 31
0.0
  0
LINE
  5
AE
100
AcDbEntity
  8
LAY-1
  6
CONTINUOUS
 62
     3
100
AcDbLine
 10
335.721344
 20
419.809814
 30
0.0
 11
335.721344
 21
419.009826
 31
0.0
  0
LINE
  5
AF
100
AcDbEntity
  8
LAY-1
  6
CONTINUOUS
 62
     3
100
AcDbLine
 10
153.721344
 20
419.809814
 30
0.0
 11
153.721344
 21
419.009826
 31
0.0
  0
LINE
  5
B0
100
AcDbEntity
  8
LAY-1
  6
CONTINUOUS
 62
     3
100
AcDbLine
 10
160.721344
 20
419.809814
 30
0.0
 11
160.721344
 21
425.809814
 31
0.0
  0
LINE
  5
B1
100
AcDbEntity
  8
LAY-1
  6
CONTINUOUS
 62
     3
100
AcDbLine
 10
329.721344
 20
419.809814
 30
0.0
 11
329.721344
 21
425.809814
 31
0.0
  0
LINE
  5
B2
100
AcDbEntity
  8
LAY-1
  6
CONTINUOUS
 62
     3
100
AcDbLine
 10
160.721344
 20
425.809814
 30
0.0
 11
329.721344
 21
425.809814
 31
0.0
  0
LINE
  5
B3
100
AcDbEntity
  8
LAY-1
  6
DASHED2
 62
     3
100
AcDbLine
 10
175.721329
 20
420.209838
 30
0.0
 11
163.721344
 21
420.209838
 31
0.0
  0
LINE
  5
B4
100
AcDbEntity
  8
LAY-1
  6
DASHED2
 62
     3
100
AcDbLine
 10
173.071335
 20
423.209838
 30
0.0
 11
166.371308
 21
423.209838
 31
0.0
  0
LINE
  5
B5
100
AcDbEntity
  8
LAY-1
  6
DASHED2
 62
     3
100
AcDbLine
 10
166.371308
 20
423.209838
 30
0.0
 11
163.721344
 21
420.209838
 31
0.0
  0
LINE
  5
B6
100
AcDbEntity
  8
LAY-1
  6
DASHED2
 62
     3
100
AcDbLine
 10
173.071335
 20
423.209838
 30
0.0
 11
175.721329
 21
420.209838
 31
0.0
  0
LINE
  5
B7
100
AcDbEntity
  8
LAY-1
  6
DASHED2
 62
     3
100
AcDbLine
 10
163.721344
 20
420.209838
 30
0.0
 11
163.721344
 21
419.809814
 31
0.0
  0
LINE
  5
B8
100
AcDbEntity
  8
LAY-1
  6
DASHED2
 62
     3
100
AcDbLine
 10
175.721329
 20
420.209838
 30
0.0
 11
175.721329
 21
419.809814
 31
0.0
  0
LINE
  5
B9
100
AcDbEntity
  8
LAY-1
  6
CONTINUOUS
 62
     3
100
AcDbLine
 10
166.371308
 20
435.809814
 30
0.0
 11
173.071335
 21
435.809814
 31
0.0
  0
LINE
  5
BA
100
AcDbEntity
  8
LAY-1
  6
DASHED2
 62
     3
100
AcDbLine
 10
166.371308
 20
423.209838
 30
0.0
 11
166.371308
 21
425.809814
 31
0.0
  0
LINE
  5
BB
100
AcDbEntity
  8
LAY-1
  6
DASHED2
 62
     3
100
AcDbLine
 10
173.07132
 20
425.809814
 30
0.0
 11
173.071335
 21
423.209838
 31
0.0
  0
LINE
  5
BC
100
AcDbEntity
  8
LAY-1
  6
DASHED2
 62
     1
100
AcDbLine
 10
167.121308
 20
423.209838
 30
0.0
 11
167.121308
 21
425.809814
 31
0.0
  0
LINE
  5
BD
100
AcDbEntity
  8
LAY-1
  6
DASHED2
 62
     1
100
AcDbLine
 10
172.321305
 20
423.209838
 30
0.0
 11
172.321305
 21
425.809814
 31
0.0
  0
CIRCLE
  5
BE
100
AcDbEntity
  8
LAY-1
  6
CONTINUOUS
 62
     3
100
AcDbCircle
 10
274.721314
 20
437.309814
 30
0.0
 40
3.5
  0
ARC
  5
BF
100
AcDbEntity
  8
LAY-1
  6
CONTINUOUS
 62
     3
100
AcDbCircle
 10
274.721314
 20
437.309814
 30
0.0
 40
6.0
100
AcDbArc
 50
0.0
 51
180.00002
  0
ARC
  5
C0
100
AcDbEntity
  8
LAY-1
  6
CONTINUOUS
 62
     3
100
AcDbCircle
 10
295.721314
 20
441.309814
 30
0.0
 40
6.0
100
AcDbArc
 50
305.685646
 51
234.314969
  0
LINE
  5
C1
100
AcDbEntity
  8
LAY-1
  6
CONTINUOUS
 62
     3
100
AcDbLine
 10
290.621338
 20
425.809875
 30
0.0
 11
290.621338
 21
431.809875
 31
0.0
  0
LINE
  5
C2
100
AcDbEntity
  8
LAY-1
  6
CONTINUOUS
 62
     3
100
AcDbLine
 10
300.821351
 20
425.809875
 30
0.0
 11
300.821351
 21
431.809875
 31
0.0
  0
LINE
  5
C3
100
AcDbEntity
  8
LAY-1
  6
CONTINUOUS
 62
     3
100
AcDbLine
 10
290.621338
 20
431.809875
 30
0.0
 11
300.821351
 21
431.809875
 31
0.0
  0
LINE
  5
C4
100
AcDbEntity
  8
LAY-1
  6
CONTINUOUS
 62
     1
100
AcDbLine
 10
291.221344
 20
425.809875
 30
0.0
 11
291.221344
 21
431.809875
 31
0.0
  0
LINE
  5
C5
100
AcDbEntity
  8
LAY-1
  6
CONTINUOUS
 62
     1
100
AcDbLine
 10
300.221344
 20
425.809875
 30
0.0
 11
300.221344
 21
431.809875
 31
0.0
  0
LINE
  5
C6
100
AcDbEntity
  8
LAY-1
  6
CONTINUOUS
 62
     3
100
AcDbLine
 10
292.221344
 20
436.436401
 30
0.0
 11
292.221344
 21
431.809875
 31
0.0
  0
LINE
  5
C7
100
AcDbEntity
  8
LAY-1
  6
CONTINUOUS
 62
     3
100
AcDbLine
 10
299.221344
 20
436.436401
 30
0.0
 11
299.221344
 21
431.809875
 31
0.0
  0
LINE
  5
C8
100
AcDbEntity
  8
LAY-1
  6
CONTINUOUS
 62
     3
100
AcDbLine
 10
292.221344
 20
436.436401
 30
0.0
 11
299.221375
 21
436.436401
 31
0.0
  0
LINE
  5
C9
100
AcDbEntity
  8
LAY-1
  6
CONTINUOUS
 62
     3
100
AcDbLine
 10
280.721314
 20
437.309814
 30
0.0
 11
280.721314
 21
425.809875
 31
0.0
  0
LINE
  5
CA
100
AcDbEntity
  8
LAY-1
  6
CONTINUOUS
 62
     3
100
AcDbLine
 10
268.721314
 20
437.309814
 30
0.0
 11
268.721314
 21
425.809875
 31
0.0
  0
LINE
  5
CB
100
AcDbEntity
  8
LAY-1
  6
DASHED2
 62
     3
100
AcDbLine
 10
310.721314
 20
420.209789
 30
0.0
 11
322.721314
 21
420.209789
 31
0.0
  0
LINE
  5
CC
100
AcDbEntity
  8
LAY-1
  6
DASHED2
 62
     3
100
AcDbLine
 10
313.371308
 20
423.209789
 30
0.0
 11
320.071351
 21
423.209789
 31
0.0
  0
LINE
  5
CD
100
AcDbEntity
  8
LAY-1
  6
DASHED2
 62
     3
100
AcDbLine
 10
320.071351
 20
423.209789
 30
0.0
 11
322.721314
 21
420.209789
 31
0.0
  0
LINE
  5
CE
100
AcDbEntity
  8
LAY-1
  6
DASHED2
 62
     3
100
AcDbLine
 10
313.371308
 20
423.209789
 30
0.0
 11
310.721314
 21
420.209789
 31
0.0
  0
LINE
  5
CF
100
AcDbEntity
  8
LAY-1
  6
DASHED2
 62
     3
100
AcDbLine
 10
322.721314
 20
420.209789
 30
0.0
 11
322.721314
 21
419.809826
 31
0.0
  0
LINE
  5
D0
100
AcDbEntity
  8
LAY-1
  6
DASHED2
 62
     3
100
AcDbLine
 10
310.721314
 20
420.209789
 30
0.0
 11
310.721314
 21
419.809826
 31
0.0
  0
LINE
  5
D1
100
AcDbEntity
  8
LAY-1
  6
CONTINUOUS
 62
     3
100
AcDbLine
 10
320.07132
 20
435.809826
 30
0.0
 11
313.371308
 21
435.809826
 31
0.0
  0
LINE
  5
D2
100
AcDbEntity
  8
LAY-1
  6
DASHED2
 62
     3
100
AcDbLine
 10
320.07132
 20
423.209789
 30
0.0
 11
320.07132
 21
425.009765
 31
0.0
  0
LINE
  5
D3
100
AcDbEntity
  8
LAY-1
  6
DASHED2
 62
     3
100
AcDbLine
 10
313.371308
 20
425.009765
 30
0.0
 11
313.371308
 21
423.209789
 31
0.0
  0
LINE
  5
D4
100
AcDbEntity
  8
LAY-1
  6
DASHED2
 62
     1
100
AcDbLine
 10
319.321351
 20
423.209789
 30
0.0
 11
319.321351
 21
425.009765
 31
0.0
  0
LINE
  5
D5
100
AcDbEntity
  8
LAY-1
  6
DASHED2
 62
     1
100
AcDbLine
 10
314.121338
 20
423.209789
 30
0.0
 11
314.121338
 21
425.009765
 31
0.0
  0
ARC
  5
D6
100
AcDbEntity
  8
LAY-1
  6
CONTINUOUS
 62
     3
100
AcDbCircle
 10
295.721314
 20
441.309814
 30
0.0
 40
11.0
100
AcDbArc
 50
333.214091
 51
359.999982
  0
ARC
  5
D7
100
AcDbEntity
  8
LAY-1
  6
CONTINUOUS
 62
     3
100
AcDbCircle
 10
294.721314
 20
443.809814
 30
0.0
 40
12.0
100
AcDbArc
 50
0.0
 51
94.76361
  0
LINE
  5
D8
100
AcDbEntity
  8
LAY-1
  6
CONTINUOUS
 62
     3
100
AcDbLine
 10
306.721314
 20
443.809814
 30
0.0
 11
306.721314
 21
441.309814
 31
0.0
  0
ARC
  5
D9
100
AcDbEntity
  8
LAY-1
  6
CONTINUOUS
 62
     3
100
AcDbCircle
 10
303.327973
 20
437.706359
 30
0.0
 40
2.5
100
AcDbArc
 50
180.00002
 51
328.367269
  0
LINE
  5
DA
100
AcDbEntity
  8
LAY-1
  6
CONTINUOUS
 62
     3
100
AcDbLine
 10
293.721314
 20
455.809814
 30
0.0
 11
206.721314
 21
433.309814
 31
0.0
  0
LINE
  5
DB
100
AcDbEntity
  8
LAY-1
  6
CONTINUOUS
 62
     3
100
AcDbLine
 10
291.721314
 20
436.837646
 30
0.0
 11
291.721314
 21
434.101867
 31
0.0
  0
LINE
  5
DC
100
AcDbEntity
  8
LAY-1
  6
CONTINUOUS
 62
     3
100
AcDbLine
 10
280.721314
 20
430.721618
 30
0.0
 11
290.950348
 21
433.128417
 31
0.0
  0
ARC
  5
DD
100
AcDbEntity
  8
LAY-1
  6
CONTINUOUS
 62
     3
100
AcDbCircle
 10
290.721314
 20
434.101867
 30
0.0
 40
1.0
100
AcDbArc
 50
283.240597
 51
359.999982
  0
LINE
  5
DE
100
AcDbEntity
  8
LAY-1
  6
CONTINUOUS
 62
     3
100
AcDbLine
 10
268.721314
 20
429.133361
 30
0.0
 11
258.991913
 21
428.847106
 31
0.0
  0
LINE
  5
DF
100
AcDbEntity
  8
LAY-1
  6
CONTINUOUS
 62
     3
100
AcDbLine
 10
206.721314
 20
427.309814
 30
0.0
 11
249.448853
 21
428.566467
 31
0.0
  0
ARC
  5
E0
100
AcDbEntity
  8
LAY-1
  6
CONTINUOUS
 62
     3
100
AcDbCircle
 10
249.478257
 20
427.566894
 30
0.0
 40
1.0
100
AcDbArc
 50
32.083058
 51
91.684649
  0
ARC
  5
E1
100
AcDbEntity
  8
LAY-1
  6
CONTINUOUS
 62
     3
100
AcDbCircle
 10
259.021317
 20
427.847594
 30
0.0
 40
1.0
100
AcDbArc
 50
91.684764
 51
180.00002
  0
ARC
  5
E2
100
AcDbEntity
  8
LAY-1
  6
DASHED2
 62
     3
100
AcDbCircle
 10
256.074692
 20
420.809814
 30
0.0
 40
1.0
100
AcDbArc
 50
212.083135
 51
270.000001
  0
ARC
  5
E3
100
AcDbEntity
  8
LAY-1
  6
DASHED2
 62
     3
100
AcDbCircle
 10
257.021317
 20
420.809814
 30
0.0
 40
1.0
100
AcDbArc
 50
270.000001
 51
359.999982
  0
LINE
  5
E4
100
AcDbEntity
  8
LAY-1
  6
CONTINUOUS
 62
     3
100
AcDbLine
 10
258.021317
 20
427.847594
 30
0.0
 11
258.021317
 21
425.809814
 31
0.0
  0
LINE
  5
E5
100
AcDbEntity
  8
LAY-1
  6
DASHED2
 62
     3
100
AcDbLine
 10
258.021332
 20
425.809814
 30
0.0
 11
258.021317
 21
420.809814
 31
0.0
  0
LINE
  5
E6
100
AcDbEntity
  8
LAY-1
  6
CONTINUOUS
 62
     3
100
AcDbLine
 10
250.325531
 20
428.098022
 30
0.0
 11
251.759995
 21
425.809814
 31
0.0
  0
LINE
  5
E7
100
AcDbEntity
  8
LAY-1
  6
DASHED2
 62
     3
100
AcDbLine
 10
251.759964
 20
425.809814
 30
0.0
 11
255.227417
 21
420.278625
 31
0.0
  0
LINE
  5
E8
100
AcDbEntity
  8
LAY-1
  6
CONTINUOUS
 62
     3
100
AcDbLine
 10
206.721314
 20
433.309814
 30
0.0
 11
204.22136
 21
433.309814
 31
0.0
  0
LINE
  5
E9
100
AcDbEntity
  8
LAY-1
  6
CONTINUOUS
 62
     3
100
AcDbLine
 10
206.721314
 20
427.309814
 30
0.0
 11
204.22136
 21
427.309814
 31
0.0
  0
LINE
  5
EA
100
AcDbEntity
  8
LAY-1
  6
CONTINUOUS
 62
     3
100
AcDbLine
 10
185.271363
 20
425.809875
 30
0.0
 11
185.271363
 21
457.809875
 31
0.0
  0
LINE
  5
EB
100
AcDbEntity
  8
LAY-1
  6
CONTINUOUS
 62
     3
100
AcDbLine
 10
204.171357
 20
425.809875
 30
0.0
 11
204.171357
 21
457.809875
 31
0.0
  0
LINE
  5
EC
100
AcDbEntity
  8
LAY-1
  6
CONTINUOUS
 62
     3
100
AcDbLine
 10
185.271363
 20
457.809875
 30
0.0
 11
204.171357
 21
457.809875
 31
0.0
  0
LINE
  5
ED
100
AcDbEntity
  8
LAY-1
  6
DASHED2
 62
     3
100
AcDbLine
 10
166.371308
 20
425.809814
 30
0.0
 11
166.371308
 21
430.309814
 31
0.0
  0
LINE
  5
EE
100
AcDbEntity
  8
LAY-1
  6
CONTINUOUS
 62
     3
100
AcDbLine
 10
166.371308
 20
430.309814
 30
0.0
 11
166.371308
 21
435.809814
 31
0.0
  0
LINE
  5
EF
100
AcDbEntity
  8
LAY-1
  6
DASHED2
 62
     1
100
AcDbLine
 10
167.121308
 20
425.809814
 30
0.0
 11
167.121308
 21
430.309814
 31
0.0
  0
LINE
  5
F0
100
AcDbEntity
  8
LAY-1
  6
CONTINUOUS
 62
     1
100
AcDbLine
 10
167.121308
 20
430.309814
 30
0.0
 11
167.121308
 21
435.809814
 31
0.0
  0
LINE
  5
F1
100
AcDbEntity
  8
LAY-1
  6
DASHED2
 62
     1
100
AcDbLine
 10
172.321305
 20
425.809814
 30
0.0
 11
172.321318
 21
430.309814
 31
0.0
  0
LINE
  5
F2
100
AcDbEntity
  8
LAY-1
  6
CONTINUOUS
 62
     1
100
AcDbLine
 10
172.321318
 20
430.309814
 30
0.0
 11
172.321335
 21
435.809814
 31
0.0
  0
LINE
  5
F3
100
AcDbEntity
  8
LAY-1
  6
CONTINUOUS
 62
     3
100
AcDbLine
 10
173.071335
 20
435.809814
 30
0.0
 11
173.071327
 21
430.309814
 31
0.0
  0
LINE
  5
F4
100
AcDbEntity
  8
LAY-1
  6
DASHED2
 62
     3
100
AcDbLine
 10
173.071327
 20
430.309814
 30
0.0
 11
173.07132
 21
425.809814
 31
0.0
  0
LINE
  5
F5
100
AcDbEntity
  8
LAY-1
  6
DASHED2
 62
     1
100
AcDbLine
 10
314.121338
 20
425.009765
 30
0.0
 11
314.121322
 21
430.309814
 31
0.0
  0
LINE
  5
F6
100
AcDbEntity
  8
LAY-1
  6
CONTINUOUS
 62
     1
100
AcDbLine
 10
314.121324
 20
430.309814
 30
0.0
 11
314.121308
 21
435.809826
 31
0.0
  0
LINE
  5
F7
100
AcDbEntity
  8
LAY-1
  6
CONTINUOUS
 62
     3
100
AcDbLine
 10
313.371308
 20
435.809826
 30
0.0
 11
313.371308
 21
430.309814
 31
0.0
  0
LINE
  5
F8
100
AcDbEntity
  8
LAY-1
  6
DASHED2
 62
     3
100
AcDbLine
 10
313.371308
 20
430.309814
 30
0.0
 11
313.371308
 21
425.009765
 31
0.0
  0
LINE
  5
F9
100
AcDbEntity
  8
LAY-1
  6
DASHED2
 62
     1
100
AcDbLine
 10
319.321351
 20
425.009765
 30
0.0
 11
319.321335
 21
430.309814
 31
0.0
  0
LINE
  5
FA
100
AcDbEntity
  8
LAY-1
  6
CONTINUOUS
 62
     1
100
AcDbLine
 10
319.321337
 20
430.309814
 30
0.0
 11
319.32132
 21
435.809826
 31
0.0
  0
LINE
  5
FB
100
AcDbEntity
  8
LAY-1
  6
DASHED2
 62
     3
100
AcDbLine
 10
320.07132
 20
425.009765
 30
0.0
 11
320.07132
 21
430.309814
 31
0.0
  0
LINE
  5
FC
100
AcDbEntity
  8
LAY-1
  6
CONTINUOUS
 62
     3
100
AcDbLine
 10
320.07132
 20
430.309814
 30
0.0
 11
320.07132
 21
435.809826
 31
0.0
  0
LINE
  5
FD
100
AcDbEntity
  8
LAY-1
  6
DIVIDE
 62
     3
100
AcDbLine
 10
335.721344
 20
509.727386
 30
0.0
 11
153.721344
 21
509.727386
 31
0.0
  0
LINE
  5
FE
100
AcDbEntity
  8
LAY-1
  6
DIVIDE
 62
     3
100
AcDbLine
 10
335.721344
 20
546.727417
 30
0.0
 11
153.721344
 21
546.727417
 31
0.0
  0
LINE
  5
FF
100
AcDbEntity
  8
LAY-1
  6
DIVIDE
 62
     3
100
AcDbLine
 10
335.721344
 20
546.727417
 30
0.0
 11
335.721344
 21
509.727448
 31
0.0
  0
LINE
  5
100
100
AcDbEntity
  8
LAY-1
  6
DIVIDE
 62
     3
100
AcDbLine
 10
153.721344
 20
546.727417
 30
0.0
 11
153.721344
 21
509.727448
 31
0.0
  0
LINE
  5
101
100
AcDbEntity
  8
LAY-1
  6
CONTINUOUS
 62
     3
100
AcDbLine
 10
160.721344
 20
512.227448
 30
0.0
 11
160.721344
 21
544.227417
 31
0.0
  0
LINE
  5
102
100
AcDbEntity
  8
LAY-1
  6
CONTINUOUS
 62
     3
100
AcDbLine
 10
160.721344
 20
544.227417
 30
0.0
 11
329.721344
 21
544.227417
 31
0.0
  0
LINE
  5
103
100
AcDbEntity
  8
LAY-1
  6
CONTINUOUS
 62
     3
100
AcDbLine
 10
160.721344
 20
512.227448
 30
0.0
 11
329.721344
 21
512.227448
 31
0.0
  0
LINE
  5
104
100
AcDbEntity
  8
LAY-1
  6
CONTINUOUS
 62
     3
100
AcDbLine
 10
329.721344
 20
544.227417
 30
0.0
 11
329.721344
 21
512.227448
 31
0.0
  0
CIRCLE
  5
105
100
AcDbEntity
  8
LAY-1
  6
DASHED2
 62
     3
100
AcDbCircle
 10
169.721344
 20
519.227448
 30
0.0
 40
6.0
  0
CIRCLE
  5
106
100
AcDbEntity
  8
LAY-1
  6
CONTINUOUS
 62
     3
100
AcDbCircle
 10
169.721344
 20
519.227448
 30
0.0
 40
3.35
  0
CIRCLE
  5
107
100
AcDbEntity
  8
LAY-1
  6
DASHED2
 62
     3
100
AcDbCircle
 10
316.721344
 20
519.227448
 30
0.0
 40
6.0
  0
CIRCLE
  5
108
100
AcDbEntity
  8
LAY-1
  6
CONTINUOUS
 62
     3
100
AcDbCircle
 10
316.721344
 20
519.227448
 30
0.0
 40
3.35
  0
CIRCLE
  5
109
100
AcDbEntity
  8
LAY-1
  6
DASHED2
 62
     3
100
AcDbCircle
 10
169.721344
 20
537.227417
 30
0.0
 40
6.0
  0
CIRCLE
  5
10A
100
AcDbEntity
  8
LAY-1
  6
CONTINUOUS
 62
     3
100
AcDbCircle
 10
169.721344
 20
537.227417
 30
0.0
 40
3.35
  0
CIRCLE
  5
10B
100
AcDbEntity
  8
LAY-1
  6
DASHED2
 62
     3
100
AcDbCircle
 10
316.721344
 20
537.227417
 30
0.0
 40
6.0
  0
CIRCLE
  5
10C
100
AcDbEntity
  8
LAY-1
  6
CONTINUOUS
 62
     3
100
AcDbCircle
 10
316.721344
 20
537.227417
 30
0.0
 40
3.35
  0
CIRCLE
  5
10D
100
AcDbEntity
  8
LAY-1
  6
CONTINUOUS
 62
     3
100
AcDbCircle
 10
194.721314
 20
528.227417
 30
0.0
 40
6.25
  0
LINE
  5
10E
100
AcDbEntity
  8
LAY-1
  6
CONTINUOUS
 62
     3
100
AcDbLine
 10
306.721283
 20
525.977417
 30
0.0
 11
306.721344
 21
530.477417
 31
0.0
  0
LINE
  5
10F
100
AcDbEntity
  8
LAY-1
  6
CONTINUOUS
 62
     3
100
AcDbLine
 10
203.95102
 20
530.477417
 30
0.0
 11
306.721344
 21
530.477417
 31
0.0
  0
LINE
  5
110
100
AcDbEntity
  8
LAY-1
  6
CONTINUOUS
 62
     3
100
AcDbLine
 10
203.95102
 20
525.977417
 30
0.0
 11
306.721344
 21
525.977417
 31
0.0
  0
ARC
  5
111
100
AcDbEntity
  8
LAY-1
  6
CONTINUOUS
 62
     3
100
AcDbCircle
 10
254.721344
 20
528.227417
 30
0.0
 40
5.0
100
AcDbArc
 50
26.743665
 51
153.256355
  0
ARC
  5
112
100
AcDbEntity
  8
LAY-1
  6
CONTINUOUS
 62
     3
100
AcDbCircle
 10
254.721344
 20
528.227417
 30
0.0
 40
5.0
100
AcDbArc
 50
205.468338
 51
331.882709
  0
ARC
  5
113
100
AcDbEntity
  8
LAY-1
  6
CONTINUOUS
 62
     3
100
AcDbCircle
 10
295.721344
 20
528.227417
 30
0.0
 40
6.0
100
AcDbArc
 50
22.024383
 51
156.514709
  0
ARC
  5
114
100
AcDbEntity
  8
LAY-1
  6
CONTINUOUS
 62
     3
100
AcDbCircle
 10
295.721344
 20
528.227417
 30
0.0
 40
6.0
100
AcDbArc
 50
203.485273
 51
337.366545
  0
LINE
  5
115
100
AcDbEntity
  8
LAY-1
  6
CONTINUOUS
 62
     3
100
AcDbLine
 10
280.721344
 20
525.67749
 30
0.0
 11
268.721344
 21
525.67749
 31
0.0
  0
LINE
  5
116
100
AcDbEntity
  8
LAY-1
  6
CONTINUOUS
 62
     3
100
AcDbLine
 10
280.721344
 20
530.777466
 30
0.0
 11
268.721344
 21
530.777466
 31
0.0
  0
LINE
  5
117
100
AcDbEntity
  8
LAY-1
  6
CONTINUOUS
 62
     3
100
AcDbLine
 10
280.721344
 20
533.977417
 30
0.0
 11
268.721344
 21
533.977417
 31
0.0
  0
LINE
  5
118
100
AcDbEntity
  8
LAY-1
  6
CONTINUOUS
 62
     3
100
AcDbLine
 10
268.721344
 20
522.477417
 30
0.0
 11
280.721344
 21
522.477417
 31
0.0
  0
LINE
  5
119
100
AcDbEntity
  8
LAY-1
  6
CONTINUOUS
 62
     3
100
AcDbLine
 10
280.721344
 20
533.977417
 30
0.0
 11
280.721344
 21
530.777466
 31
0.0
  0
LINE
  5
11A
100
AcDbEntity
  8
LAY-1
  6
CONTINUOUS
 62
     3
100
AcDbLine
 10
268.721344
 20
533.977417
 30
0.0
 11
268.721344
 21
530.777466
 31
0.0
  0
LINE
  5
11B
100
AcDbEntity
  8
LAY-1
  6
CONTINUOUS
 62
     3
100
AcDbLine
 10
280.721344
 20
522.477417
 30
0.0
 11
280.721344
 21
525.67749
 31
0.0
  0
LINE
  5
11C
100
AcDbEntity
  8
LAY-1
  6
CONTINUOUS
 62
     3
100
AcDbLine
 10
268.721344
 20
522.477417
 30
0.0
 11
268.721344
 21
525.677368
 31
0.0
  0
LINE
  5
11D
100
AcDbEntity
  8
LAY-1
  6
CONTINUOUS
 62
     3
100
AcDbLine
 10
278.221344
 20
530.777466
 30
0.0
 11
278.221344
 21
530.477417
 31
0.0
  0
LINE
  5
11E
100
AcDbEntity
  8
LAY-1
  6
CONTINUOUS
 62
     3
100
AcDbLine
 10
271.221344
 20
530.777466
 30
0.0
 11
271.221344
 21
530.477417
 31
0.0
  0
LINE
  5
11F
100
AcDbEntity
  8
LAY-1
  6
CONTINUOUS
 62
     3
100
AcDbLine
 10
278.221344
 20
525.977417
 30
0.0
 11
278.221344
 21
525.67749
 31
0.0
  0
LINE
  5
120
100
AcDbEntity
  8
LAY-1
  6
CONTINUOUS
 62
     3
100
AcDbLine
 10
271.221344
 20
525.977417
 30
0.0
 11
271.221344
 21
525.67749
 31
0.0
  0
CIRCLE
  5
121
100
AcDbEntity
  8
LAY-1
  6
CONTINUOUS
 62
     3
100
AcDbCircle
 10
194.721344
 20
528.227295
 30
0.0
 40
9.45
  0
LINE
  5
122
100
AcDbEntity
  8
LAY-1
  6
CONTINUOUS
 62
     3
100
AcDbLine
 10
667.728339
 20
488.209827
 30
0.0
 11
667.728339
 21
486.009811
 31
0.0
  0
LINE
  5
123
100
AcDbEntity
  8
LAY-1
  6
CONTINUOUS
 62
     3
100
AcDbLine
 10
655.228339
 20
488.209827
 30
0.0
 11
655.228339
 21
486.009811
 31
0.0
  0
LINE
  5
124
100
AcDbEntity
  8
LAY-1
  6
CONTINUOUS
 62
     3
100
AcDbLine
 10
679.978339
 20
488.209796
 30
0.0
 11
642.978339
 21
488.209796
 31
0.0
  0
LINE
  5
125
100
AcDbEntity
  8
LAY-1
  6
CONTINUOUS
 62
     3
100
AcDbLine
 10
679.978339
 20
488.209796
 30
0.0
 11
679.978339
 21
489.009784
 31
0.0
  0
LINE
  5
126
100
AcDbEntity
  8
LAY-1
  6
CONTINUOUS
 62
     3
100
AcDbLine
 10
642.978339
 20
488.209796
 30
0.0
 11
642.978339
 21
489.009784
 31
0.0
  0
LINE
  5
127
100
AcDbEntity
  8
LAY-1
  6
CONTINUOUS
 62
     3
100
AcDbLine
 10
679.978339
 20
489.009814
 30
0.0
 11
642.978339
 21
489.009784
 31
0.0
  0
LINE
  5
128
100
AcDbEntity
  8
LAY-1
  6
CONTINUOUS
 62
     3
100
AcDbLine
 10
645.478339
 20
489.009753
 30
0.0
 11
645.478339
 21
495.009753
 31
0.0
  0
LINE
  5
129
100
AcDbEntity
  8
LAY-1
  6
CONTINUOUS
 62
     3
100
AcDbLine
 10
677.478339
 20
489.009753
 30
0.0
 11
677.478339
 21
495.009753
 31
0.0
  0
LINE
  5
12A
100
AcDbEntity
  8
LAY-1
  6
CONTINUOUS
 62
     3
100
AcDbLine
 10
670.978351
 20
495.009753
 30
0.0
 11
670.978351
 21
527.009888
 31
0.0
  0
LINE
  5
12B
100
AcDbEntity
  8
LAY-1
  6
CONTINUOUS
 62
     3
100
AcDbLine
 10
651.978387
 20
495.009784
 30
0.0
 11
651.978387
 21
527.009888
 31
0.0
  0
LINE
  5
12C
100
AcDbEntity
  8
LAY-1
  6
CONTINUOUS
 62
     3
100
AcDbLine
 10
651.978387
 20
527.009888
 30
0.0
 11
670.978351
 21
527.009888
 31
0.0
  0
LINE
  5
12D
100
AcDbEntity
  8
LAY-1
  6
CONTINUOUS
 62
     3
100
AcDbLine
 10
645.478339
 20
495.009753
 30
0.0
 11
677.478339
 21
495.009753
 31
0.0
  0
LINE
  5
12E
100
AcDbEntity
  8
LAY-2
  6
CONTINUOUS
 62
     3
100
AcDbLine
 10
329.721344
 20
416.809814
 30
0.0
 11
178.721329
 21
416.809814
 31
0.0
  0
LINE
  5
12F
100
AcDbEntity
  8
LAY-2
  6
CONTINUOUS
 62
     3
100
AcDbLine
 10
329.721344
 20
410.809814
 30
0.0
 11
178.721329
 21
410.809814
 31
0.0
  0
LINE
  5
130
100
AcDbEntity
  8
LAY-2
  6
CONTINUOUS
 62
     3
100
AcDbLine
 10
329.721344
 20
416.809814
 30
0.0
 11
329.721344
 21
410.809814
 31
0.0
  0
LINE
  5
131
100
AcDbEntity
  8
LAY-2
  6
CONTINUOUS
 62
     3
100
AcDbLine
 10
178.721329
 20
416.809814
 30
0.0
 11
178.721329
 21
410.809814
 31
0.0
  0
LINE
  5
132
100
AcDbEntity
  8
LAY-2
  6
DASHED2
 62
     3
100
AcDbLine
 10
218.721329
 20
416.409789
 30
0.0
 11
230.721329
 21
416.409789
 31
0.0
  0
LINE
  5
133
100
AcDbEntity
  8
LAY-2
  6
DASHED2
 62
     3
100
AcDbLine
 10
221.371323
 20
413.409789
 30
0.0
 11
228.071366
 21
413.409789
 31
0.0
  0
LINE
  5
134
100
AcDbEntity
  8
LAY-2
  6
DASHED2
 62
     3
100
AcDbLine
 10
228.071366
 20
413.409789
 30
0.0
 11
230.721329
 21
416.409789
 31
0.0
  0
LINE
  5
135
100
AcDbEntity
  8
LAY-2
  6
DASHED2
 62
     3
100
AcDbLine
 10
221.371323
 20
413.409789
 30
0.0
 11
218.721329
 21
416.409789
 31
0.0
  0
LINE
  5
136
100
AcDbEntity
  8
LAY-2
  6
DASHED2
 62
     3
100
AcDbLine
 10
230.721329
 20
416.409789
 30
0.0
 11
230.721329
 21
416.809814
 31
0.0
  0
LINE
  5
137
100
AcDbEntity
  8
LAY-2
  6
DASHED2
 62
     3
100
AcDbLine
 10
218.721329
 20
416.409789
 30
0.0
 11
218.721329
 21
416.809814
 31
0.0
  0
LINE
  5
138
100
AcDbEntity
  8
LAY-2
  6
CONTINUOUS
 62
     3
100
AcDbLine
 10
228.071335
 20
400.809814
 30
0.0
 11
221.371323
 21
400.809814
 31
0.0
  0
LINE
  5
139
100
AcDbEntity
  8
LAY-2
  6
DASHED2
 62
     3
100
AcDbLine
 10
228.071335
 20
413.409789
 30
0.0
 11
228.071351
 21
410.809814
 31
0.0
  0
LINE
  5
13A
100
AcDbEntity
  8
LAY-2
  6
DASHED2
 62
     3
100
AcDbLine
 10
221.371338
 20
410.809814
 30
0.0
 11
221.371323
 21
413.409789
 31
0.0
  0
LINE
  5
13B
100
AcDbEntity
  8
LAY-2
  6
DASHED2
 62
     1
100
AcDbLine
 10
227.321366
 20
413.409789
 30
0.0
 11
227.321366
 21
410.809814
 31
0.0
  0
LINE
  5
13C
100
AcDbEntity
  8
LAY-2
  6
DASHED2
 62
     1
100
AcDbLine
 10
222.121354
 20
413.409789
 30
0.0
 11
222.121354
 21
410.809814
 31
0.0
  0
LINE
  5
13D
100
AcDbEntity
  8
LAY-2
  6
DASHED2
 62
     3
100
AcDbLine
 10
276.721314
 20
416.809814
 30
0.0
 11
264.721314
 21
416.809814
 31
0.0
  0
LINE
  5
13E
100
AcDbEntity
  8
LAY-2
  6
DASHED2
 62
     3
100
AcDbLine
 10
264.721314
 20
416.409789
 30
0.0
 11
276.721314
 21
416.409789
 31
0.0
  0
LINE
  5
13F
100
AcDbEntity
  8
LAY-2
  6
DASHED2
 62
     3
100
AcDbLine
 10
267.371308
 20
413.409789
 30
0.0
 11
274.071351
 21
413.409789
 31
0.0
  0
LINE
  5
140
100
AcDbEntity
  8
LAY-2
  6
DASHED2
 62
     3
100
AcDbLine
 10
274.071351
 20
413.409789
 30
0.0
 11
276.721314
 21
416.409789
 31
0.0
  0
LINE
  5
141
100
AcDbEntity
  8
LAY-2
  6
DASHED2
 62
     3
100
AcDbLine
 10
267.371308
 20
413.409789
 30
0.0
 11
264.721314
 21
416.409789
 31
0.0
  0
LINE
  5
142
100
AcDbEntity
  8
LAY-2
  6
DASHED2
 62
     3
100
AcDbLine
 10
276.721314
 20
416.409789
 30
0.0
 11
276.721314
 21
416.809814
 31
0.0
  0
LINE
  5
143
100
AcDbEntity
  8
LAY-2
  6
DASHED2
 62
     3
100
AcDbLine
 10
264.721314
 20
416.409789
 30
0.0
 11
264.721314
 21
416.809814
 31
0.0
  0
LINE
  5
144
100
AcDbEntity
  8
LAY-2
  6
CONTINUOUS
 62
     3
100
AcDbLine
 10
274.07132
 20
400.809814
 30
0.0
 11
267.371308
 21
400.809814
 31
0.0
  0
LINE
  5
145
100
AcDbEntity
  8
LAY-2
  6
DASHED2
 62
     3
100
AcDbLine
 10
274.07132
 20
413.409789
 30
0.0
 11
274.07132
 21
410.809814
 31
0.0
  0
LINE
  5
146
100
AcDbEntity
  8
LAY-2
  6
DASHED2
 62
     3
100
AcDbLine
 10
267.371308
 20
410.809814
 30
0.0
 11
267.371308
 21
413.409789
 31
0.0
  0
LINE
  5
147
100
AcDbEntity
  8
LAY-2
  6
DASHED2
 62
     1
100
AcDbLine
 10
273.321351
 20
413.409789
 30
0.0
 11
273.321351
 21
410.809814
 31
0.0
  0
LINE
  5
148
100
AcDbEntity
  8
LAY-2
  6
DASHED2
 62
     1
100
AcDbLine
 10
268.121338
 20
413.409789
 30
0.0
 11
268.121338
 21
410.809814
 31
0.0
  0
LINE
  5
149
100
AcDbEntity
  8
LAY-2
  6
DASHED2
 62
     3
100
AcDbLine
 10
322.721314
 20
416.809814
 30
0.0
 11
310.721314
 21
416.809814
 31
0.0
  0
LINE
  5
14A
100
AcDbEntity
  8
LAY-2
  6
DASHED2
 62
     3
100
AcDbLine
 10
310.721314
 20
416.409789
 30
0.0
 11
322.721314
 21
416.409789
 31
0.0
  0
LINE
  5
14B
100
AcDbEntity
  8
LAY-2
  6
DASHED2
 62
     3
100
AcDbLine
 10
313.371308
 20
413.409789
 30
0.0
 11
320.071351
 21
413.409789
 31
0.0
  0
LINE
  5
14C
100
AcDbEntity
  8
LAY-2
  6
DASHED2
 62
     3
100
AcDbLine
 10
320.071351
 20
413.409789
 30
0.0
 11
322.721314
 21
416.409789
 31
0.0
  0
LINE
  5
14D
100
AcDbEntity
  8
LAY-2
  6
DASHED2
 62
     3
100
AcDbLine
 10
313.371308
 20
413.409789
 30
0.0
 11
310.721314
 21
416.409789
 31
0.0
  0
LINE
  5
14E
100
AcDbEntity
  8
LAY-2
  6
DASHED2
 62
     3
100
AcDbLine
 10
322.721314
 20
416.409789
 30
0.0
 11
322.721314
 21
416.809814
 31
0.0
  0
LINE
  5
14F
100
AcDbEntity
  8
LAY-2
  6
DASHED2
 62
     3
100
AcDbLine
 10
310.721314
 20
416.409789
 30
0.0
 11
310.721314
 21
416.809814
 31
0.0
  0
LINE
  5
150
100
AcDbEntity
  8
LAY-2
  6
CONTINUOUS
 62
     3
100
AcDbLine
 10
320.07132
 20
400.809814
 30
0.0
 11
313.371308
 21
400.809814
 31
0.0
  0
LINE
  5
151
100
AcDbEntity
  8
LAY-2
  6
DASHED2
 62
     3
100
AcDbLine
 10
320.07132
 20
413.409789
 30
0.0
 11
320.07132
 21
410.809814
 31
0.0
  0
LINE
  5
152
100
AcDbEntity
  8
LAY-2
  6
DASHED2
 62
     3
100
AcDbLine
 10
313.371308
 20
410.809814
 30
0.0
 11
313.371308
 21
413.409789
 31
0.0
  0
LINE
  5
153
100
AcDbEntity
  8
LAY-2
  6
DASHED2
 62
     1
100
AcDbLine
 10
319.321351
 20
413.409789
 30
0.0
 11
319.321351
 21
410.809814
 31
0.0
  0
LINE
  5
154
100
AcDbEntity
  8
LAY-2
  6
DASHED2
 62
     1
100
AcDbLine
 10
314.121338
 20
413.409789
 30
0.0
 11
314.121338
 21
410.809814
 31
0.0
  0
LINE
  5
155
100
AcDbEntity
  8
LAY-2
  6
CONTINUOUS
 62
     3
100
AcDbLine
 10
221.371323
 20
400.809814
 30
0.0
 11
221.371331
 21
406.309814
 31
0.0
  0
LINE
  5
156
100
AcDbEntity
  8
LAY-2
  6
DASHED2
 62
     3
100
AcDbLine
 10
221.371331
 20
406.309814
 30
0.0
 11
221.371338
 21
410.809814
 31
0.0
  0
LINE
  5
157
100
AcDbEntity
  8
LAY-2
  6
DASHED2
 62
     1
100
AcDbLine
 10
222.121354
 20
410.809814
 30
0.0
 11
222.12134
 21
406.309814
 31
0.0
  0
LINE
  5
158
100
AcDbEntity
  8
LAY-2
  6
CONTINUOUS
 62
     1
100
AcDbLine
 10
222.12134
 20
406.309814
 30
0.0
 11
222.121323
 21
400.809814
 31
0.0
  0
LINE
  5
159
100
AcDbEntity
  8
LAY-2
  6
CONTINUOUS
 62
     3
100
AcDbLine
 10
267.371308
 20
400.809814
 30
0.0
 11
267.371308
 21
406.309814
 31
0.0
  0
LINE
  5
15A
100
AcDbEntity
  8
LAY-2
  6
DASHED2
 62
     3
100
AcDbLine
 10
267.371308
 20
406.309814
 30
0.0
 11
267.371308
 21
410.809814
 31
0.0
  0
LINE
  5
15B
100
AcDbEntity
  8
LAY-2
  6
DASHED2
 62
     1
100
AcDbLine
 10
268.121338
 20
410.809814
 30
0.0
 11
268.121325
 21
406.309814
 31
0.0
  0
LINE
  5
15C
100
AcDbEntity
  8
LAY-2
  6
CONTINUOUS
 62
     1
100
AcDbLine
 10
268.121325
 20
406.309814
 30
0.0
 11
268.121308
 21
400.809814
 31
0.0
  0
LINE
  5
15D
100
AcDbEntity
  8
LAY-2
  6
DASHED2
 62
     1
100
AcDbLine
 10
273.321351
 20
410.809814
 30
0.0
 11
273.321337
 21
406.309814
 31
0.0
  0
LINE
  5
15E
100
AcDbEntity
  8
LAY-2
  6
CONTINUOUS
 62
     1
100
AcDbLine
 10
273.321337
 20
406.309814
 30
0.0
 11
273.32132
 21
400.809814
 31
0.0
  0
LINE
  5
15F
100
AcDbEntity
  8
LAY-2
  6
DASHED2
 62
     3
100
AcDbLine
 10
274.07132
 20
410.809814
 30
0.0
 11
274.07132
 21
406.309814
 31
0.0
  0
LINE
  5
160
100
AcDbEntity
  8
LAY-2
  6
CONTINUOUS
 62
     3
100
AcDbLine
 10
274.07132
 20
406.309814
 30
0.0
 11
274.07132
 21
400.809814
 31
0.0
  0
LINE
  5
161
100
AcDbEntity
  8
LAY-2
  6
CONTINUOUS
 62
     3
100
AcDbLine
 10
313.371308
 20
400.809814
 30
0.0
 11
313.371308
 21
406.309814
 31
0.0
  0
LINE
  5
162
100
AcDbEntity
  8
LAY-2
  6
DASHED2
 62
     3
100
AcDbLine
 10
313.371308
 20
406.309814
 30
0.0
 11
313.371308
 21
410.809814
 31
0.0
  0
LINE
  5
163
100
AcDbEntity
  8
LAY-2
  6
DASHED2
 62
     1
100
AcDbLine
 10
314.121338
 20
410.809814
 30
0.0
 11
314.121325
 21
406.309814
 31
0.0
  0
LINE
  5
164
100
AcDbEntity
  8
LAY-2
  6
CONTINUOUS
 62
     1
100
AcDbLine
 10
314.121325
 20
406.309814
 30
0.0
 11
314.121308
 21
400.809814
 31
0.0
  0
LINE
  5
165
100
AcDbEntity
  8
LAY-2
  6
DASHED2
 62
     1
100
AcDbLine
 10
319.321351
 20
410.809814
 30
0.0
 11
319.321337
 21
406.309814
 31
0.0
  0
LINE
  5
166
100
AcDbEntity
  8
LAY-2
  6
CONTINUOUS
 62
     1
100
AcDbLine
 10
319.321337
 20
406.309814
 30
0.0
 11
319.32132
 21
400.809814
 31
0.0
  0
LINE
  5
167
100
AcDbEntity
  8
LAY-2
  6
DASHED2
 62
     3
100
AcDbLine
 10
320.07132
 20
410.809814
 30
0.0
 11
320.07132
 21
406.309814
 31
0.0
  0
LINE
  5
168
100
AcDbEntity
  8
LAY-2
  6
CONTINUOUS
 62
     3
100
AcDbLine
 10
320.07132
 20
406.309814
 30
0.0
 11
320.07132
 21
400.809814
 31
0.0
  0
LINE
  5
169
100
AcDbEntity
  8
LAY-2
  6
DASHED2
 62
     1
100
AcDbLine
 10
227.321366
 20
410.809814
 30
0.0
 11
227.321352
 21
406.309814
 31
0.0
  0
LINE
  5
16A
100
AcDbEntity
  8
LAY-2
  6
CONTINUOUS
 62
     1
100
AcDbLine
 10
227.321352
 20
406.309814
 30
0.0
 11
227.321335
 21
400.809814
 31
0.0
  0
LINE
  5
16B
100
AcDbEntity
  8
LAY-2
  6
DASHED2
 62
     3
100
AcDbLine
 10
228.071351
 20
410.809814
 30
0.0
 11
228.071344
 21
406.309814
 31
0.0
  0
LINE
  5
16C
100
AcDbEntity
  8
LAY-2
  6
CONTINUOUS
 62
     3
100
AcDbLine
 10
228.071344
 20
406.309814
 30
0.0
 11
228.071335
 21
400.809814
 31
0.0
  0
LINE
  5
16D
100
AcDbEntity
  8
LAY-2
  6
CONTINUOUS
 62
     3
100
AcDbLine
 10
329.721344
 20
311.15741
 30
0.0
 11
178.721314
 21
311.15741
 31
0.0
  0
LINE
  5
16E
100
AcDbEntity
  8
LAY-2
  6
CONTINUOUS
 62
     3
100
AcDbLine
 10
329.721344
 20
343.15741
 30
0.0
 11
178.721314
 21
343.15741
 31
0.0
  0
LINE
  5
16F
100
AcDbEntity
  8
LAY-2
  6
CONTINUOUS
 62
     3
100
AcDbLine
 10
329.721344
 20
343.15741
 30
0.0
 11
329.721344
 21
311.15741
 31
0.0
  0
LINE
  5
170
100
AcDbEntity
  8
LAY-2
  6
CONTINUOUS
 62
     3
100
AcDbLine
 10
178.721314
 20
343.15741
 30
0.0
 11
178.721314
 21
311.15741
 31
0.0
  0
CIRCLE
  5
171
100
AcDbEntity
  8
LAY-2
  6
CONTINUOUS
 62
     3
100
AcDbCircle
 10
194.721344
 20
327.157349
 30
0.0
 40
6.25
  0
CIRCLE
  5
172
100
AcDbEntity
  8
LAY-2
  6
CONTINUOUS
 62
     3
100
AcDbCircle
 10
194.721344
 20
327.157349
 30
0.0
 40
11.9
  0
CIRCLE
  5
173
100
AcDbEntity
  8
LAY-2
  6
CONTINUOUS
 62
     3
100
AcDbCircle
 10
224.721314
 20
335.15741
 30
0.0
 40
6.0
  0
CIRCLE
  5
174
100
AcDbEntity
  8
LAY-2
  6
CONTINUOUS
 62
     3
100
AcDbCircle
 10
224.721314
 20
335.15741
 30
0.0
 40
3.35
  0
CIRCLE
  5
175
100
AcDbEntity
  8
LAY-2
  6
CONTINUOUS
 62
     3
100
AcDbCircle
 10
270.721344
 20
319.15741
 30
0.0
 40
6.0
  0
CIRCLE
  5
176
100
AcDbEntity
  8
LAY-2
  6
CONTINUOUS
 62
     3
100
AcDbCircle
 10
270.721344
 20
319.15741
 30
0.0
 40
3.35
  0
CIRCLE
  5
177
100
AcDbEntity
  8
LAY-2
  6
CONTINUOUS
 62
     3
100
AcDbCircle
 10
316.721344
 20
335.15741
 30
0.0
 40
6.0
  0
CIRCLE
  5
178
100
AcDbEntity
  8
LAY-2
  6
CONTINUOUS
 62
     3
100
AcDbCircle
 10
316.721344
 20
335.15741
 30
0.0
 40
3.35
  0
LINE
  5
179
100
AcDbEntity
  8
LAY-2
  6
CONTINUOUS
 62
     3
100
AcDbLine
 10
645.478339
 20
486.009811
 30
0.0
 11
645.478339
 21
480.009811
 31
0.0
  0
LINE
  5
17A
100
AcDbEntity
  8
LAY-2
  6
CONTINUOUS
 62
     3
100
AcDbLine
 10
677.478339
 20
480.009781
 30
0.0
 11
645.478339
 21
480.009811
 31
0.0
  0
LINE
  5
17B
100
AcDbEntity
  8
LAY-2
  6
CONTINUOUS
 62
     3
100
AcDbLine
 10
677.478339
 20
486.009811
 30
0.0
 11
677.478339
 21
480.009811
 31
0.0
  0
LINE
  5
17C
100
AcDbEntity
  8
LAY-2
  6
CONTINUOUS
 62
     3
100
AcDbLine
 10
645.478339
 20
486.009811
 30
0.0
 11
677.478339
 21
486.009811
 31
0.0
  0
ARC
  5
17D
100
AcDbEntity
  8
LAY-2
  6
CONTINUOUS
 62
     3
100
AcDbCircle
 10
198.021344
 20
401.009814
 30
0.0
 40
5.2
100
AcDbArc
 50
270.0
 51
0.0
  0
LINE
  5
17E
100
AcDbEntity
  8
LAY-2
  6
CONTINUOUS
 62
     3
100
AcDbLine
 10
191.421344
 20
395.809814
 30
0.0
 11
198.021344
 21
395.809814
 31
0.0
  0
ARC
  5
17F
100
AcDbEntity
  8
LAY-2
  6
CONTINUOUS
 62
     3
100
AcDbCircle
 10
191.421344
 20
401.009814
 30
0.0
 40
5.2
100
AcDbArc
 50
180.0
 51
270.0
  0
LINE
  5
180
100
AcDbEntity
  8
LAY-2
  6
CONTINUOUS
 62
     3
100
AcDbLine
 10
208.721344
 20
410.809814
 30
0.0
 11
208.721344
 21
409.609814
 31
0.0
  0
LINE
  5
181
100
AcDbEntity
  8
LAY-2
  6
CONTINUOUS
 62
     3
100
AcDbLine
 10
180.721344
 20
410.809814
 30
0.0
 11
180.721344
 21
409.609814
 31
0.0
  0
LINE
  5
182
100
AcDbEntity
  8
LAY-2
  6
CONTINUOUS
 62
     3
100
AcDbLine
 10
208.721344
 20
409.609814
 30
0.0
 11
180.721344
 21
409.609814
 31
0.0
  0
ARC
  5
183
100
AcDbEntity
  8
LAY-2
  6
CONTINUOUS
 62
     3
100
AcDbCircle
 10
206.571344
 20
409.609814
 30
0.0
 40
1.0
100
AcDbArc
 50
270.0
 51
0.0
  0
LINE
  5
184
100
AcDbEntity
  8
LAY-2
  6
CONTINUOUS
 62
     3
100
AcDbLine
 10
206.571344
 20
408.609814
 30
0.0
 11
182.871344
 21
408.609814
 31
0.0
  0
ARC
  5
185
100
AcDbEntity
  8
LAY-2
  6
CONTINUOUS
 62
     3
100
AcDbCircle
 10
182.871344
 20
409.609814
 30
0.0
 40
1.0
100
AcDbArc
 50
180.0
 51
270.0
  0
ARC
  5
186
100
AcDbEntity
  8
LAY-2
  6
CONTINUOUS
 62
     3
100
AcDbCircle
 10
203.721344
 20
408.109814
 30
0.0
 40
0.5
100
AcDbArc
 50
90.0
 51
180.0
  0
ARC
  5
187
100
AcDbEntity
  8
LAY-2
  6
CONTINUOUS
 62
     3
100
AcDbCircle
 10
185.721344
 20
408.109814
 30
0.0
 40
0.5
100
AcDbArc
 50
0.0
 51
90.0
  0
LINE
  5
188
100
AcDbEntity
  8
LAY-2
  6
CONTINUOUS
 62
     3
100
AcDbLine
 10
186.221344
 20
408.109814
 30
0.0
 11
186.221344
 21
401.009814
 31
0.0
  0
LINE
  5
189
100
AcDbEntity
  8
LAY-2
  6
CONTINUOUS
 62
     3
100
AcDbLine
 10
203.221344
 20
408.109814
 30
0.0
 11
203.221344
 21
401.009814
 31
0.0
  0
LINE
  5
18A
100
AcDbEntity
  8
LAY-2
  6
CONTINUOUS
 62
     3
100
AcDbLine
 10
675.478461
 20
480.009796
 30
0.0
 11
675.478461
 21
478.809796
 31
0.0
  0
LINE
  5
18B
100
AcDbEntity
  8
LAY-2
  6
CONTINUOUS
 62
     3
100
AcDbLine
 10
647.478461
 20
480.009796
 30
0.0
 11
647.478461
 21
478.809796
 31
0.0
  0
LINE
  5
18C
100
AcDbEntity
  8
LAY-2
  6
CONTINUOUS
 62
     3
100
AcDbLine
 10
675.478461
 20
478.809796
 30
0.0
 11
647.478461
 21
478.809796
 31
0.0
  0
ARC
  5
18D
100
AcDbEntity
  8
LAY-2
  6
CONTINUOUS
 62
     3
100
AcDbCircle
 10
673.328461
 20
478.809796
 30
0.0
 40
1.0
100
AcDbArc
 50
270.0
 51
0.0
  0
ARC
  5
18E
100
AcDbEntity
  8
LAY-2
  6
CONTINUOUS
 62
     3
100
AcDbCircle
 10
649.628461
 20
478.809796
 30
0.0
 40
1.0
100
AcDbArc
 50
180.0
 51
270.0
  0
ARC
  5
18F
100
AcDbEntity
  8
LAY-2
  6
CONTINUOUS
 62
     3
100
AcDbCircle
 10
657.928461
 20
470.209796
 30
0.0
 40
5.2
100
AcDbArc
 50
180.0
 51
270.0
  0
ARC
  5
190
100
AcDbEntity
  8
LAY-2
  6
CONTINUOUS
 62
     3
100
AcDbCircle
 10
652.228461
 20
477.309796
 30
0.0
 40
0.5
100
AcDbArc
 50
0.0
 51
90.0
  0
LINE
  5
191
100
AcDbEntity
  8
LAY-2
  6
CONTINUOUS
 62
     3
100
AcDbLine
 10
652.728461
 20
477.309796
 30
0.0
 11
652.728461
 21
470.209796
 31
0.0
  0
ARC
  5
192
100
AcDbEntity
  8
LAY-2
  6
CONTINUOUS
 62
     3
100
AcDbCircle
 10
665.028461
 20
470.209796
 30
0.0
 40
5.2
100
AcDbArc
 50
270.0
 51
0.0
  0
ARC
  5
193
100
AcDbEntity
  8
LAY-2
  6
CONTINUOUS
 62
     3
100
AcDbCircle
 10
670.728461
 20
477.309796
 30
0.0
 40
0.5
100
AcDbArc
 50
90.0
 51
180.0
  0
LINE
  5
194
100
AcDbEntity
  8
LAY-2
  6
CONTINUOUS
 62
     3
100
AcDbLine
 10
670.228461
 20
477.309796
 30
0.0
 11
670.228461
 21
470.209796
 31
0.0
  0
LINE
  5
195
100
AcDbEntity
  8
LAY-2
  6
CONTINUOUS
 62
     3
100
AcDbLine
 10
657.928461
 20
465.009796
 30
0.0
 11
665.028461
 21
465.009796
 31
0.0
  0
LINE
  5
196
100
AcDbEntity
  8
LAY-2
  6
CONTINUOUS
 62
     3
100
AcDbLine
 10
673.328461
 20
477.809796
 30
0.0
 11
649.628461
 21
477.809796
 31
0.0
  0
LINE
  5
197
100
AcDbEntity
  8
LAY-3
  6
CONTINUOUS
 62
     1
100
AcDbLine
 10
470.721344
 20
147.552063
 30
0.0
 11
449.4
 21
147.552063
 31
0.0
  0
LINE
  5
198
100
AcDbEntity
  8
LAY-3
  6
CONTINUOUS
 62
     1
100
AcDbLine
 10
214.72136
 20
134.552063
 30
0.0
 11
299.2
 21
134.552063
 31
0.0
  0
LINE
  5
199
100
AcDbEntity
  8
LAY-3
  6
CONTINUOUS
 62
     1
100
AcDbLine
 10
173.22136
 20
147.552063
 30
0.0
 11
299.2
 21
147.552063
 31
0.0
  0
LINE
  5
19A
100
AcDbEntity
  8
LAY-3
  6
CONTINUOUS
 62
     3
100
AcDbLine
 10
174.721337
 20
229.052094
 30
0.0
 11
470.721344
 21
229.052094
 31
0.0
  0
LINE
  5
19B
100
AcDbEntity
  8
LAY-3
  6
CONTINUOUS
 62
     3
100
AcDbLine
 10
472.721344
 20
234.052094
 30
0.0
 11
472.721344
 21
254.052094
 31
0.0
  0
LINE
  5
19C
100
AcDbEntity
  8
LAY-3
  6
CONTINUOUS
 62
     3
100
AcDbLine
 10
470.721344
 20
259.052094
 30
0.0
 11
174.721337
 21
259.052094
 31
0.0
  0
LINE
  5
19D
100
AcDbEntity
  8
LAY-3
  6
CONTINUOUS
 62
     3
100
AcDbLine
 10
172.721337
 20
254.052094
 30
0.0
 11
172.721337
 21
234.052094
 31
0.0
  0
ARC
  5
19E
100
AcDbEntity
  8
LAY-3
  6
CONTINUOUS
 62
     3
100
AcDbCircle
 10
179.195047
 20
254.362609
 30
0.0
 40
6.481153
100
AcDbArc
 50
133.651045
 51
182.746129
  0
ARC
  5
19F
100
AcDbEntity
  8
LAY-3
  6
CONTINUOUS
 62
     3
100
AcDbCircle
 10
179.195051
 20
233.741579
 30
0.0
 40
6.481156
100
AcDbArc
 50
177.253893
 51
226.348932
  0
ARC
  5
1A0
100
AcDbEntity
  8
LAY-3
  6
CONTINUOUS
 62
     3
100
AcDbCircle
 10
466.24763
 20
254.362609
 30
0.0
 40
6.481157
100
AcDbArc
 50
357.253885
 51
46.348921
  0
ARC
  5
1A1
100
AcDbEntity
  8
LAY-3
  6
CONTINUOUS
 62
     3
100
AcDbCircle
 10
466.24763
 20
233.741579
 30
0.0
 40
6.481156
100
AcDbArc
 50
313.651069
 51
2.746108
  0
CIRCLE
  5
1A2
100
AcDbEntity
  8
LAY-3
  6
DASHED2
 62
     3
100
AcDbCircle
 10
226.721344
 20
249.052094
 30
0.0
 40
6.0
  0
CIRCLE
  5
1A3
100
AcDbEntity
  8
LAY-3
  6
CONTINUOUS
 62
     3
100
AcDbCircle
 10
226.721344
 20
249.052094
 30
0.0
 40
3.35
  0
CIRCLE
  5
1A4
100
AcDbEntity
  8
LAY-3
  6
DASHED2
 62
     3
100
AcDbCircle
 10
266.721344
 20
239.052094
 30
0.0
 40
6.0
  0
CIRCLE
  5
1A5
100
AcDbEntity
  8
LAY-3
  6
CONTINUOUS
 62
     3
100
AcDbCircle
 10
266.721344
 20
239.052094
 30
0.0
 40
3.35
  0
CIRCLE
  5
1A6
100
AcDbEntity
  8
LAY-3
  6
DASHED2
 62
     3
100
AcDbCircle
 10
422.721344
 20
249.052094
 30
0.0
 40
6.0
  0
CIRCLE
  5
1A7
100
AcDbEntity
  8
LAY-3
  6
CONTINUOUS
 62
     3
100
AcDbCircle
 10
422.721344
 20
249.052094
 30
0.0
 40
3.35
  0
CIRCLE
  5
1A8
100
AcDbEntity
  8
LAY-3
  6
DASHED2
 62
     3
100
AcDbCircle
 10
462.721344
 20
239.052094
 30
0.0
 40
6.0
  0
CIRCLE
  5
1A9
100
AcDbEntity
  8
LAY-3
  6
CONTINUOUS
 62
     3
100
AcDbCircle
 10
462.721344
 20
239.052094
 30
0.0
 40
3.35
  0
LINE
  5
1AA
100
AcDbEntity
  8
LAY-3
  6
DASHED2
 62
     3
100
AcDbLine
 10
212.721344
 20
234.052094
 30
0.0
 11
212.721344
 21
254.052094
 31
0.0
  0
ARC
  5
1AB
100
AcDbEntity
  8
LAY-3
  6
DASHED2
 62
     3
100
AcDbCircle
 10
206.24763
 20
254.362609
 30
0.0
 40
6.481157
100
AcDbArc
 50
357.253885
 51
46.348921
  0
ARC
  5
1AC
100
AcDbEntity
  8
LAY-3
  6
DASHED2
 62
     3
100
AcDbCircle
 10
206.247631
 20
233.741579
 30
0.0
 40
6.481156
100
AcDbArc
 50
313.651068
 51
2.746108
  0
CIRCLE
  5
1AD
100
AcDbEntity
  8
LAY-3
  6
CONTINUOUS
 62
     3
100
AcDbCircle
 10
462.721344
 20
239.052094
 30
0.0
 40
3.35
  0
LINE
  5
1AE
100
AcDbEntity
  8
LAY-3
  6
CONTINUOUS
 62
     3
100
AcDbLine
 10
172.72136
 20
146.552063
 30
0.0
 11
172.72136
 21
128.552063
 31
0.0
  0
LINE
  5
1AF
100
AcDbEntity
  8
LAY-3
  6
CONTINUOUS
 62
     3
100
AcDbLine
 10
472.721344
 20
136.052063
 30
0.0
 11
472.721344
 21
146.052063
 31
0.0
  0
ARC
  5
1B0
100
AcDbEntity
  8
LAY-3
  6
CONTINUOUS
 62
     3
100
AcDbCircle
 10
173.72136
 20
128.552063
 30
0.0
 40
1.0
100
AcDbArc
 50
180.00002
 51
270.000001
  0
ARC
  5
1B1
100
AcDbEntity
  8
LAY-3
  6
CONTINUOUS
 62
     3
100
AcDbCircle
 10
173.72136
 20
146.552063
 30
0.0
 40
1.0
100
AcDbArc
 50
89.999981
 51
180.00002
  0
ARC
  5
1B2
100
AcDbEntity
  8
LAY-3
  6
CONTINUOUS
 62
     3
100
AcDbCircle
 10
471.221344
 20
146.052063
 30
0.0
 40
1.5
100
AcDbArc
 50
0.0
 51
89.999981
  0
ARC
  5
1B3
100
AcDbEntity
  8
LAY-3
  6
CONTINUOUS
 62
     3
100
AcDbCircle
 10
471.221344
 20
136.052063
 30
0.0
 40
1.5
100
AcDbArc
 50
270.000001
 51
359.999982
  0
ARC
  5
1B4
100
AcDbEntity
  8
LAY-3
  6
CONTINUOUS
 62
     3
100
AcDbCircle
 10
214.72136
 20
132.552063
 30
0.0
 40
2.0
100
AcDbArc
 50
89.999981
 51
180.00002
  0
LINE
  5
1B5
100
AcDbEntity
  8
LAY-3
  6
CONTINUOUS
 62
     3
100
AcDbLine
 10
212.72136
 20
128.552063
 30
0.0
 11
212.72136
 21
132.552063
 31
0.0
  0
ARC
  5
1B6
100
AcDbEntity
  8
LAY-3
  6
CONTINUOUS
 62
     3
100
AcDbCircle
 10
211.72136
 20
128.552063
 30
0.0
 40
1.0
100
AcDbArc
 50
270.000001
 51
359.999982
  0
LINE
  5
1B7
100
AcDbEntity
  8
LAY-3
  6
CONTINUOUS
 62
     3
100
AcDbLine
 10
211.72136
 20
127.552063
 30
0.0
 11
173.72136
 21
127.552063
 31
0.0
  0
LINE
  5
1B8
100
AcDbEntity
  8
LAY-3
  6
CONTINUOUS
 62
     3
100
AcDbLine
 10
214.72136
 20
134.552063
 30
0.0
 11
471.221344
 21
134.552063
 31
0.0
  0
LINE
  5
1B9
100
AcDbEntity
  8
LAY-3
  6
CONTINUOUS
 62
     3
100
AcDbLine
 10
470.721344
 20
147.552063
 30
0.0
 11
173.22136
 21
147.552063
 31
0.0
  0
LINE
  5
1BA
100
AcDbEntity
  8
LAY-3
  6
CONTINUOUS
 62
     3
100
AcDbLine
 10
648.4784
 20
353.552063
 30
0.0
 11
674.4784
 21
353.552063
 31
0.0
  0
LINE
  5
1BB
100
AcDbEntity
  8
LAY-3
  6
CONTINUOUS
 62
     3
100
AcDbLine
 10
676.4784
 20
335.552063
 30
0.0
 11
676.4784
 21
351.552063
 31
0.0
  0
LINE
  5
1BC
100
AcDbEntity
  8
LAY-3
  6
CONTINUOUS
 62
     3
100
AcDbLine
 10
646.4784
 20
335.552063
 30
0.0
 11
646.4784
 21
351.552063
 31
0.0
  0
ARC
  5
1BD
100
AcDbEntity
  8
LAY-3
  6
CONTINUOUS
 62
     3
100
AcDbCircle
 10
648.4784
 20
351.552063
 30
0.0
 40
2.0
100
AcDbArc
 50
89.999981
 51
180.00002
  0
ARC
  5
1BE
100
AcDbEntity
  8
LAY-3
  6
CONTINUOUS
 62
     3
100
AcDbCircle
 10
674.4784
 20
351.552063
 30
0.0
 40
2.0
100
AcDbArc
 50
0.0
 51
89.999981
  0
ARC
  5
1BF
100
AcDbEntity
  8
LAY-3
  6
CONTINUOUS
 62
     3
100
AcDbCircle
 10
674.4784
 20
335.552063
 30
0.0
 40
2.0
100
AcDbArc
 50
270.000001
 51
359.999982
  0
ARC
  5
1C0
100
AcDbEntity
  8
LAY-3
  6
CONTINUOUS
 62
     3
100
AcDbCircle
 10
648.4784
 20
335.552063
 30
0.0
 40
2.0
100
AcDbArc
 50
180.00002
 51
270.000001
  0
LINE
  5
1C1
100
AcDbEntity
  8
LAY-3
  6
CONTINUOUS
 62
     3
100
AcDbLine
 10
183.56109
 20
249.052078
 30
0.0
 11
205.881598
 21
249.052078
 31
0.0
  0
LINE
  5
1C2
100
AcDbEntity
  8
LAY-3
  6
CONTINUOUS
 62
     3
100
AcDbLine
 10
183.56109
 20
239.052078
 30
0.0
 11
205.881598
 21
239.052078
 31
0.0
  0
ARC
  5
1C3
100
AcDbEntity
  8
LAY-3
  6
CONTINUOUS
 62
     3
100
AcDbCircle
 10
192.221344
 20
244.052078
 30
0.0
 40
10.0
100
AcDbArc
 50
150.0
 51
210.0
  0
ARC
  5
1C4
100
AcDbEntity
  8
LAY-3
  6
CONTINUOUS
 62
     3
100
AcDbCircle
 10
197.221344
 20
244.052078
 30
0.0
 40
10.0
100
AcDbArc
 50
330.0
 51
30.0
  0
LINE
  5
1C5
100
AcDbEntity
  8
LAY-3
  6
DASHED2
 62
     3
100
AcDbLine
 10
185.079916
 20
251.052078
 30
0.0
 11
204.380941
 21
251.052078
 31
0.0
  0
LINE
  5
1C6
100
AcDbEntity
  8
LAY-3
  6
DASHED2
 62
     3
100
AcDbLine
 10
185.079916
 20
237.052078
 30
0.0
 11
204.362772
 21
237.052078
 31
0.0
  0
ARC
  5
1C7
100
AcDbEntity
  8
LAY-3
  6
DASHED2
 62
     3
100
AcDbCircle
 10
192.221344
 20
244.052078
 30
0.0
 40
10.0
100
AcDbArc
 50
135.572996
 51
150.0
  0
ARC
  5
1C8
100
AcDbEntity
  8
LAY-3
  6
DASHED2
 62
     3
100
AcDbCircle
 10
192.221344
 20
244.052078
 30
0.0
 40
10.0
100
AcDbArc
 50
210.0
 51
225.323719
  0
ARC
  5
1C9
100
AcDbEntity
  8
LAY-3
  6
DASHED2
 62
     3
100
AcDbCircle
 10
197.221344
 20
244.052078
 30
0.0
 40
10.0
100
AcDbArc
 50
315.572996
 51
330.0
  0
ARC
  5
1CA
100
AcDbEntity
  8
LAY-3
  6
DASHED2
 62
     3
100
AcDbCircle
 10
197.221344
 20
244.052078
 30
0.0
 40
10.0
100
AcDbArc
 50
30.0
 51
44.278091
  0
LINE
  5
1CB
100
AcDbEntity
  8
LAY-3
  6
DASHED2
 62
     3
100
AcDbLine
 10
468.371344
 20
134.552063
 30
0.0
 11
457.071344
 21
134.552063
 31
0.0
  0
LINE
  5
1CC
100
AcDbEntity
  8
LAY-3
  6
DASHED2
 62
     3
100
AcDbLine
 10
465.721344
 20
137.852063
 30
0.0
 11
459.721344
 21
137.852063
 31
0.0
  0
LINE
  5
1CD
100
AcDbEntity
  8
LAY-3
  6
DASHED2
 62
     3
100
AcDbLine
 10
459.721344
 20
137.852063
 30
0.0
 11
457.071344
 21
135.202063
 31
0.0
  0
LINE
  5
1CE
100
AcDbEntity
  8
LAY-3
  6
DASHED2
 62
     3
100
AcDbLine
 10
465.721344
 20
137.852063
 30
0.0
 11
468.371344
 21
135.202063
 31
0.0
  0
LINE
  5
1CF
100
AcDbEntity
  8
LAY-3
  6
DASHED2
 62
     3
100
AcDbLine
 10
457.071344
 20
135.202063
 30
0.0
 11
468.371344
 21
135.202063
 31
0.0
  0
LINE
  5
1D0
100
AcDbEntity
  8
LAY-3
  6
DASHED2
 62
     3
100
AcDbLine
 10
457.071344
 20
135.202063
 30
0.0
 11
457.071344
 21
134.552063
 31
0.0
  0
LINE
  5
1D1
100
AcDbEntity
  8
LAY-3
  6
DASHED2
 62
     3
100
AcDbLine
 10
468.371344
 20
135.202063
 30
0.0
 11
468.371344
 21
134.552063
 31
0.0
  0
LINE
  5
1D2
100
AcDbEntity
  8
LAY-3
  6
CONTINUOUS
 62
     3
100
AcDbLine
 10
465.721344
 20
154.552063
 30
0.0
 11
459.721344
 21
154.552063
 31
0.0
  0
LINE
  5
1D3
100
AcDbEntity
  8
LAY-3
  6
CONTINUOUS
 62
     3
100
AcDbLine
 10
459.721344
 20
154.552063
 30
0.0
 11
459.721344
 21
154.352002
 31
0.0
  0
LINE
  5
1D4
100
AcDbEntity
  8
LAY-3
  6
CONTINUOUS
 62
     3
100
AcDbLine
 10
465.721344
 20
154.552063
 30
0.0
 11
465.721344
 21
154.352002
 31
0.0
  0
LINE
  5
1D5
100
AcDbEntity
  8
LAY-3
  6
CONTINUOUS
 62
     1
100
AcDbLine
 10
460.321344
 20
154.552063
 30
0.0
 11
460.321344
 21
154.352002
 31
0.0
  0
LINE
  5
1D6
100
AcDbEntity
  8
LAY-3
  6
CONTINUOUS
 62
     1
100
AcDbLine
 10
465.121344
 20
154.552063
 30
0.0
 11
465.121344
 21
154.352002
 31
0.0
  0
LINE
  5
1D7
100
AcDbEntity
  8
LAY-3
  6
DASHED2
 62
     3
100
AcDbLine
 10
465.721344
 20
154.352002
 30
0.0
 11
465.721344
 21
137.852063
 31
0.0
  0
LINE
  5
1D8
100
AcDbEntity
  8
LAY-3
  6
DASHED2
 62
     1
100
AcDbLine
 10
465.121344
 20
154.352002
 30
0.0
 11
465.121344
 21
137.852063
 31
0.0
  0
LINE
  5
1D9
100
AcDbEntity
  8
LAY-3
  6
DASHED2
 62
     1
100
AcDbLine
 10
460.321344
 20
154.352002
 30
0.0
 11
460.321344
 21
137.852063
 31
0.0
  0
LINE
  5
1DA
100
AcDbEntity
  8
LAY-3
  6
DASHED2
 62
     3
100
AcDbLine
 10
459.721344
 20
154.352002
 30
0.0
 11
459.721344
 21
137.852063
 31
0.0
  0
LINE
  5
1DB
100
AcDbEntity
  8
LAY-3
  6
DASHED2
 62
     3
100
AcDbLine
 10
428.371344
 20
134.552063
 30
0.0
 11
417.071344
 21
134.552063
 31
0.0
  0
LINE
  5
1DC
100
AcDbEntity
  8
LAY-3
  6
DASHED2
 62
     3
100
AcDbLine
 10
425.721344
 20
137.852063
 30
0.0
 11
419.721344
 21
137.852063
 31
0.0
  0
LINE
  5
1DD
100
AcDbEntity
  8
LAY-3
  6
DASHED2
 62
     3
100
AcDbLine
 10
419.721344
 20
137.852063
 30
0.0
 11
417.071344
 21
135.202063
 31
0.0
  0
LINE
  5
1DE
100
AcDbEntity
  8
LAY-3
  6
DASHED2
 62
     3
100
AcDbLine
 10
425.721344
 20
137.852063
 30
0.0
 11
428.371344
 21
135.202063
 31
0.0
  0
LINE
  5
1DF
100
AcDbEntity
  8
LAY-3
  6
DASHED2
 62
     3
100
AcDbLine
 10
417.071344
 20
135.202063
 30
0.0
 11
428.371344
 21
135.202063
 31
0.0
  0
LINE
  5
1E0
100
AcDbEntity
  8
LAY-3
  6
DASHED2
 62
     3
100
AcDbLine
 10
417.071344
 20
135.202063
 30
0.0
 11
417.071344
 21
134.552063
 31
0.0
  0
LINE
  5
1E1
100
AcDbEntity
  8
LAY-3
  6
DASHED2
 62
     3
100
AcDbLine
 10
428.371344
 20
135.202063
 30
0.0
 11
428.371344
 21
134.552063
 31
0.0
  0
LINE
  5
1E2
100
AcDbEntity
  8
LAY-3
  6
CONTINUOUS
 62
     3
100
AcDbLine
 10
425.721344
 20
154.552063
 30
0.0
 11
419.721344
 21
154.552063
 31
0.0
  0
LINE
  5
1E3
100
AcDbEntity
  8
LAY-3
  6
CONTINUOUS
 62
     3
100
AcDbLine
 10
419.721344
 20
154.552063
 30
0.0
 11
419.721344
 21
154.352002
 31
0.0
  0
LINE
  5
1E4
100
AcDbEntity
  8
LAY-3
  6
CONTINUOUS
 62
     3
100
AcDbLine
 10
425.721344
 20
154.552063
 30
0.0
 11
425.721344
 21
154.352002
 31
0.0
  0
LINE
  5
1E5
100
AcDbEntity
  8
LAY-3
  6
CONTINUOUS
 62
     1
100
AcDbLine
 10
420.321344
 20
154.552063
 30
0.0
 11
420.321344
 21
154.352002
 31
0.0
  0
LINE
  5
1E6
100
AcDbEntity
  8
LAY-3
  6
CONTINUOUS
 62
     1
100
AcDbLine
 10
425.121344
 20
154.552063
 30
0.0
 11
425.121344
 21
154.352002
 31
0.0
  0
LINE
  5
1E7
100
AcDbEntity
  8
LAY-3
  6
DASHED2
 62
     3
100
AcDbLine
 10
425.721344
 20
154.352002
 30
0.0
 11
425.721344
 21
137.852063
 31
0.0
  0
LINE
  5
1E8
100
AcDbEntity
  8
LAY-3
  6
DASHED2
 62
     1
100
AcDbLine
 10
425.121344
 20
154.352002
 30
0.0
 11
425.121344
 21
137.852063
 31
0.0
  0
LINE
  5
1E9
100
AcDbEntity
  8
LAY-3
  6
DASHED2
 62
     1
100
AcDbLine
 10
420.321344
 20
154.352002
 30
0.0
 11
420.321344
 21
137.852063
 31
0.0
  0
LINE
  5
1EA
100
AcDbEntity
  8
LAY-3
  6
DASHED2
 62
     3
100
AcDbLine
 10
419.721344
 20
154.352002
 30
0.0
 11
419.721344
 21
137.852063
 31
0.0
  0
LINE
  5
1EB
100
AcDbEntity
  8
LAY-3
  6
DASHED2
 62
     3
100
AcDbLine
 10
269.721344
 20
137.852063
 30
0.0
 11
263.721344
 21
137.852063
 31
0.0
  0
LINE
  5
1EC
100
AcDbEntity
  8
LAY-3
  6
DASHED2
 62
     3
100
AcDbLine
 10
263.721344
 20
137.852063
 30
0.0
 11
261.071344
 21
135.202063
 31
0.0
  0
LINE
  5
1ED
100
AcDbEntity
  8
LAY-3
  6
DASHED2
 62
     3
100
AcDbLine
 10
269.721344
 20
137.852063
 30
0.0
 11
272.371344
 21
135.202063
 31
0.0
  0
LINE
  5
1EE
100
AcDbEntity
  8
LAY-3
  6
DASHED2
 62
     3
100
AcDbLine
 10
261.071344
 20
135.202063
 30
0.0
 11
272.371344
 21
135.202063
 31
0.0
  0
LINE
  5
1EF
100
AcDbEntity
  8
LAY-3
  6
DASHED2
 62
     3
100
AcDbLine
 10
261.071344
 20
135.202063
 30
0.0
 11
261.071344
 21
134.552063
 31
0.0
  0
LINE
  5
1F0
100
AcDbEntity
  8
LAY-3
  6
DASHED2
 62
     3
100
AcDbLine
 10
272.371344
 20
135.202063
 30
0.0
 11
272.371344
 21
134.552063
 31
0.0
  0
LINE
  5
1F1
100
AcDbEntity
  8
LAY-3
  6
CONTINUOUS
 62
     3
100
AcDbLine
 10
269.721344
 20
154.552063
 30
0.0
 11
263.721344
 21
154.552063
 31
0.0
  0
LINE
  5
1F2
100
AcDbEntity
  8
LAY-3
  6
CONTINUOUS
 62
     3
100
AcDbLine
 10
263.721344
 20
154.552063
 30
0.0
 11
263.721344
 21
154.352002
 31
0.0
  0
LINE
  5
1F3
100
AcDbEntity
  8
LAY-3
  6
CONTINUOUS
 62
     3
100
AcDbLine
 10
269.721344
 20
154.552063
 30
0.0
 11
269.721344
 21
154.352002
 31
0.0
  0
LINE
  5
1F4
100
AcDbEntity
  8
LAY-3
  6
CONTINUOUS
 62
     1
100
AcDbLine
 10
264.321344
 20
154.552063
 30
0.0
 11
264.321344
 21
154.352002
 31
0.0
  0
LINE
  5
1F5
100
AcDbEntity
  8
LAY-3
  6
CONTINUOUS
 62
     1
100
AcDbLine
 10
269.121344
 20
154.552063
 30
0.0
 11
269.121344
 21
154.352002
 31
0.0
  0
LINE
  5
1F6
100
AcDbEntity
  8
LAY-3
  6
DASHED2
 62
     3
100
AcDbLine
 10
269.721344
 20
154.352002
 30
0.0
 11
269.721344
 21
137.852063
 31
0.0
  0
LINE
  5
1F7
100
AcDbEntity
  8
LAY-3
  6
DASHED2
 62
     1
100
AcDbLine
 10
269.121344
 20
154.352002
 30
0.0
 11
269.121344
 21
137.852063
 31
0.0
  0
LINE
  5
1F8
100
AcDbEntity
  8
LAY-3
  6
DASHED2
 62
     1
100
AcDbLine
 10
264.321344
 20
154.352002
 30
0.0
 11
264.321344
 21
137.852063
 31
0.0
  0
LINE
  5
1F9
100
AcDbEntity
  8
LAY-3
  6
DASHED2
 62
     3
100
AcDbLine
 10
263.721344
 20
154.352002
 30
0.0
 11
263.721344
 21
137.852063
 31
0.0
  0
LINE
  5
1FA
100
AcDbEntity
  8
LAY-3
  6
DASHED2
 62
     3
100
AcDbLine
 10
232.371344
 20
134.552063
 30
0.0
 11
221.071344
 21
134.552063
 31
0.0
  0
LINE
  5
1FB
100
AcDbEntity
  8
LAY-3
  6
DASHED2
 62
     3
100
AcDbLine
 10
229.721344
 20
137.852063
 30
0.0
 11
223.721344
 21
137.852063
 31
0.0
  0
LINE
  5
1FC
100
AcDbEntity
  8
LAY-3
  6
DASHED2
 62
     3
100
AcDbLine
 10
223.721344
 20
137.852063
 30
0.0
 11
221.071344
 21
135.202063
 31
0.0
  0
LINE
  5
1FD
100
AcDbEntity
  8
LAY-3
  6
DASHED2
 62
     3
100
AcDbLine
 10
229.721344
 20
137.852063
 30
0.0
 11
232.371344
 21
135.202063
 31
0.0
  0
LINE
  5
1FE
100
AcDbEntity
  8
LAY-3
  6
DASHED2
 62
     3
100
AcDbLine
 10
221.071344
 20
135.202063
 30
0.0
 11
232.371344
 21
135.202063
 31
0.0
  0
LINE
  5
1FF
100
AcDbEntity
  8
LAY-3
  6
DASHED2
 62
     3
100
AcDbLine
 10
221.071344
 20
135.202063
 30
0.0
 11
221.071344
 21
134.552063
 31
0.0
  0
LINE
  5
200
100
AcDbEntity
  8
LAY-3
  6
DASHED2
 62
     3
100
AcDbLine
 10
232.371344
 20
135.202063
 30
0.0
 11
232.371344
 21
134.552063
 31
0.0
  0
LINE
  5
201
100
AcDbEntity
  8
LAY-3
  6
CONTINUOUS
 62
     3
100
AcDbLine
 10
229.721344
 20
154.552063
 30
0.0
 11
223.721344
 21
154.552063
 31
0.0
  0
LINE
  5
202
100
AcDbEntity
  8
LAY-3
  6
CONTINUOUS
 62
     3
100
AcDbLine
 10
223.721344
 20
154.552063
 30
0.0
 11
223.721344
 21
154.352002
 31
0.0
  0
LINE
  5
203
100
AcDbEntity
  8
LAY-3
  6
CONTINUOUS
 62
     3
100
AcDbLine
 10
229.721344
 20
154.552063
 30
0.0
 11
229.721344
 21
154.352002
 31
0.0
  0
LINE
  5
204
100
AcDbEntity
  8
LAY-3
  6
CONTINUOUS
 62
     1
100
AcDbLine
 10
224.321344
 20
154.552063
 30
0.0
 11
224.321344
 21
154.352002
 31
0.0
  0
LINE
  5
205
100
AcDbEntity
  8
LAY-3
  6
CONTINUOUS
 62
     1
100
AcDbLine
 10
229.121344
 20
154.552063
 30
0.0
 11
229.121344
 21
154.352002
 31
0.0
  0
LINE
  5
206
100
AcDbEntity
  8
LAY-3
  6
DASHED2
 62
     3
100
AcDbLine
 10
229.721344
 20
154.352002
 30
0.0
 11
229.721344
 21
137.852063
 31
0.0
  0
LINE
  5
207
100
AcDbEntity
  8
LAY-3
  6
DASHED2
 62
     1
100
AcDbLine
 10
229.121344
 20
154.352002
 30
0.0
 11
229.121344
 21
137.852063
 31
0.0
  0
LINE
  5
208
100
AcDbEntity
  8
LAY-3
  6
DASHED2
 62
     1
100
AcDbLine
 10
224.321344
 20
154.352002
 30
0.0
 11
224.321344
 21
137.852063
 31
0.0
  0
LINE
  5
209
100
AcDbEntity
  8
LAY-3
  6
DASHED2
 62
     3
100
AcDbLine
 10
223.721344
 20
154.352002
 30
0.0
 11
223.721344
 21
137.852063
 31
0.0
  0
LINE
  5
20A
100
AcDbEntity
  8
LAY-3
  6
DASHED2
 62
     3
100
AcDbLine
 10
232.371344
 20
134.552063
 30
0.0
 11
221.071344
 21
134.552063
 31
0.0
  0
LINE
  5
20B
100
AcDbEntity
  8
LAY-3
  6
DASHED2
 62
     3
100
AcDbLine
 10
229.721344
 20
137.852063
 30
0.0
 11
223.721344
 21
137.852063
 31
0.0
  0
LINE
  5
20C
100
AcDbEntity
  8
LAY-3
  6
DASHED2
 62
     3
100
AcDbLine
 10
223.721344
 20
137.852063
 30
0.0
 11
221.071344
 21
135.202063
 31
0.0
  0
LINE
  5
20D
100
AcDbEntity
  8
LAY-3
  6
DASHED2
 62
     3
100
AcDbLine
 10
229.721344
 20
137.852063
 30
0.0
 11
232.371344
 21
135.202063
 31
0.0
  0
LINE
  5
20E
100
AcDbEntity
  8
LAY-3
  6
DASHED2
 62
     3
100
AcDbLine
 10
221.071344
 20
135.202063
 30
0.0
 11
232.371344
 21
135.202063
 31
0.0
  0
LINE
  5
20F
100
AcDbEntity
  8
LAY-3
  6
DASHED2
 62
     3
100
AcDbLine
 10
221.071344
 20
135.202063
 30
0.0
 11
221.071344
 21
134.552063
 31
0.0
  0
LINE
  5
210
100
AcDbEntity
  8
LAY-3
  6
DASHED2
 62
     3
100
AcDbLine
 10
232.371344
 20
135.202063
 30
0.0
 11
232.371344
 21
134.552063
 31
0.0
  0
LINE
  5
211
100
AcDbEntity
  8
LAY-3
  6
CONTINUOUS
 62
     3
100
AcDbLine
 10
229.721344
 20
154.552063
 30
0.0
 11
223.721344
 21
154.552063
 31
0.0
  0
LINE
  5
212
100
AcDbEntity
  8
LAY-3
  6
CONTINUOUS
 62
     3
100
AcDbLine
 10
223.721344
 20
154.552063
 30
0.0
 11
223.721344
 21
154.352002
 31
0.0
  0
LINE
  5
213
100
AcDbEntity
  8
LAY-3
  6
CONTINUOUS
 62
     3
100
AcDbLine
 10
229.721344
 20
154.552063
 30
0.0
 11
229.721344
 21
154.352002
 31
0.0
  0
CIRCLE
  5
214
100
AcDbEntity
  8
LAY-3
  6
DASHED2
 62
     3
100
AcDbCircle
 10
344.721344
 20
244.052063
 30
0.0
 40
6.0
  0
CIRCLE
  5
215
100
AcDbEntity
  8
LAY-3
  6
CONTINUOUS
 62
     3
100
AcDbCircle
 10
344.721344
 20
244.052063
 30
0.0
 40
3.35
  0
LINE
  5
216
100
AcDbEntity
  8
LAY-3
  6
DASHED2
 62
     3
100
AcDbLine
 10
350.371344
 20
134.552063
 30
0.0
 11
339.071344
 21
134.552063
 31
0.0
  0
LINE
  5
217
100
AcDbEntity
  8
LAY-3
  6
DASHED2
 62
     3
100
AcDbLine
 10
347.721344
 20
137.852063
 30
0.0
 11
341.721344
 21
137.852063
 31
0.0
  0
LINE
  5
218
100
AcDbEntity
  8
LAY-3
  6
DASHED2
 62
     3
100
AcDbLine
 10
341.721344
 20
137.852063
 30
0.0
 11
339.071344
 21
135.202063
 31
0.0
  0
LINE
  5
219
100
AcDbEntity
  8
LAY-3
  6
DASHED2
 62
     3
100
AcDbLine
 10
347.721344
 20
137.852063
 30
0.0
 11
350.371344
 21
135.202063
 31
0.0
  0
LINE
  5
21A
100
AcDbEntity
  8
LAY-3
  6
DASHED2
 62
     3
100
AcDbLine
 10
339.071344
 20
135.202063
 30
0.0
 11
350.371344
 21
135.202063
 31
0.0
  0
LINE
  5
21B
100
AcDbEntity
  8
LAY-3
  6
DASHED2
 62
     3
100
AcDbLine
 10
339.071344
 20
135.202063
 30
0.0
 11
339.071344
 21
134.552063
 31
0.0
  0
LINE
  5
21C
100
AcDbEntity
  8
LAY-3
  6
DASHED2
 62
     3
100
AcDbLine
 10
350.371344
 20
135.202063
 30
0.0
 11
350.371344
 21
134.552063
 31
0.0
  0
LINE
  5
21D
100
AcDbEntity
  8
LAY-3
  6
CONTINUOUS
 62
     3
100
AcDbLine
 10
347.721344
 20
154.552063
 30
0.0
 11
341.721344
 21
154.552063
 31
0.0
  0
LINE
  5
21E
100
AcDbEntity
  8
LAY-3
  6
CONTINUOUS
 62
     3
100
AcDbLine
 10
341.721344
 20
154.552063
 30
0.0
 11
341.721344
 21
154.352002
 31
0.0
  0
LINE
  5
21F
100
AcDbEntity
  8
LAY-3
  6
CONTINUOUS
 62
     3
100
AcDbLine
 10
347.721344
 20
154.552063
 30
0.0
 11
347.721344
 21
154.352002
 31
0.0
  0
LINE
  5
220
100
AcDbEntity
  8
LAY-3
  6
CONTINUOUS
 62
     1
100
AcDbLine
 10
342.321344
 20
154.552063
 30
0.0
 11
342.321344
 21
154.352002
 31
0.0
  0
LINE
  5
221
100
AcDbEntity
  8
LAY-3
  6
CONTINUOUS
 62
     1
100
AcDbLine
 10
347.121344
 20
154.552063
 30
0.0
 11
347.121344
 21
154.352002
 31
0.0
  0
LINE
  5
222
100
AcDbEntity
  8
LAY-3
  6
DASHED2
 62
     3
100
AcDbLine
 10
347.721344
 20
154.352002
 30
0.0
 11
347.721344
 21
137.852063
 31
0.0
  0
LINE
  5
223
100
AcDbEntity
  8
LAY-3
  6
DASHED2
 62
     1
100
AcDbLine
 10
347.121344
 20
154.352002
 30
0.0
 11
347.121344
 21
137.852063
 31
0.0
  0
LINE
  5
224
100
AcDbEntity
  8
LAY-3
  6
DASHED2
 62
     1
100
AcDbLine
 10
342.321344
 20
154.352002
 30
0.0
 11
342.321344
 21
137.852063
 31
0.0
  0
LINE
  5
225
100
AcDbEntity
  8
LAY-3
  6
DASHED2
 62
     3
100
AcDbLine
 10
341.721344
 20
154.352002
 30
0.0
 11
341.721344
 21
137.852063
 31
0.0
  0
LINE
  5
226
100
AcDbEntity
  8
LAY-3
  6
CONTINUOUS
 62
     3
100
AcDbLine
 10
668.803485
 20
333.55205
 30
0.0
 11
674.4784
 21
333.552063
 31
0.0
  0
LINE
  5
227
100
AcDbEntity
  8
LAY-3
  6
CONTINUOUS
 62
     3
100
AcDbLine
 10
654.153438
 20
333.552063
 30
0.0
 11
648.4784
 21
333.552063
 31
0.0
  0
LINE
  5
228
100
AcDbEntity
  8
LAY-4
  6
CONTINUOUS
 62
     3
100
AcDbLine
 10
641.478461
 20
305.551885
 30
0.0
 11
681.478461
 21
305.551885
 31
0.0
  0
LINE
  5
229
100
AcDbEntity
  8
LAY-4
  6
CONTINUOUS
 62
     3
100
AcDbLine
 10
639.478461
 20
329.051695
 30
0.0
 11
683.478461
 21
329.052074
 31
0.0
  0
LINE
  5
22A
100
AcDbEntity
  8
LAY-4
  6
CONTINUOUS
 62
     3
100
AcDbLine
 10
639.478461
 20
327.551885
 30
0.0
 11
683.478461
 21
327.551885
 31
0.0
  0
LINE
  5
22B
100
AcDbEntity
  8
LAY-4
  6
CONTINUOUS
 62
     3
100
AcDbLine
 10
641.478461
 20
327.551885
 30
0.0
 11
641.478461
 21
305.551885
 31
0.0
  0
LINE
  5
22C
100
AcDbEntity
  8
LAY-4
  6
CONTINUOUS
 62
     3
100
AcDbLine
 10
681.478461
 20
327.551885
 30
0.0
 11
681.478461
 21
305.551885
 31
0.0
  0
LINE
  5
22D
100
AcDbEntity
  8
LAY-4
  6
CONTINUOUS
 62
     3
100
AcDbLine
 10
639.478461
 20
329.051706
 30
0.0
 11
639.478461
 21
327.551885
 31
0.0
  0
LINE
  5
22E
100
AcDbEntity
  8
LAY-4
  6
CONTINUOUS
 62
     3
100
AcDbLine
 10
683.478461
 20
329.052068
 30
0.0
 11
683.478461
 21
327.551885
 31
0.0
  0
LINE
  5
22F
100
AcDbEntity
  8
LAY-4
  6
CONTINUOUS
 62
     3
100
AcDbLine
 10
174.721344
 20
99.552063
 30
0.0
 11
244.721344
 21
99.552063
 31
0.0
  0
LINE
  5
230
100
AcDbEntity
  8
LAY-4
  6
CONTINUOUS
 62
     1
100
AcDbLine
 10
249.721344
 20
121.552063
 30
0.0
 11
232.6
 21
121.552063
 31
0.0
  0
LINE
  5
231
100
AcDbEntity
  8
LAY-4
  6
CONTINUOUS
 62
     1
100
AcDbLine
 10
249.721344
 20
123.052063
 30
0.0
 11
232.6
 21
123.052063
 31
0.0
  0
LINE
  5
232
100
AcDbEntity
  8
LAY-4
  6
CONTINUOUS
 62
     3
100
AcDbLine
 10
169.721344
 20
123.052063
 30
0.0
 11
249.721344
 21
123.052063
 31
0.0
  0
LINE
  5
233
100
AcDbEntity
  8
LAY-4
  6
CONTINUOUS
 62
     3
100
AcDbLine
 10
169.721344
 20
121.552063
 30
0.0
 11
249.721344
 21
121.552063
 31
0.0
  0
LINE
  5
234
100
AcDbEntity
  8
LAY-4
  6
CONTINUOUS
 62
     3
100
AcDbLine
 10
169.721344
 20
123.052063
 30
0.0
 11
169.721344
 21
121.552063
 31
0.0
  0
LINE
  5
235
100
AcDbEntity
  8
LAY-4
  6
CONTINUOUS
 62
     3
100
AcDbLine
 10
249.721344
 20
123.052063
 30
0.0
 11
249.721344
 21
121.552063
 31
0.0
  0
LINE
  5
236
100
AcDbEntity
  8
LAY-4
  6
CONTINUOUS
 62
     3
100
AcDbLine
 10
174.721344
 20
121.552063
 30
0.0
 11
174.721344
 21
99.552063
 31
0.0
  0
LINE
  5
237
100
AcDbEntity
  8
LAY-4
  6
CONTINUOUS
 62
     3
100
AcDbLine
 10
244.721344
 20
121.552063
 30
0.0
 11
244.721344
 21
99.552063
 31
0.0
  0
LINE
  5
238
100
AcDbEntity
  8
LAY-4
  6
CONTINUOUS
 62
     3
100
AcDbLine
 10
204.144837
 20
126.052032
 30
0.0
 11
185.297822
 21
126.052032
 31
0.0
  0
LINE
  5
239
100
AcDbEntity
  8
LAY-4
  6
CONTINUOUS
 62
     3
100
AcDbLine
 10
207.221329
 20
123.052063
 30
0.0
 11
207.221329
 21
127.552002
 31
0.0
  0
LINE
  5
23A
100
AcDbEntity
  8
LAY-4
  6
CONTINUOUS
 62
     3
100
AcDbLine
 10
182.221344
 20
123.052063
 30
0.0
 11
182.221344
 21
127.552063
 31
0.0
  0
LINE
  5
23B
100
AcDbEntity
  8
LAY-4
  6
DASHED2
 62
     3
100
AcDbLine
 10
183.221344
 20
146.052063
 30
0.0
 11
206.221344
 21
146.052063
 31
0.0
  0
LINE
  5
23C
100
AcDbEntity
  8
LAY-4
  6
DASHED2
 62
     3
100
AcDbLine
 10
183.221344
 20
146.052063
 30
0.0
 11
182.221344
 21
145.052063
 31
0.0
  0
LINE
  5
23D
100
AcDbEntity
  8
LAY-4
  6
DASHED2
 62
     3
100
AcDbLine
 10
206.221344
 20
146.052063
 30
0.0
 11
207.221344
 21
145.052063
 31
0.0
  0
LINE
  5
23E
100
AcDbEntity
  8
LAY-4
  6
DASHED2
 62
     3
100
AcDbLine
 10
183.635529
 20
145.052032
 30
0.0
 11
184.63556
 21
146.052063
 31
0.0
  0
LINE
  5
23F
100
AcDbEntity
  8
LAY-4
  6
DASHED2
 62
     3
100
AcDbLine
 10
205.807129
 20
145.052032
 30
0.0
 11
204.807129
 21
146.052063
 31
0.0
  0
LINE
  5
240
100
AcDbEntity
  8
LAY-4
  6
DASHED2
 62
     3
100
AcDbLine
 10
183.635529
 20
145.052032
 30
0.0
 11
182.221344
 21
145.052032
 31
0.0
  0
LINE
  5
241
100
AcDbEntity
  8
LAY-4
  6
DASHED2
 62
     3
100
AcDbLine
 10
205.807129
 20
145.052032
 30
0.0
 11
207.221344
 21
145.052032
 31
0.0
  0
LINE
  5
242
100
AcDbEntity
  8
LAY-4
  6
CONTINUOUS
 62
     3
100
AcDbLine
 10
185.297822
 20
126.052032
 30
0.0
 11
185.166541
 21
127.552538
 31
0.0
  0
LINE
  5
243
100
AcDbEntity
  8
LAY-4
  6
DASHED2
 62
     3
100
AcDbLine
 10
185.161115
 20
127.552063
 30
0.0
 11
183.438679
 21
145.052032
 31
0.0
  0
LINE
  5
244
100
AcDbEntity
  8
LAY-4
  6
CONTINUOUS
 62
     3
100
AcDbLine
 10
204.144867
 20
126.052032
 30
0.0
 11
204.276148
 21
127.552536
 31
0.0
  0
LINE
  5
245
100
AcDbEntity
  8
LAY-4
  6
DASHED2
 62
     3
100
AcDbLine
 10
204.281558
 20
127.552063
 30
0.0
 11
206.003977
 21
145.052032
 31
0.0
  0
LINE
  5
246
100
AcDbEntity
  8
LAY-4
  6
CONTINUOUS
 62
     3
100
AcDbLine
 10
636.478461
 20
174.052078
 30
0.0
 11
636.478461
 21
131.052078
 31
0.0
  0
LINE
  5
247
100
AcDbEntity
  8
LAY-4
  6
CONTINUOUS
 62
     3
100
AcDbLine
 10
716.478461
 20
174.052078
 30
0.0
 11
716.478461
 21
131.052078
 31
0.0
  0
LINE
  5
248
100
AcDbEntity
  8
LAY-4
  6
CONTINUOUS
 62
     3
100
AcDbLine
 10
636.478461
 20
174.052078
 30
0.0
 11
716.478461
 21
174.052078
 31
0.0
  0
LINE
  5
249
100
AcDbEntity
  8
LAY-4
  6
CONTINUOUS
 62
     3
100
AcDbLine
 10
636.478461
 20
131.052078
 30
0.0
 11
716.478461
 21
131.052078
 31
0.0
  0
LINE
  5
24A
100
AcDbEntity
  8
LAY-4
  6
DASHED2
 62
     3
100
AcDbLine
 10
641.478461
 20
172.552078
 30
0.0
 11
641.478461
 21
132.552078
 31
0.0
  0
LINE
  5
24B
100
AcDbEntity
  8
LAY-4
  6
DASHED2
 62
     3
100
AcDbLine
 10
711.478461
 20
172.552078
 30
0.0
 11
711.478461
 21
132.552078
 31
0.0
  0
LINE
  5
24C
100
AcDbEntity
  8
LAY-4
  6
DASHED2
 62
     3
100
AcDbLine
 10
641.478461
 20
172.552078
 30
0.0
 11
711.478461
 21
172.552078
 31
0.0
  0
LINE
  5
24D
100
AcDbEntity
  8
LAY-4
  6
DASHED2
 62
     3
100
AcDbLine
 10
641.478461
 20
132.552078
 30
0.0
 11
711.478461
 21
132.552078
 31
0.0
  0
CIRCLE
  5
24E
100
AcDbEntity
  8
LAY-4
  6
DASHED2
 62
     3
100
AcDbCircle
 10
703.478461
 20
140.552078
 30
0.0
 40
5.75
  0
LINE
  5
24F
100
AcDbEntity
  8
LAY-4
  6
DASHED2
 62
     3
100
AcDbLine
 10
706.588191
 20
143.661808
 30
0.0
 11
700.333191
 21
137.406808
 31
0.0
  0
LINE
  5
250
100
AcDbEntity
  8
LAY-4
  6
DASHED2
 62
     3
100
AcDbLine
 10
700.415269
 20
143.61527
 30
0.0
 11
706.605269
 21
137.42527
 31
0.0
  0
CIRCLE
  5
251
100
AcDbEntity
  8
LAY-4
  6
DASHED2
 62
     3
100
AcDbCircle
 10
683.478461
 20
140.552078
 30
0.0
 40
5.75
  0
LINE
  5
252
100
AcDbEntity
  8
LAY-4
  6
DASHED2
 62
     3
100
AcDbLine
 10
686.588191
 20
143.661808
 30
0.0
 11
680.333191
 21
137.406808
 31
0.0
  0
LINE
  5
253
100
AcDbEntity
  8
LAY-4
  6
DASHED2
 62
     3
100
AcDbLine
 10
680.415269
 20
143.61527
 30
0.0
 11
686.605269
 21
137.42527
 31
0.0
  0
CIRCLE
  5
254
100
AcDbEntity
  8
LAY-4
  6
DASHED2
 62
     3
100
AcDbCircle
 10
683.478461
 20
164.552078
 30
0.0
 40
5.75
  0
LINE
  5
255
100
AcDbEntity
  8
LAY-4
  6
DASHED2
 62
     3
100
AcDbLine
 10
686.588191
 20
167.661808
 30
0.0
 11
680.333191
 21
161.406808
 31
0.0
  0
LINE
  5
256
100
AcDbEntity
  8
LAY-4
  6
DASHED2
 62
     3
100
AcDbLine
 10
680.415269
 20
167.61527
 30
0.0
 11
686.605269
 21
161.42527
 31
0.0
  0
CIRCLE
  5
257
100
AcDbEntity
  8
LAY-4
  6
DASHED2
 62
     3
100
AcDbCircle
 10
703.478461
 20
164.552078
 30
0.0
 40
5.75
  0
LINE
  5
258
100
AcDbEntity
  8
LAY-4
  6
DASHED2
 62
     3
100
AcDbLine
 10
706.588191
 20
167.661808
 30
0.0
 11
700.333191
 21
161.406808
 31
0.0
  0
LINE
  5
259
100
AcDbEntity
  8
LAY-4
  6
DASHED2
 62
     3
100
AcDbLine
 10
700.415269
 20
167.61527
 30
0.0
 11
706.605269
 21
161.42527
 31
0.0
  0
CIRCLE
  5
25A
100
AcDbEntity
  8
LAY-4
  6
CONTINUOUS
 62
     3
100
AcDbCircle
 10
703.478461
 20
152.552078
 30
0.0
 40
4.0
  0
LINE
  5
25B
100
AcDbEntity
  8
LAY-4
  6
CONTINUOUS
 62
     3
100
AcDbLine
 10
705.688191
 20
154.761808
 30
0.0
 11
701.293191
 21
150.366808
 31
0.0
  0
LINE
  5
25C
100
AcDbEntity
  8
LAY-4
  6
CONTINUOUS
 62
     3
100
AcDbLine
 10
701.25527
 20
154.77527
 30
0.0
 11
705.67027
 21
150.36027
 31
0.0
  0
CIRCLE
  5
25D
100
AcDbEntity
  8
LAY-4
  6
CONTINUOUS
 62
     3
100
AcDbCircle
 10
683.478461
 20
152.552078
 30
0.0
 40
4.0
  0
LINE
  5
25E
100
AcDbEntity
  8
LAY-4
  6
CONTINUOUS
 62
     3
100
AcDbLine
 10
685.688191
 20
154.761808
 30
0.0
 11
681.293191
 21
150.366808
 31
0.0
  0
LINE
  5
25F
100
AcDbEntity
  8
LAY-4
  6
CONTINUOUS
 62
     3
100
AcDbLine
 10
681.255269
 20
154.77527
 30
0.0
 11
685.670269
 21
150.36027
 31
0.0
  0
LINE
  5
260
100
AcDbEntity
  8
LAY-4
  6
DASHED2
 62
     3
100
AcDbLine
 10
207.071367
 20
147.552063
 30
0.0
 11
207.071315
 21
127.552063
 31
0.0
  0
LINE
  5
261
100
AcDbEntity
  8
LAY-4
  6
DASHED2
 62
     3
100
AcDbLine
 10
182.371344
 20
147.552063
 30
0.0
 11
182.371344
 21
127.552063
 31
0.0
  0
LINE
  5
262
100
AcDbEntity
  8
LAY-4
  6
DASHED2
 62
     3
100
AcDbLine
 10
242.971344
 20
114.552063
 30
0.0
 11
242.971344
 21
121.552063
 31
0.0
  0
LINE
  5
263
100
AcDbEntity
  8
LAY-4
  6
DASHED2
 62
     3
100
AcDbLine
 10
230.471344
 20
114.552063
 30
0.0
 11
230.471344
 21
121.552063
 31
0.0
  0
LINE
  5
264
100
AcDbEntity
  8
LAY-4
  6
DASHED2
 62
     3
100
AcDbLine
 10
230.471344
 20
114.552063
 30
0.0
 11
233.471344
 21
111.552063
 31
0.0
  0
LINE
  5
265
100
AcDbEntity
  8
LAY-4
  6
DASHED2
 62
     3
100
AcDbLine
 10
242.971344
 20
114.552063
 30
0.0
 11
239.971344
 21
111.552063
 31
0.0
  0
LINE
  5
266
100
AcDbEntity
  8
LAY-4
  6
DASHED2
 62
     3
100
AcDbLine
 10
239.721344
 20
111.302063
 30
0.0
 11
233.721344
 21
111.302063
 31
0.0
  0
LINE
  5
267
100
AcDbEntity
  8
LAY-4
  6
DASHED2
 62
     3
100
AcDbLine
 10
239.721344
 20
111.302063
 30
0.0
 11
242.721344
 21
114.302063
 31
0.0
  0
LINE
  5
268
100
AcDbEntity
  8
LAY-4
  6
DASHED2
 62
     3
100
AcDbLine
 10
242.721344
 20
114.302063
 30
0.0
 11
230.721344
 21
114.302063
 31
0.0
  0
LINE
  5
269
100
AcDbEntity
  8
LAY-4
  6
DASHED2
 62
     3
100
AcDbLine
 10
242.721344
 20
114.702063
 30
0.0
 11
230.721344
 21
114.702063
 31
0.0
  0
LINE
  5
26A
100
AcDbEntity
  8
LAY-4
  6
DASHED2
 62
     3
100
AcDbLine
 10
242.721344
 20
114.702063
 30
0.0
 11
242.721344
 21
114.302063
 31
0.0
  0
LINE
  5
26B
100
AcDbEntity
  8
LAY-4
  6
DASHED2
 62
     3
100
AcDbLine
 10
230.721344
 20
114.702063
 30
0.0
 11
230.721344
 21
114.302063
 31
0.0
  0
LINE
  5
26C
100
AcDbEntity
  8
LAY-4
  6
DASHED2
 62
     3
100
AcDbLine
 10
233.721344
 20
111.302063
 30
0.0
 11
230.721344
 21
114.302063
 31
0.0
  0
LINE
  5
26D
100
AcDbEntity
  8
LAY-4
  6
DASHED2
 62
     3
100
AcDbLine
 10
239.721344
 20
111.302063
 30
0.0
 11
239.721344
 21
95.052063
 31
0.0
  0
LINE
  5
26E
100
AcDbEntity
  8
LAY-4
  6
DASHED2
 62
     1
100
AcDbLine
 10
238.971344
 20
111.302063
 30
0.0
 11
238.971344
 21
95.052063
 31
0.0
  0
LINE
  5
26F
100
AcDbEntity
  8
LAY-4
  6
DASHED2
 62
     1
100
AcDbLine
 10
234.471344
 20
111.302063
 30
0.0
 11
234.471344
 21
95.052063
 31
0.0
  0
LINE
  5
270
100
AcDbEntity
  8
LAY-4
  6
DASHED2
 62
     3
100
AcDbLine
 10
233.721344
 20
111.302063
 30
0.0
 11
233.721344
 21
95.052063
 31
0.0
  0
LINE
  5
271
100
AcDbEntity
  8
LAY-4
  6
CONTINUOUS
 62
     3
100
AcDbLine
 10
239.721344
 20
89.702063
 30
0.0
 11
233.721344
 21
89.702063
 31
0.0
  0
LINE
  5
272
100
AcDbEntity
  8
LAY-4
  6
CONTINUOUS
 62
     3
100
AcDbLine
 10
239.721344
 20
95.052063
 30
0.0
 11
239.721344
 21
89.702063
 31
0.0
  0
LINE
  5
273
100
AcDbEntity
  8
LAY-4
  6
CONTINUOUS
 62
     1
100
AcDbLine
 10
238.971344
 20
95.052063
 30
0.0
 11
238.971344
 21
89.702063
 31
0.0
  0
LINE
  5
274
100
AcDbEntity
  8
LAY-4
  6
CONTINUOUS
 62
     1
100
AcDbLine
 10
234.471344
 20
95.052063
 30
0.0
 11
234.471344
 21
89.702063
 31
0.0
  0
LINE
  5
275
100
AcDbEntity
  8
LAY-4
  6
CONTINUOUS
 62
     3
100
AcDbLine
 10
233.721344
 20
95.052063
 30
0.0
 11
233.721344
 21
89.702063
 31
0.0
  0
LINE
  5
276
100
AcDbEntity
  8
LAY-4
  6
DASHED2
 62
     3
100
AcDbLine
 10
222.971344
 20
114.552063
 30
0.0
 11
222.971344
 21
121.552063
 31
0.0
  0
LINE
  5
277
100
AcDbEntity
  8
LAY-4
  6
DASHED2
 62
     3
100
AcDbLine
 10
210.471344
 20
114.552063
 30
0.0
 11
210.471344
 21
121.552063
 31
0.0
  0
LINE
  5
278
100
AcDbEntity
  8
LAY-4
  6
DASHED2
 62
     3
100
AcDbLine
 10
210.471344
 20
114.552063
 30
0.0
 11
213.471344
 21
111.552063
 31
0.0
  0
LINE
  5
279
100
AcDbEntity
  8
LAY-4
  6
DASHED2
 62
     3
100
AcDbLine
 10
222.971344
 20
114.552063
 30
0.0
 11
219.971344
 21
111.552063
 31
0.0
  0
LINE
  5
27A
100
AcDbEntity
  8
LAY-4
  6
DASHED2
 62
     3
100
AcDbLine
 10
219.721344
 20
111.302063
 30
0.0
 11
213.721344
 21
111.302063
 31
0.0
  0
LINE
  5
27B
100
AcDbEntity
  8
LAY-4
  6
DASHED2
 62
     3
100
AcDbLine
 10
219.721344
 20
111.302063
 30
0.0
 11
222.721344
 21
114.302063
 31
0.0
  0
LINE
  5
27C
100
AcDbEntity
  8
LAY-4
  6
DASHED2
 62
     3
100
AcDbLine
 10
222.721344
 20
114.302063
 30
0.0
 11
210.721344
 21
114.302063
 31
0.0
  0
LINE
  5
27D
100
AcDbEntity
  8
LAY-4
  6
DASHED2
 62
     3
100
AcDbLine
 10
222.721344
 20
114.702063
 30
0.0
 11
210.721344
 21
114.702063
 31
0.0
  0
LINE
  5
27E
100
AcDbEntity
  8
LAY-4
  6
DASHED2
 62
     3
100
AcDbLine
 10
222.721344
 20
114.702063
 30
0.0
 11
222.721344
 21
114.302063
 31
0.0
  0
LINE
  5
27F
100
AcDbEntity
  8
LAY-4
  6
DASHED2
 62
     3
100
AcDbLine
 10
210.721344
 20
114.702063
 30
0.0
 11
210.721344
 21
114.302063
 31
0.0
  0
LINE
  5
280
100
AcDbEntity
  8
LAY-4
  6
DASHED2
 62
     3
100
AcDbLine
 10
213.721344
 20
111.302063
 30
0.0
 11
210.721344
 21
114.302063
 31
0.0
  0
LINE
  5
281
100
AcDbEntity
  8
LAY-4
  6
DASHED2
 62
     3
100
AcDbLine
 10
219.721344
 20
111.302063
 30
0.0
 11
219.721344
 21
95.052063
 31
0.0
  0
LINE
  5
282
100
AcDbEntity
  8
LAY-4
  6
DASHED2
 62
     1
100
AcDbLine
 10
218.971344
 20
111.302063
 30
0.0
 11
218.971344
 21
95.052063
 31
0.0
  0
LINE
  5
283
100
AcDbEntity
  8
LAY-4
  6
DASHED2
 62
     1
100
AcDbLine
 10
214.471344
 20
111.302063
 30
0.0
 11
214.471344
 21
95.052063
 31
0.0
  0
LINE
  5
284
100
AcDbEntity
  8
LAY-4
  6
DASHED2
 62
     3
100
AcDbLine
 10
213.721344
 20
111.302063
 30
0.0
 11
213.721344
 21
95.052063
 31
0.0
  0
LINE
  5
285
100
AcDbEntity
  8
LAY-4
  6
CONTINUOUS
 62
     3
100
AcDbLine
 10
219.721344
 20
89.702063
 30
0.0
 11
213.721344
 21
89.702063
 31
0.0
  0
LINE
  5
286
100
AcDbEntity
  8
LAY-4
  6
CONTINUOUS
 62
     3
100
AcDbLine
 10
219.721344
 20
95.052063
 30
0.0
 11
219.721344
 21
89.702063
 31
0.0
  0
LINE
  5
287
100
AcDbEntity
  8
LAY-4
  6
CONTINUOUS
 62
     1
100
AcDbLine
 10
218.971344
 20
95.052063
 30
0.0
 11
218.971344
 21
89.702063
 31
0.0
  0
LINE
  5
288
100
AcDbEntity
  8
LAY-4
  6
CONTINUOUS
 62
     1
100
AcDbLine
 10
214.471344
 20
95.052063
 30
0.0
 11
214.471344
 21
89.702063
 31
0.0
  0
LINE
  5
289
100
AcDbEntity
  8
LAY-4
  6
CONTINUOUS
 62
     3
100
AcDbLine
 10
213.721344
 20
95.052063
 30
0.0
 11
213.721344
 21
89.702063
 31
0.0
  0
LINE
  5
28A
100
AcDbEntity
  8
LAY-4
  6
DASHED2
 62
     3
100
AcDbLine
 10
679.728461
 20
320.551885
 30
0.0
 11
679.728461
 21
327.551885
 31
0.0
  0
LINE
  5
28B
100
AcDbEntity
  8
LAY-4
  6
DASHED2
 62
     3
100
AcDbLine
 10
667.228461
 20
320.551885
 30
0.0
 11
667.228461
 21
327.551885
 31
0.0
  0
LINE
  5
28C
100
AcDbEntity
  8
LAY-4
  6
DASHED2
 62
     3
100
AcDbLine
 10
667.228461
 20
320.551885
 30
0.0
 11
670.228461
 21
317.551885
 31
0.0
  0
LINE
  5
28D
100
AcDbEntity
  8
LAY-4
  6
DASHED2
 62
     3
100
AcDbLine
 10
679.728461
 20
320.551885
 30
0.0
 11
676.728461
 21
317.551885
 31
0.0
  0
LINE
  5
28E
100
AcDbEntity
  8
LAY-4
  6
DASHED2
 62
     3
100
AcDbLine
 10
676.478461
 20
317.301885
 30
0.0
 11
670.478461
 21
317.301885
 31
0.0
  0
LINE
  5
28F
100
AcDbEntity
  8
LAY-4
  6
DASHED2
 62
     3
100
AcDbLine
 10
676.478461
 20
317.301885
 30
0.0
 11
679.478461
 21
320.301885
 31
0.0
  0
LINE
  5
290
100
AcDbEntity
  8
LAY-4
  6
DASHED2
 62
     3
100
AcDbLine
 10
679.478461
 20
320.301885
 30
0.0
 11
667.478461
 21
320.301885
 31
0.0
  0
LINE
  5
291
100
AcDbEntity
  8
LAY-4
  6
DASHED2
 62
     3
100
AcDbLine
 10
679.478461
 20
320.701885
 30
0.0
 11
667.478461
 21
320.701885
 31
0.0
  0
LINE
  5
292
100
AcDbEntity
  8
LAY-4
  6
DASHED2
 62
     3
100
AcDbLine
 10
679.478461
 20
320.701885
 30
0.0
 11
679.478461
 21
320.301885
 31
0.0
  0
LINE
  5
293
100
AcDbEntity
  8
LAY-4
  6
DASHED2
 62
     3
100
AcDbLine
 10
667.478461
 20
320.701885
 30
0.0
 11
667.478461
 21
320.301885
 31
0.0
  0
LINE
  5
294
100
AcDbEntity
  8
LAY-4
  6
DASHED2
 62
     3
100
AcDbLine
 10
670.478461
 20
317.301885
 30
0.0
 11
667.478461
 21
320.301885
 31
0.0
  0
LINE
  5
295
100
AcDbEntity
  8
LAY-4
  6
DASHED2
 62
     3
100
AcDbLine
 10
676.478461
 20
317.301885
 30
0.0
 11
676.478461
 21
301.051885
 31
0.0
  0
LINE
  5
296
100
AcDbEntity
  8
LAY-4
  6
DASHED2
 62
     1
100
AcDbLine
 10
675.728461
 20
317.301885
 30
0.0
 11
675.728461
 21
301.051885
 31
0.0
  0
LINE
  5
297
100
AcDbEntity
  8
LAY-4
  6
DASHED2
 62
     1
100
AcDbLine
 10
671.228461
 20
317.301885
 30
0.0
 11
671.228461
 21
301.051885
 31
0.0
  0
LINE
  5
298
100
AcDbEntity
  8
LAY-4
  6
DASHED2
 62
     3
100
AcDbLine
 10
670.478461
 20
317.301885
 30
0.0
 11
670.478461
 21
301.051885
 31
0.0
  0
LINE
  5
299
100
AcDbEntity
  8
LAY-4
  6
CONTINUOUS
 62
     3
100
AcDbLine
 10
676.478461
 20
295.701885
 30
0.0
 11
670.478461
 21
295.701885
 31
0.0
  0
LINE
  5
29A
100
AcDbEntity
  8
LAY-4
  6
CONTINUOUS
 62
     3
100
AcDbLine
 10
676.478461
 20
301.051885
 30
0.0
 11
676.478461
 21
295.701885
 31
0.0
  0
LINE
  5
29B
100
AcDbEntity
  8
LAY-4
  6
CONTINUOUS
 62
     1
100
AcDbLine
 10
675.728461
 20
301.051885
 30
0.0
 11
675.728461
 21
295.701885
 31
0.0
  0
LINE
  5
29C
100
AcDbEntity
  8
LAY-4
  6
CONTINUOUS
 62
     1
100
AcDbLine
 10
671.228461
 20
301.051885
 30
0.0
 11
671.228461
 21
295.701885
 31
0.0
  0
LINE
  5
29D
100
AcDbEntity
  8
LAY-4
  6
CONTINUOUS
 62
     3
100
AcDbLine
 10
670.478461
 20
301.051885
 30
0.0
 11
670.478461
 21
295.701885
 31
0.0
  0
LINE
  5
29E
100
AcDbEntity
  8
LAY-4
  6
DASHED2
 62
     3
100
AcDbLine
 10
655.728461
 20
320.551885
 30
0.0
 11
655.728461
 21
327.551885
 31
0.0
  0
LINE
  5
29F
100
AcDbEntity
  8
LAY-4
  6
DASHED2
 62
     3
100
AcDbLine
 10
643.228461
 20
320.551885
 30
0.0
 11
643.228461
 21
327.551885
 31
0.0
  0
LINE
  5
2A0
100
AcDbEntity
  8
LAY-4
  6
DASHED2
 62
     3
100
AcDbLine
 10
643.228461
 20
320.551885
 30
0.0
 11
646.228461
 21
317.551885
 31
0.0
  0
LINE
  5
2A1
100
AcDbEntity
  8
LAY-4
  6
DASHED2
 62
     3
100
AcDbLine
 10
655.728461
 20
320.551885
 30
0.0
 11
652.728461
 21
317.551885
 31
0.0
  0
LINE
  5
2A2
100
AcDbEntity
  8
LAY-4
  6
DASHED2
 62
     3
100
AcDbLine
 10
652.478461
 20
317.301885
 30
0.0
 11
646.478461
 21
317.301885
 31
0.0
  0
LINE
  5
2A3
100
AcDbEntity
  8
LAY-4
  6
DASHED2
 62
     3
100
AcDbLine
 10
652.478461
 20
317.301885
 30
0.0
 11
655.478461
 21
320.301885
 31
0.0
  0
LINE
  5
2A4
100
AcDbEntity
  8
LAY-4
  6
DASHED2
 62
     3
100
AcDbLine
 10
655.478461
 20
320.301885
 30
0.0
 11
643.478461
 21
320.301885
 31
0.0
  0
LINE
  5
2A5
100
AcDbEntity
  8
LAY-4
  6
DASHED2
 62
     3
100
AcDbLine
 10
655.478461
 20
320.701885
 30
0.0
 11
643.478461
 21
320.701885
 31
0.0
  0
LINE
  5
2A6
100
AcDbEntity
  8
LAY-4
  6
DASHED2
 62
     3
100
AcDbLine
 10
655.478461
 20
320.701885
 30
0.0
 11
655.478461
 21
320.301885
 31
0.0
  0
LINE
  5
2A7
100
AcDbEntity
  8
LAY-4
  6
DASHED2
 62
     3
100
AcDbLine
 10
643.478461
 20
320.701885
 30
0.0
 11
643.478461
 21
320.301885
 31
0.0
  0
LINE
  5
2A8
100
AcDbEntity
  8
LAY-4
  6
DASHED2
 62
     3
100
AcDbLine
 10
646.478461
 20
317.301885
 30
0.0
 11
643.478461
 21
320.301885
 31
0.0
  0
LINE
  5
2A9
100
AcDbEntity
  8
LAY-4
  6
DASHED2
 62
     3
100
AcDbLine
 10
652.478461
 20
317.301885
 30
0.0
 11
652.478461
 21
301.051885
 31
0.0
  0
LINE
  5
2AA
100
AcDbEntity
  8
LAY-4
  6
DASHED2
 62
     1
100
AcDbLine
 10
651.728461
 20
317.301885
 30
0.0
 11
651.728461
 21
301.051885
 31
0.0
  0
LINE
  5
2AB
100
AcDbEntity
  8
LAY-4
  6
DASHED2
 62
     1
100
AcDbLine
 10
647.228461
 20
317.301885
 30
0.0
 11
647.228461
 21
301.051885
 31
0.0
  0
LINE
  5
2AC
100
AcDbEntity
  8
LAY-4
  6
DASHED2
 62
     3
100
AcDbLine
 10
646.478461
 20
317.301885
 30
0.0
 11
646.478461
 21
301.051885
 31
0.0
  0
LINE
  5
2AD
100
AcDbEntity
  8
LAY-4
  6
CONTINUOUS
 62
     3
100
AcDbLine
 10
652.478461
 20
295.701885
 30
0.0
 11
646.478461
 21
295.701885
 31
0.0
  0
LINE
  5
2AE
100
AcDbEntity
  8
LAY-4
  6
CONTINUOUS
 62
     3
100
AcDbLine
 10
652.478461
 20
301.051885
 30
0.0
 11
652.478461
 21
295.701885
 31
0.0
  0
LINE
  5
2AF
100
AcDbEntity
  8
LAY-4
  6
CONTINUOUS
 62
     1
100
AcDbLine
 10
651.728461
 20
301.051885
 30
0.0
 11
651.728461
 21
295.701885
 31
0.0
  0
LINE
  5
2B0
100
AcDbEntity
  8
LAY-4
  6
CONTINUOUS
 62
     1
100
AcDbLine
 10
647.228461
 20
301.051885
 30
0.0
 11
647.228461
 21
295.701885
 31
0.0
  0
LINE
  5
2B1
100
AcDbEntity
  8
LAY-4
  6
CONTINUOUS
 62
     3
100
AcDbLine
 10
646.478461
 20
301.051885
 30
0.0
 11
646.478461
 21
295.701885
 31
0.0
  0
CIRCLE
  5
2B2
100
AcDbEntity
  8
LAY-4
  6
CONTINUOUS
 62
     3
100
AcDbCircle
 10
661.478461
 20
152.552078
 30
0.0
 40
12.5
  0
LINE
  5
2B3
100
AcDbEntity
  8
LAY-4
  6
CONTINUOUS
 62
     3
100
AcDbLine
 10
651.478461
 20
160.052078
 30
0.0
 11
671.478461
 21
160.052078
 31
0.0
  0
LINE
  5
2B4
100
AcDbEntity
  8
LAY-4
  6
CONTINUOUS
 62
     3
100
AcDbLine
 10
651.478461
 20
145.052078
 30
0.0
 11
671.478461
 21
145.052078
 31
0.0
  0
LINE
  5
2B5
100
AcDbEntity
  8
LAY-4
  6
CONTINUOUS
 62
     3
100
AcDbLine
 10
650.379592
 20
158.302305
 30
0.0
 11
672.57733
 21
158.302305
 31
0.0
  0
LINE
  5
2B6
100
AcDbEntity
  8
LAY-4
  6
CONTINUOUS
 62
     3
100
AcDbLine
 10
650.39258
 20
146.776851
 30
0.0
 11
672.564342
 21
146.776851
 31
0.0
  0
ARC
  5
2B7
100
AcDbEntity
  8
LAY-4
  6
CONTINUOUS
 62
     3
100
AcDbCircle
 10
661.478461
 20
152.552078
 30
0.0
 40
12.0
100
AcDbArc
 50
331.231692
 51
28.632223
  0
ARC
  5
2B8
100
AcDbEntity
  8
LAY-4
  6
CONTINUOUS
 62
     3
100
AcDbCircle
 10
661.478461
 20
152.552078
 30
0.0
 40
12.0
100
AcDbArc
 50
151.367777
 51
208.768308
  0
CIRCLE
  5
2B9
100
AcDbEntity
  8
LAY-4
  6
CONTINUOUS
 62
     3
100
AcDbCircle
 10
661.478461
 20
152.552078
 30
0.0
 40
12.75
  0
LINE
  5
2BA
100
AcDbEntity
  8
LAY-4
  6
CONTINUOUS
 62
     3
100
AcDbLine
 10
667.228688
 20
351.552063
 30
0.0
 11
655.728234
 21
351.552063
 31
0.0
  0
LINE
  5
2BB
100
AcDbEntity
  8
LAY-4
  6
CONTINUOUS
 62
     3
100
AcDbLine
 10
649.128461
 20
331.552063
 30
0.0
 11
653.978461
 21
331.552063
 31
0.0
  0
LINE
  5
2BC
100
AcDbEntity
  8
LAY-4
  6
CONTINUOUS
 62
     3
100
AcDbLine
 10
668.978461
 20
331.552063
 30
0.0
 11
673.828461
 21
331.552063
 31
0.0
  0
LINE
  5
2BD
100
AcDbEntity
  8
LAY-4
  6
CONTINUOUS
 62
     3
100
AcDbLine
 10
648.978461
 20
331.552063
 30
0.0
 11
653.978461
 21
331.552063
 31
0.0
  0
LINE
  5
2BE
100
AcDbEntity
  8
LAY-4
  6
CONTINUOUS
 62
     3
100
AcDbLine
 10
668.978461
 20
331.552063
 30
0.0
 11
673.978461
 21
331.552063
 31
0.0
  0
LINE
  5
2BF
100
AcDbEntity
  8
LAY-4
  6
CONTINUOUS
 62
     3
100
AcDbLine
 10
673.978461
 20
331.552063
 30
0.0
 11
673.978461
 21
329.051993
 31
0.0
  0
LINE
  5
2C0
100
AcDbEntity
  8
LAY-4
  6
CONTINUOUS
 62
     3
100
AcDbLine
 10
648.978461
 20
331.552063
 30
0.0
 11
648.978461
 21
329.051777
 31
0.0
  0
LINE
  5
2C1
100
AcDbEntity
  8
LAY-4
  6
CONTINUOUS
 62
     3
100
AcDbLine
 10
655.903212
 20
353.552063
 30
0.0
 11
653.978461
 21
331.552063
 31
0.0
  0
LINE
  5
2C2
100
AcDbEntity
  8
LAY-4
  6
CONTINUOUS
 62
     3
100
AcDbLine
 10
667.047769
 20
353.619969
 30
0.0
 11
668.978461
 21
331.552063
 31
0.0
  0
LINE
  5
2C3
100
AcDbEntity
  8
LAY-5
  6
DASHDOT
 62
     1
100
AcDbLine
 10
194.721344
 20
271.75
 30
0.0
 11
194.721344
 21
219.45
 31
0.0
  0
LINE
  5
2C4
100
AcDbEntity
  8
LAY-5
  6
DASHDOT
 62
     1
100
AcDbLine
 10
160.0
 20
244.052078
 30
0.0
 11
482.9
 21
244.052078
 31
0.0
  0
LINE
  5
2C5
100
AcDbEntity
  8
LAY-5
  6
DASHDOT
 62
     1
100
AcDbLine
 10
276.0
 20
239.052109
 30
0.0
 11
256.4
 21
239.052109
 31
0.0
  0
LINE
  5
2C6
100
AcDbEntity
  8
LAY-5
  6
DASHDOT
 62
     1
100
AcDbLine
 10
266.721329
 20
247.052109
 30
0.0
 11
266.721329
 21
226.2
 31
0.0
  0
LINE
  5
2C7
100
AcDbEntity
  8
LAY-5
  6
DASHDOT
 62
     1
100
AcDbLine
 10
234.721329
 20
249.052094
 30
0.0
 11
217.8
 21
249.052094
 31
0.0
  0
LINE
  5
2C8
100
AcDbEntity
  8
LAY-5
  6
DASHDOT
 62
     1
100
AcDbLine
 10
226.721329
 20
260.052094
 30
0.0
 11
226.721329
 21
239.6
 31
0.0
  0
LINE
  5
2C9
100
AcDbEntity
  8
LAY-5
  6
DASHDOT
 62
     1
100
AcDbLine
 10
438.8
 20
249.052109
 30
0.0
 11
411.3
 21
249.052109
 31
0.0
  0
LINE
  5
2CA
100
AcDbEntity
  8
LAY-5
  6
DASHDOT
 62
     1
100
AcDbLine
 10
422.721344
 20
260.052094
 30
0.0
 11
422.721344
 21
238.2
 31
0.0
  0
LINE
  5
2CB
100
AcDbEntity
  8
LAY-5
  6
DASHDOT
 62
     1
100
AcDbLine
 10
472.721344
 20
239.052109
 30
0.0
 11
441.4
 21
239.052109
 31
0.0
  0
LINE
  5
2CC
100
AcDbEntity
  8
LAY-5
  6
DASHDOT
 62
     1
100
AcDbLine
 10
462.721344
 20
247.4
 30
0.0
 11
462.721344
 21
226.6
 31
0.0
  0
LINE
  5
2CD
100
AcDbEntity
  8
LAY-5
  6
DASHDOT
 62
     1
100
AcDbLine
 10
224.721329
 20
418.440795
 30
0.0
 11
224.721329
 21
396.731249
 31
0.0
  0
LINE
  5
2CE
100
AcDbEntity
  8
LAY-5
  6
DASHDOT
 62
     1
100
AcDbLine
 10
270.721344
 20
418.440795
 30
0.0
 11
270.721344
 21
396.531249
 31
0.0
  0
LINE
  5
2CF
100
AcDbEntity
  8
LAY-5
  6
DASHDOT
 62
     1
100
AcDbLine
 10
316.721344
 20
418.440795
 30
0.0
 11
316.721344
 21
396.531249
 31
0.0
  0
LINE
  5
2D0
100
AcDbEntity
  8
LAY-5
  6
DASHDOT
 62
     1
100
AcDbLine
 10
283.351532
 20
437.309814
 30
0.0
 11
265.743897
 21
437.309814
 31
0.0
  0
LINE
  5
2D1
100
AcDbEntity
  8
LAY-5
  6
DASHDOT
 62
     1
100
AcDbLine
 10
287.453309
 20
441.309814
 30
0.0
 11
304.560761
 21
441.309814
 31
0.0
  0
LINE
  5
2D2
100
AcDbEntity
  8
LAY-5
  6
DASHDOT
 62
     1
100
AcDbLine
 10
274.721314
 20
448.3
 30
0.0
 11
274.721314
 21
423.543334
 31
0.0
  0
LINE
  5
2D3
100
AcDbEntity
  8
LAY-5
  6
DASHDOT
 62
     1
100
AcDbLine
 10
295.721314
 20
423.543334
 30
0.0
 11
295.721314
 21
449.755981
 31
0.0
  0
LINE
  5
2D4
100
AcDbEntity
  8
LAY-5
  6
DASHDOT
 62
     1
100
AcDbLine
 10
194.721344
 20
461.361022
 30
0.0
 11
194.721344
 21
394.743334
 31
0.0
  0
LINE
  5
2D5
100
AcDbEntity
  8
LAY-5
  6
DASHDOT
 62
     1
100
AcDbLine
 10
216.013459
 20
335.15741
 30
0.0
 11
234.256958
 21
335.15741
 31
0.0
  0
LINE
  5
2D6
100
AcDbEntity
  8
LAY-5
  6
DASHDOT
 62
     1
100
AcDbLine
 10
260.256958
 20
319.15741
 30
0.0
 11
279.913849
 21
319.15741
 31
0.0
  0
LINE
  5
2D7
100
AcDbEntity
  8
LAY-5
  6
DASHDOT
 62
     1
100
AcDbLine
 10
307.622895
 20
335.15741
 30
0.0
 11
325.944733
 21
335.15741
 31
0.0
  0
LINE
  5
2D8
100
AcDbEntity
  8
LAY-5
  6
DASHDOT
 62
     1
100
AcDbLine
 10
173.256958
 20
327.15741
 30
0.0
 11
335.053315
 21
327.15741
 31
0.0
  0
LINE
  5
2D9
100
AcDbEntity
  8
LAY-5
  6
DASHDOT
 62
     1
100
AcDbLine
 10
224.721314
 20
343.15741
 30
0.0
 11
224.721314
 21
323.0
 31
0.0
  0
LINE
  5
2DA
100
AcDbEntity
  8
LAY-5
  6
DASHDOT
 62
     1
100
AcDbLine
 10
270.721344
 20
327.15741
 30
0.0
 11
270.721344
 21
306.154175
 31
0.0
  0
LINE
  5
2DB
100
AcDbEntity
  8
LAY-5
  6
DASHDOT
 62
     1
100
AcDbLine
 10
316.721344
 20
343.15741
 30
0.0
 11
316.721344
 21
326.0
 31
0.0
  0
LINE
  5
2DC
100
AcDbEntity
  8
LAY-5
  6
DASHDOT
 62
     1
100
AcDbLine
 10
194.721344
 20
345.405212
 30
0.0
 11
194.721344
 21
308.0
 31
0.0
  0
LINE
  5
2DD
100
AcDbEntity
  8
LAY-5
  6
DASHDOT
 62
     1
100
AcDbLine
 10
316.721344
 20
544.227417
 30
0.0
 11
316.721344
 21
528.643311
 31
0.0
  0
LINE
  5
2DE
100
AcDbEntity
  8
LAY-5
  6
DASHDOT
 62
     1
100
AcDbLine
 10
316.721344
 20
512.227509
 30
0.0
 11
316.721344
 21
527.059937
 31
0.0
  0
LINE
  5
2DF
100
AcDbEntity
  8
LAY-5
  6
DASHDOT
 62
     1
100
AcDbLine
 10
307.622895
 20
537.227417
 30
0.0
 11
328.256958
 21
537.227417
 31
0.0
  0
LINE
  5
2E0
100
AcDbEntity
  8
LAY-5
  6
DASHDOT
 62
     1
100
AcDbLine
 10
307.622895
 20
519.227386
 30
0.0
 11
328.256958
 21
519.227386
 31
0.0
  0
LINE
  5
2E1
100
AcDbEntity
  8
LAY-5
  6
DASHDOT
 62
     1
100
AcDbLine
 10
169.721344
 20
544.227417
 30
0.0
 11
169.721344
 21
528.982544
 31
0.0
  0
LINE
  5
2E2
100
AcDbEntity
  8
LAY-5
  6
DASHDOT
 62
     1
100
AcDbLine
 10
169.721344
 20
512.227509
 30
0.0
 11
169.721344
 21
526.946777
 31
0.0
  0
LINE
  5
2E3
100
AcDbEntity
  8
LAY-5
  6
DASHDOT
 62
     1
100
AcDbLine
 10
161.500214
 20
537.227417
 30
0.0
 11
178.691132
 21
537.227417
 31
0.0
  0
LINE
  5
2E4
100
AcDbEntity
  8
LAY-5
  6
DASHDOT
 62
     1
100
AcDbLine
 10
178.691132
 20
519.227386
 30
0.0
 11
161.500214
 21
519.227386
 31
0.0
  0
LINE
  5
2E5
100
AcDbEntity
  8
LAY-5
  6
DASHDOT
 62
     1
100
AcDbLine
 10
147.023652
 20
528.227417
 30
0.0
 11
342.00467
 21
528.227417
 31
0.0
  0
LINE
  5
2E6
100
AcDbEntity
  8
LAY-5
  6
DASHDOT
 62
     1
100
AcDbLine
 10
194.721344
 20
502.0
 30
0.0
 11
194.721344
 21
555.830078
 31
0.0
  0
LINE
  5
2E7
100
AcDbEntity
  8
LAY-5
  6
DASHDOT
 62
     1
100
AcDbLine
 10
226.721344
 20
159.1
 30
0.0
 11
226.721344
 21
130.122375
 31
0.0
  0
LINE
  5
2E8
100
AcDbEntity
  8
LAY-5
  6
DASHDOT
 62
     1
100
AcDbLine
 10
266.721344
 20
159.1
 30
0.0
 11
266.721344
 21
130.122375
 31
0.0
  0
LINE
  5
2E9
100
AcDbEntity
  8
LAY-5
  6
DASHDOT
 62
     1
100
AcDbLine
 10
422.721344
 20
159.1
 30
0.0
 11
422.721344
 21
130.122375
 31
0.0
  0
LINE
  5
2EA
100
AcDbEntity
  8
LAY-5
  6
DASHDOT
 62
     1
100
AcDbLine
 10
462.721344
 20
159.1
 30
0.0
 11
462.721344
 21
130.122375
 31
0.0
  0
LINE
  5
2EB
100
AcDbEntity
  8
LAY-5
  6
DASHDOT
 62
     1
100
AcDbLine
 10
626.3
 20
152.552078
 30
0.0
 11
730.0
 21
152.552078
 31
0.0
  0
LINE
  5
2EC
100
AcDbEntity
  8
LAY-5
  6
DASHDOT
 62
     1
100
AcDbLine
 10
661.478461
 20
183.9
 30
0.0
 11
661.478461
 21
120.6
 31
0.0
  0
LINE
  5
2ED
100
AcDbEntity
  8
LAY-5
  6
DASHDOT
 62
     1
100
AcDbLine
 10
316.721314
 20
416.040831
 30
0.0
 11
316.721314
 21
438.750304
 31
0.0
  0
LINE
  5
2EE
100
AcDbEntity
  8
LAY-5
  6
DASHDOT
 62
     1
100
AcDbLine
 10
683.478461
 20
175.5
 30
0.0
 11
683.478461
 21
129.0
 31
0.0
  0
LINE
  5
2EF
100
AcDbEntity
  8
LAY-5
  6
DASHDOT
 62
     1
100
AcDbLine
 10
703.478461
 20
175.5
 30
0.0
 11
703.478461
 21
129.0
 31
0.0
  0
LINE
  5
2F0
100
AcDbEntity
  8
LAY-5
  6
DASHDOT
 62
     1
100
AcDbLine
 10
673.2
 20
164.552078
 30
0.0
 11
716.478461
 21
164.552078
 31
0.0
  0
LINE
  5
2F1
100
AcDbEntity
  8
LAY-5
  6
DASHDOT
 62
     1
100
AcDbLine
 10
673.2
 20
140.552078
 30
0.0
 11
716.478461
 21
140.552078
 31
0.0
  0
LINE
  5
2F2
100
AcDbEntity
  8
LAY-5
  6
DASHDOT
 62
     1
100
AcDbLine
 10
344.721329
 20
256.1
 30
0.0
 11
344.721329
 21
232.4
 31
0.0
  0
LINE
  5
2F3
100
AcDbEntity
  8
LAY-5
  6
DASHDOT
 62
     1
100
AcDbLine
 10
344.721344
 20
159.1
 30
0.0
 11
344.721344
 21
130.122375
 31
0.0
  0
LINE
  5
2F4
100
AcDbEntity
  8
LAY-5
  6
DASHDOT
 62
     1
100
AcDbLine
 10
194.721344
 20
94.4
 30
0.0
 11
194.721344
 21
162.1
 31
0.0
  0
LINE
  5
2F5
100
AcDbEntity
  8
LAY-5
  6
DASHDOT
 62
     1
100
AcDbLine
 10
169.721344
 20
418.16
 30
0.0
 11
169.721344
 21
439.550292
 31
0.0
  0
LINE
  5
2F6
100
AcDbEntity
  8
LAY-5
  6
DASHDOT
 62
     1
100
AcDbLine
 10
254.721344
 20
521.7
 30
0.0
 11
254.721344
 21
535.3
 31
0.0
  0
LINE
  5
2F7
100
AcDbEntity
  8
LAY-5
  6
DASHDOT
 62
     1
100
AcDbLine
 10
274.721344
 20
520.9
 30
0.0
 11
274.721344
 21
535.5
 31
0.0
  0
LINE
  5
2F8
100
AcDbEntity
  8
LAY-5
  6
DASHDOT
 62
     1
100
AcDbLine
 10
295.721344
 20
520.1
 30
0.0
 11
295.721344
 21
536.4
 31
0.0
  0
LINE
  5
2F9
100
AcDbEntity
  8
LAY-5
  6
DASHDOT
 62
     1
100
AcDbLine
 10
215.3
 20
64.1
 30
0.0
 11
215.3
 21
87.2
 31
0.0
  0
LINE
  5
2FA
100
AcDbEntity
  8
LAY-5
  6
DASHDOT
 62
     1
100
AcDbLine
 10
661.478461
 20
530.561023
 30
0.0
 11
661.478461
 21
300.8
 31
0.0
  0
LINE
  5
2FB
100
AcDbEntity
  8
LAY-5
  6
DASHDOT
 62
     1
100
AcDbLine
 10
236.721344
 20
125.3
 30
0.0
 11
236.721344
 21
86.2
 31
0.0
  0
LINE
  5
2FC
100
AcDbEntity
  8
LAY-5
  6
DASHDOT
 62
     1
100
AcDbLine
 10
216.721344
 20
125.0
 30
0.0
 11
216.721344
 21
86.2
 31
0.0
  0
LINE
  5
2FD
100
AcDbEntity
  8
LAY-5
  6
DASHDOT
 62
     1
100
AcDbLine
 10
673.478461
 20
330.1
 30
0.0
 11
673.478461
 21
291.2
 31
0.0
  0
LINE
  5
2FE
100
AcDbEntity
  8
LAY-5
  6
DASHDOT
 62
     1
100
AcDbLine
 10
649.478461
 20
330.1
 30
0.0
 11
649.478461
 21
289.3
 31
0.0
  0
TEXT
  5
2FF
100
AcDbEntity
  8
LAY-6
  6
CONTINUOUS
 62
     2
100
AcDbText
 10
178.221344
 20
499.1
 30
0.0
 40
5.0
  1
２５
 41
0.672
  7
EXCADSTD
 72
     5
 11
185.554144
 21
499.1
 31
0.0
100
AcDbText
  0
LINE
  5
300
100
AcDbEntity
  8
LAY-6
  6
CONTINUOUS
 62
     1
100
AcDbLine
 10
169.721344
 20
511.727509
 30
0.0
 11
169.721344
 21
497.1
 31
0.0
  0
LINE
  5
301
100
AcDbEntity
  8
LAY-6
  6
CONTINUOUS
 62
     1
100
AcDbLine
 10
169.721344
 20
498.6
 30
0.0
 11
194.721344
 21
498.6
 31
0.0
  0
LINE
  5
302
100
AcDbEntity
  8
LAY-6
  6
CONTINUOUS
 62
     1
100
AcDbLine
 10
172.721344
 20
499.1
 30
0.0
 11
169.721344
 21
498.6
 31
0.0
  0
LINE
  5
303
100
AcDbEntity
  8
LAY-6
  6
CONTINUOUS
 62
     1
100
AcDbLine
 10
169.721344
 20
498.6
 30
0.0
 11
172.721344
 21
498.1
 31
0.0
  0
LINE
  5
304
100
AcDbEntity
  8
LAY-6
  6
CONTINUOUS
 62
     1
100
AcDbLine
 10
191.721344
 20
498.1
 30
0.0
 11
194.721344
 21
498.6
 31
0.0
  0
LINE
  5
305
100
AcDbEntity
  8
LAY-6
  6
CONTINUOUS
 62
     1
100
AcDbLine
 10
194.721344
 20
498.6
 30
0.0
 11
191.721344
 21
499.1
 31
0.0
  0
TEXT
  5
306
100
AcDbEntity
  8
LAY-6
  6
CONTINUOUS
 62
     2
100
AcDbText
 10
249.721344
 20
499.1
 30
0.0
 40
5.0
  1
１２２
 41
0.672
  7
EXCADSTD
 72
     5
 11
261.721344
 21
499.1
 31
0.0
100
AcDbText
  0
LINE
  5
307
100
AcDbEntity
  8
LAY-6
  6
CONTINUOUS
 62
     1
100
AcDbLine
 10
194.721344
 20
498.6
 30
0.0
 11
316.721344
 21
498.6
 31
0.0
  0
LINE
  5
308
100
AcDbEntity
  8
LAY-6
  6
CONTINUOUS
 62
     1
100
AcDbLine
 10
197.721344
 20
499.1
 30
0.0
 11
194.721344
 21
498.6
 31
0.0
  0
LINE
  5
309
100
AcDbEntity
  8
LAY-6
  6
CONTINUOUS
 62
     1
100
AcDbLine
 10
194.721344
 20
498.6
 30
0.0
 11
197.721344
 21
498.1
 31
0.0
  0
LINE
  5
30A
100
AcDbEntity
  8
LAY-6
  6
CONTINUOUS
 62
     1
100
AcDbLine
 10
313.721344
 20
498.1
 30
0.0
 11
316.721344
 21
498.6
 31
0.0
  0
LINE
  5
30B
100
AcDbEntity
  8
LAY-6
  6
CONTINUOUS
 62
     1
100
AcDbLine
 10
316.721344
 20
498.6
 30
0.0
 11
313.721344
 21
499.1
 31
0.0
  0
LINE
  5
30C
100
AcDbEntity
  8
LAY-6
  6
CONTINUOUS
 62
     1
100
AcDbLine
 10
153.721344
 20
546.727417
 30
0.0
 11
140.5
 21
546.727417
 31
0.0
  0
LINE
  5
30D
100
AcDbEntity
  8
LAY-6
  6
CONTINUOUS
 62
     1
100
AcDbLine
 10
153.721344
 20
509.727386
 30
0.0
 11
140.5
 21
509.727386
 31
0.0
  0
TEXT
  5
30E
100
AcDbEntity
  8
LAY-6
  6
CONTINUOUS
 62
     2
100
AcDbText
 10
141.5
 20
526.227402
 30
0.0
 40
5.0
  1
３７
 50
90.0
 41
0.672
  7
EXCADSTD
 72
     5
 11
141.5
 21
533.560202
 31
0.0
100
AcDbText
  0
LINE
  5
30F
100
AcDbEntity
  8
LAY-6
  6
CONTINUOUS
 62
     1
100
AcDbLine
 10
142.0
 20
546.727417
 30
0.0
 11
142.0
 21
509.727386
 31
0.0
  0
LINE
  5
310
100
AcDbEntity
  8
LAY-6
  6
CONTINUOUS
 62
     1
100
AcDbLine
 10
142.5
 20
543.727417
 30
0.0
 11
142.0
 21
546.727417
 31
0.0
  0
LINE
  5
311
100
AcDbEntity
  8
LAY-6
  6
CONTINUOUS
 62
     1
100
AcDbLine
 10
142.0
 20
546.727417
 30
0.0
 11
141.5
 21
543.727417
 31
0.0
  0
LINE
  5
312
100
AcDbEntity
  8
LAY-6
  6
CONTINUOUS
 62
     1
100
AcDbLine
 10
141.5
 20
512.727386
 30
0.0
 11
142.0
 21
509.727386
 31
0.0
  0
LINE
  5
313
100
AcDbEntity
  8
LAY-6
  6
CONTINUOUS
 62
     1
100
AcDbLine
 10
142.0
 20
509.727386
 30
0.0
 11
142.5
 21
512.727386
 31
0.0
  0
LINE
  5
314
100
AcDbEntity
  8
LAY-6
  6
CONTINUOUS
 62
     1
100
AcDbLine
 10
328.256958
 20
537.227417
 30
0.0
 11
350.1
 21
537.227417
 31
0.0
  0
LINE
  5
315
100
AcDbEntity
  8
LAY-6
  6
CONTINUOUS
 62
     1
100
AcDbLine
 10
328.256958
 20
519.227386
 30
0.0
 11
350.1
 21
519.227386
 31
0.0
  0
TEXT
  5
316
100
AcDbEntity
  8
LAY-6
  6
CONTINUOUS
 62
     2
100
AcDbText
 10
348.1
 20
524.227402
 30
0.0
 40
5.0
  1
１８
 50
90.0
 41
0.672
  7
EXCADSTD
 72
     5
 11
348.1
 21
531.560202
 31
0.0
100
AcDbText
  0
LINE
  5
317
100
AcDbEntity
  8
LAY-6
  6
CONTINUOUS
 62
     1
100
AcDbLine
 10
348.6
 20
537.227417
 30
0.0
 11
348.6
 21
519.227386
 31
0.0
  0
LINE
  5
318
100
AcDbEntity
  8
LAY-6
  6
CONTINUOUS
 62
     1
100
AcDbLine
 10
349.1
 20
534.227417
 30
0.0
 11
348.6
 21
537.227417
 31
0.0
  0
LINE
  5
319
100
AcDbEntity
  8
LAY-6
  6
CONTINUOUS
 62
     1
100
AcDbLine
 10
348.6
 20
537.227417
 30
0.0
 11
348.1
 21
534.227417
 31
0.0
  0
LINE
  5
31A
100
AcDbEntity
  8
LAY-6
  6
CONTINUOUS
 62
     1
100
AcDbLine
 10
348.1
 20
522.227386
 30
0.0
 11
348.6
 21
519.227386
 31
0.0
  0
LINE
  5
31B
100
AcDbEntity
  8
LAY-6
  6
CONTINUOUS
 62
     1
100
AcDbLine
 10
348.6
 20
519.227386
 30
0.0
 11
349.1
 21
522.227386
 31
0.0
  0
LINE
  5
31C
100
AcDbEntity
  8
LAY-6
  6
CONTINUOUS
 62
     1
100
AcDbLine
 10
329.721344
 20
544.227417
 30
0.0
 11
361.4
 21
544.227417
 31
0.0
  0
LINE
  5
31D
100
AcDbEntity
  8
LAY-6
  6
CONTINUOUS
 62
     1
100
AcDbLine
 10
329.721344
 20
512.227448
 30
0.0
 11
361.4
 21
512.227448
 31
0.0
  0
TEXT
  5
31E
100
AcDbEntity
  8
LAY-6
  6
CONTINUOUS
 62
     2
100
AcDbText
 10
359.4
 20
524.227432
 30
0.0
 40
5.0
  1
３２
 50
90.0
 41
0.672
  7
EXCADSTD
 72
     5
 11
359.4
 21
531.560232
 31
0.0
100
AcDbText
  0
LINE
  5
31F
100
AcDbEntity
  8
LAY-6
  6
CONTINUOUS
 62
     1
100
AcDbLine
 10
359.9
 20
544.227417
 30
0.0
 11
359.9
 21
512.227448
 31
0.0
  0
LINE
  5
320
100
AcDbEntity
  8
LAY-6
  6
CONTINUOUS
 62
     1
100
AcDbLine
 10
360.4
 20
541.227417
 30
0.0
 11
359.9
 21
544.227417
 31
0.0
  0
LINE
  5
321
100
AcDbEntity
  8
LAY-6
  6
CONTINUOUS
 62
     1
100
AcDbLine
 10
359.9
 20
544.227417
 30
0.0
 11
359.4
 21
541.227417
 31
0.0
  0
LINE
  5
322
100
AcDbEntity
  8
LAY-6
  6
CONTINUOUS
 62
     1
100
AcDbLine
 10
359.4
 20
515.227448
 30
0.0
 11
359.9
 21
512.227448
 31
0.0
  0
LINE
  5
323
100
AcDbEntity
  8
LAY-6
  6
CONTINUOUS
 62
     1
100
AcDbLine
 10
359.9
 20
512.227448
 30
0.0
 11
360.4
 21
515.227448
 31
0.0
  0
INSERT
  5
324
100
AcDbEntity
  8
LAY-6
  6
CONTINUOUS
 62
     0
100
AcDbBlockReference
  2
SYM-1
 10
140.3
 20
523.5
 30
0.0
 50
90.0
  0
LINE
  5
325
100
AcDbEntity
  8
LAY-6
  6
CONTINUOUS
 62
     1
100
AcDbLine
 10
160.721313
 20
430.309814
 30
0.0
 11
160.721313
 21
466.9
 31
0.0
  0
LINE
  5
326
100
AcDbEntity
  8
LAY-6
  6
CONTINUOUS
 62
     1
100
AcDbLine
 10
180.721313
 20
430.309814
 30
0.0
 11
180.721313
 21
466.9
 31
0.0
  0
LINE
  5
327
100
AcDbEntity
  8
LAY-6
  6
CONTINUOUS
 62
     1
100
AcDbLine
 10
160.721313
 20
465.4
 30
0.0
 11
180.721313
 21
465.4
 31
0.0
  0
LINE
  5
328
100
AcDbEntity
  8
LAY-6
  6
CONTINUOUS
 62
     1
100
AcDbLine
 10
163.721313
 20
465.9
 30
0.0
 11
160.721313
 21
465.4
 31
0.0
  0
LINE
  5
329
100
AcDbEntity
  8
LAY-6
  6
CONTINUOUS
 62
     1
100
AcDbLine
 10
160.721313
 20
465.4
 30
0.0
 11
163.721313
 21
464.9
 31
0.0
  0
LINE
  5
32A
100
AcDbEntity
  8
LAY-6
  6
CONTINUOUS
 62
     1
100
AcDbLine
 10
177.721313
 20
464.9
 30
0.0
 11
180.721313
 21
465.4
 31
0.0
  0
LINE
  5
32B
100
AcDbEntity
  8
LAY-6
  6
CONTINUOUS
 62
     1
100
AcDbLine
 10
180.721313
 20
465.4
 30
0.0
 11
177.721313
 21
465.9
 31
0.0
  0
TEXT
  5
32C
100
AcDbEntity
  8
LAY-6
  6
CONTINUOUS
 62
     2
100
AcDbText
 10
166.721313
 20
465.9
 30
0.0
 40
5.0
  1
２０
 41
0.672
  7
EXCADSTD
 72
     5
 11
174.054113
 21
465.9
 31
0.0
100
AcDbText
  0
LINE
  5
32D
100
AcDbEntity
  8
LAY-6
  6
CONTINUOUS
 62
     1
100
AcDbLine
 10
194.721344
 20
461.361022
 30
0.0
 11
194.721344
 21
466.9
 31
0.0
  0
LINE
  5
32E
100
AcDbEntity
  8
LAY-6
  6
CONTINUOUS
 62
     1
100
AcDbLine
 10
180.721313
 20
465.4
 30
0.0
 11
194.721344
 21
465.4
 31
0.0
  0
LINE
  5
32F
100
AcDbEntity
  8
LAY-6
  6
CONTINUOUS
 62
     1
100
AcDbLine
 10
183.721313
 20
465.9
 30
0.0
 11
180.721313
 21
465.4
 31
0.0
  0
LINE
  5
330
100
AcDbEntity
  8
LAY-6
  6
CONTINUOUS
 62
     1
100
AcDbLine
 10
180.721313
 20
465.4
 30
0.0
 11
183.721313
 21
464.9
 31
0.0
  0
LINE
  5
331
100
AcDbEntity
  8
LAY-6
  6
CONTINUOUS
 62
     1
100
AcDbLine
 10
191.721344
 20
464.9
 30
0.0
 11
194.721344
 21
465.4
 31
0.0
  0
LINE
  5
332
100
AcDbEntity
  8
LAY-6
  6
CONTINUOUS
 62
     1
100
AcDbLine
 10
194.721344
 20
465.4
 30
0.0
 11
191.721344
 21
465.9
 31
0.0
  0
TEXT
  5
333
100
AcDbEntity
  8
LAY-6
  6
CONTINUOUS
 62
     2
100
AcDbText
 10
183.721329
 20
465.9
 30
0.0
 40
5.0
  1
１４
 41
0.672
  7
EXCADSTD
 72
     5
 11
191.054129
 21
465.9
 31
0.0
100
AcDbText
  0
LINE
  5
334
100
AcDbEntity
  8
LAY-6
  6
CONTINUOUS
 62
     1
100
AcDbLine
 10
310.721344
 20
430.309814
 30
0.0
 11
310.721344
 21
466.9
 31
0.0
  0
LINE
  5
335
100
AcDbEntity
  8
LAY-6
  6
CONTINUOUS
 62
     1
100
AcDbLine
 10
194.721344
 20
465.4
 30
0.0
 11
310.721344
 21
465.4
 31
0.0
  0
LINE
  5
336
100
AcDbEntity
  8
LAY-6
  6
CONTINUOUS
 62
     1
100
AcDbLine
 10
197.721344
 20
465.9
 30
0.0
 11
194.721344
 21
465.4
 31
0.0
  0
LINE
  5
337
100
AcDbEntity
  8
LAY-6
  6
CONTINUOUS
 62
     1
100
AcDbLine
 10
194.721344
 20
465.4
 30
0.0
 11
197.721344
 21
464.9
 31
0.0
  0
LINE
  5
338
100
AcDbEntity
  8
LAY-6
  6
CONTINUOUS
 62
     1
100
AcDbLine
 10
307.721344
 20
464.9
 30
0.0
 11
310.721344
 21
465.4
 31
0.0
  0
LINE
  5
339
100
AcDbEntity
  8
LAY-6
  6
CONTINUOUS
 62
     1
100
AcDbLine
 10
310.721344
 20
465.4
 30
0.0
 11
307.721344
 21
465.9
 31
0.0
  0
TEXT
  5
33A
100
AcDbEntity
  8
LAY-6
  6
CONTINUOUS
 62
     2
100
AcDbText
 10
246.721344
 20
465.9
 30
0.0
 40
5.0
  1
１１６
 41
0.672
  7
EXCADSTD
 72
     5
 11
258.721344
 21
465.9
 31
0.0
100
AcDbText
  0
LINE
  5
33B
100
AcDbEntity
  8
LAY-6
  6
CONTINUOUS
 62
     1
100
AcDbLine
 10
329.721344
 20
430.309814
 30
0.0
 11
329.721344
 21
466.9
 31
0.0
  0
LINE
  5
33C
100
AcDbEntity
  8
LAY-6
  6
CONTINUOUS
 62
     1
100
AcDbLine
 10
310.721344
 20
465.4
 30
0.0
 11
329.721344
 21
465.4
 31
0.0
  0
LINE
  5
33D
100
AcDbEntity
  8
LAY-6
  6
CONTINUOUS
 62
     1
100
AcDbLine
 10
313.721344
 20
465.9
 30
0.0
 11
310.721344
 21
465.4
 31
0.0
  0
LINE
  5
33E
100
AcDbEntity
  8
LAY-6
  6
CONTINUOUS
 62
     1
100
AcDbLine
 10
310.721344
 20
465.4
 30
0.0
 11
313.721344
 21
464.9
 31
0.0
  0
LINE
  5
33F
100
AcDbEntity
  8
LAY-6
  6
CONTINUOUS
 62
     1
100
AcDbLine
 10
326.721344
 20
464.9
 30
0.0
 11
329.721344
 21
465.4
 31
0.0
  0
LINE
  5
340
100
AcDbEntity
  8
LAY-6
  6
CONTINUOUS
 62
     1
100
AcDbLine
 10
329.721344
 20
465.4
 30
0.0
 11
326.721344
 21
465.9
 31
0.0
  0
TEXT
  5
341
100
AcDbEntity
  8
LAY-6
  6
CONTINUOUS
 62
     2
100
AcDbText
 10
316.221344
 20
465.9
 30
0.0
 40
5.0
  1
１９
 41
0.672
  7
EXCADSTD
 72
     5
 11
323.554144
 21
465.9
 31
0.0
100
AcDbText
  0
LINE
  5
342
100
AcDbEntity
  8
LAY-6
  6
CONTINUOUS
 62
     1
100
AcDbLine
 10
178.721329
 20
410.809814
 30
0.0
 11
178.721329
 21
382.6
 31
0.0
  0
LINE
  5
343
100
AcDbEntity
  8
LAY-6
  6
CONTINUOUS
 62
     1
100
AcDbLine
 10
194.721344
 20
394.743334
 30
0.0
 11
194.721344
 21
382.6
 31
0.0
  0
LINE
  5
344
100
AcDbEntity
  8
LAY-6
  6
CONTINUOUS
 62
     1
100
AcDbLine
 10
178.721329
 20
384.1
 30
0.0
 11
194.721344
 21
384.1
 31
0.0
  0
LINE
  5
345
100
AcDbEntity
  8
LAY-6
  6
CONTINUOUS
 62
     1
100
AcDbLine
 10
181.721329
 20
384.6
 30
0.0
 11
178.721329
 21
384.1
 31
0.0
  0
LINE
  5
346
100
AcDbEntity
  8
LAY-6
  6
CONTINUOUS
 62
     1
100
AcDbLine
 10
178.721329
 20
384.1
 30
0.0
 11
181.721329
 21
383.6
 31
0.0
  0
LINE
  5
347
100
AcDbEntity
  8
LAY-6
  6
CONTINUOUS
 62
     1
100
AcDbLine
 10
191.721344
 20
383.6
 30
0.0
 11
194.721344
 21
384.1
 31
0.0
  0
LINE
  5
348
100
AcDbEntity
  8
LAY-6
  6
CONTINUOUS
 62
     1
100
AcDbLine
 10
194.721344
 20
384.1
 30
0.0
 11
191.721344
 21
384.6
 31
0.0
  0
TEXT
  5
349
100
AcDbEntity
  8
LAY-6
  6
CONTINUOUS
 62
     2
100
AcDbText
 10
182.721337
 20
384.6
 30
0.0
 40
5.0
  1
１６
 41
0.672
  7
EXCADSTD
 72
     5
 11
190.054137
 21
384.6
 31
0.0
100
AcDbText
  0
LINE
  5
34A
100
AcDbEntity
  8
LAY-6
  6
CONTINUOUS
 62
     1
100
AcDbLine
 10
214.721344
 20
406.309814
 30
0.0
 11
214.721344
 21
382.6
 31
0.0
  0
LINE
  5
34B
100
AcDbEntity
  8
LAY-6
  6
CONTINUOUS
 62
     1
100
AcDbLine
 10
194.721344
 20
384.1
 30
0.0
 11
214.721344
 21
384.1
 31
0.0
  0
LINE
  5
34C
100
AcDbEntity
  8
LAY-6
  6
CONTINUOUS
 62
     1
100
AcDbLine
 10
197.721344
 20
384.6
 30
0.0
 11
194.721344
 21
384.1
 31
0.0
  0
LINE
  5
34D
100
AcDbEntity
  8
LAY-6
  6
CONTINUOUS
 62
     1
100
AcDbLine
 10
194.721344
 20
384.1
 30
0.0
 11
197.721344
 21
383.6
 31
0.0
  0
LINE
  5
34E
100
AcDbEntity
  8
LAY-6
  6
CONTINUOUS
 62
     1
100
AcDbLine
 10
211.721344
 20
383.6
 30
0.0
 11
214.721344
 21
384.1
 31
0.0
  0
LINE
  5
34F
100
AcDbEntity
  8
LAY-6
  6
CONTINUOUS
 62
     1
100
AcDbLine
 10
214.721344
 20
384.1
 30
0.0
 11
211.721344
 21
384.6
 31
0.0
  0
TEXT
  5
350
100
AcDbEntity
  8
LAY-6
  6
CONTINUOUS
 62
     2
100
AcDbText
 10
200.721344
 20
384.6
 30
0.0
 40
5.0
  1
２０
 41
0.672
  7
EXCADSTD
 72
     5
 11
208.054144
 21
384.6
 31
0.0
100
AcDbText
  0
TEXT
  5
351
100
AcDbEntity
  8
LAY-6
  6
CONTINUOUS
 62
     2
100
AcDbText
 10
266.221344
 20
384.6
 30
0.0
 40
5.0
  1
１１５
 41
0.672
  7
EXCADSTD
 72
     5
 11
278.221344
 21
384.6
 31
0.0
100
AcDbText
  0
LINE
  5
352
100
AcDbEntity
  8
LAY-6
  6
CONTINUOUS
 62
     1
100
AcDbLine
 10
329.721344
 20
406.309814
 30
0.0
 11
329.721344
 21
382.6
 31
0.0
  0
LINE
  5
353
100
AcDbEntity
  8
LAY-6
  6
CONTINUOUS
 62
     1
100
AcDbLine
 10
214.721344
 20
384.1
 30
0.0
 11
329.721344
 21
384.1
 31
0.0
  0
LINE
  5
354
100
AcDbEntity
  8
LAY-6
  6
CONTINUOUS
 62
     1
100
AcDbLine
 10
217.721344
 20
384.6
 30
0.0
 11
214.721344
 21
384.1
 31
0.0
  0
LINE
  5
355
100
AcDbEntity
  8
LAY-6
  6
CONTINUOUS
 62
     1
100
AcDbLine
 10
214.721344
 20
384.1
 30
0.0
 11
217.721344
 21
383.6
 31
0.0
  0
LINE
  5
356
100
AcDbEntity
  8
LAY-6
  6
CONTINUOUS
 62
     1
100
AcDbLine
 10
326.721344
 20
383.6
 30
0.0
 11
329.721344
 21
384.1
 31
0.0
  0
LINE
  5
357
100
AcDbEntity
  8
LAY-6
  6
CONTINUOUS
 62
     1
100
AcDbLine
 10
329.721344
 20
384.1
 30
0.0
 11
326.721344
 21
384.6
 31
0.0
  0
LINE
  5
358
100
AcDbEntity
  8
LAY-6
  6
CONTINUOUS
 62
     1
100
AcDbLine
 10
199.9
 20
395.809863
 30
0.0
 11
247.0
 21
395.809863
 31
0.0
  0
LINE
  5
359
100
AcDbEntity
  8
LAY-6
  6
CONTINUOUS
 62
     1
100
AcDbLine
 10
245.5
 20
395.809863
 30
0.0
 11
245.5
 21
416.809814
 31
0.0
  0
LINE
  5
35A
100
AcDbEntity
  8
LAY-6
  6
CONTINUOUS
 62
     1
100
AcDbLine
 10
245.0
 20
398.809863
 30
0.0
 11
245.5
 21
395.809863
 31
0.0
  0
LINE
  5
35B
100
AcDbEntity
  8
LAY-6
  6
CONTINUOUS
 62
     1
100
AcDbLine
 10
245.5
 20
395.809863
 30
0.0
 11
246.0
 21
398.809863
 31
0.0
  0
LINE
  5
35C
100
AcDbEntity
  8
LAY-6
  6
CONTINUOUS
 62
     1
100
AcDbLine
 10
246.0
 20
413.809814
 30
0.0
 11
245.5
 21
416.809814
 31
0.0
  0
LINE
  5
35D
100
AcDbEntity
  8
LAY-6
  6
CONTINUOUS
 62
     1
100
AcDbLine
 10
245.5
 20
416.809814
 30
0.0
 11
245.0
 21
413.809814
 31
0.0
  0
TEXT
  5
35E
100
AcDbEntity
  8
LAY-6
  6
CONTINUOUS
 62
     2
100
AcDbText
 10
245.0
 20
402.309839
 30
0.0
 40
5.0
  1
２１
 50
90.0
 41
0.672
  7
EXCADSTD
 72
     5
 11
245.0
 21
409.642639
 31
0.0
100
AcDbText
  0
LINE
  5
35F
100
AcDbEntity
  8
LAY-6
  6
CONTINUOUS
 62
     1
100
AcDbLine
 10
204.171357
 20
457.809875
 30
0.0
 11
247.0
 21
457.809875
 31
0.0
  0
LINE
  5
360
100
AcDbEntity
  8
LAY-6
  6
CONTINUOUS
 62
     1
100
AcDbLine
 10
245.5
 20
419.809814
 30
0.0
 11
245.5
 21
457.809875
 31
0.0
  0
LINE
  5
361
100
AcDbEntity
  8
LAY-6
  6
CONTINUOUS
 62
     1
100
AcDbLine
 10
245.0
 20
422.809814
 30
0.0
 11
245.5
 21
419.809814
 31
0.0
  0
LINE
  5
362
100
AcDbEntity
  8
LAY-6
  6
CONTINUOUS
 62
     1
100
AcDbLine
 10
245.5
 20
419.809814
 30
0.0
 11
246.0
 21
422.809814
 31
0.0
  0
LINE
  5
363
100
AcDbEntity
  8
LAY-6
  6
CONTINUOUS
 62
     1
100
AcDbLine
 10
246.0
 20
454.809875
 30
0.0
 11
245.5
 21
457.809875
 31
0.0
  0
LINE
  5
364
100
AcDbEntity
  8
LAY-6
  6
CONTINUOUS
 62
     1
100
AcDbLine
 10
245.5
 20
457.809875
 30
0.0
 11
245.0
 21
454.809875
 31
0.0
  0
TEXT
  5
365
100
AcDbEntity
  8
LAY-6
  6
CONTINUOUS
 62
     2
100
AcDbText
 10
245.0
 20
432.909845
 30
0.0
 40
5.0
  1
３８
 50
90.0
 41
0.672
  7
EXCADSTD
 72
     5
 11
245.0
 21
440.242645
 31
0.0
100
AcDbText
  0
LINE
  5
366
100
AcDbEntity
  8
LAY-6
  6
CONTINUOUS
 62
     1
100
AcDbLine
 10
329.721344
 20
410.809814
 30
0.0
 11
347.0
 21
410.809814
 31
0.0
  0
LINE
  5
367
100
AcDbEntity
  8
LAY-6
  6
CONTINUOUS
 62
     1
100
AcDbLine
 10
345.5
 20
410.809814
 30
0.0
 11
345.5
 21
416.809814
 31
0.0
  0
LINE
  5
368
100
AcDbEntity
  8
LAY-6
  6
CONTINUOUS
 62
     1
100
AcDbLine
 10
345.033333
 20
413.609814
 30
0.0
 11
345.5
 21
410.809814
 31
0.0
  0
LINE
  5
369
100
AcDbEntity
  8
LAY-6
  6
CONTINUOUS
 62
     1
100
AcDbLine
 10
345.5
 20
410.809814
 30
0.0
 11
345.966667
 21
413.609814
 31
0.0
  0
LINE
  5
36A
100
AcDbEntity
  8
LAY-6
  6
CONTINUOUS
 62
     1
100
AcDbLine
 10
345.966667
 20
414.009814
 30
0.0
 11
345.5
 21
416.809814
 31
0.0
  0
LINE
  5
36B
100
AcDbEntity
  8
LAY-6
  6
CONTINUOUS
 62
     1
100
AcDbLine
 10
345.5
 20
416.809814
 30
0.0
 11
345.033333
 21
414.009814
 31
0.0
  0
TEXT
  5
36C
100
AcDbEntity
  8
LAY-6
  6
CONTINUOUS
 62
     2
100
AcDbText
 10
345.0
 20
411.809814
 30
0.0
 40
5.0
  1
６
 50
90.0
 41
0.672
  7
EXCADSTD
 72
     5
 11
345.0
 21
415.009814
 31
0.0
100
AcDbText
  0
LINE
  5
36D
100
AcDbEntity
  8
LAY-6
  6
CONTINUOUS
 62
     1
100
AcDbLine
 10
329.721344
 20
425.809814
 30
0.0
 11
347.0
 21
425.809814
 31
0.0
  0
LINE
  5
36E
100
AcDbEntity
  8
LAY-6
  6
CONTINUOUS
 62
     1
100
AcDbLine
 10
345.5
 20
419.809814
 30
0.0
 11
345.5
 21
425.809814
 31
0.0
  0
LINE
  5
36F
100
AcDbEntity
  8
LAY-6
  6
CONTINUOUS
 62
     1
100
AcDbLine
 10
345.033333
 20
422.609814
 30
0.0
 11
345.5
 21
419.809814
 31
0.0
  0
LINE
  5
370
100
AcDbEntity
  8
LAY-6
  6
CONTINUOUS
 62
     1
100
AcDbLine
 10
345.5
 20
419.809814
 30
0.0
 11
345.966667
 21
422.609814
 31
0.0
  0
LINE
  5
371
100
AcDbEntity
  8
LAY-6
  6
CONTINUOUS
 62
     1
100
AcDbLine
 10
345.966667
 20
423.009814
 30
0.0
 11
345.5
 21
425.809814
 31
0.0
  0
LINE
  5
372
100
AcDbEntity
  8
LAY-6
  6
CONTINUOUS
 62
     1
100
AcDbLine
 10
345.5
 20
425.809814
 30
0.0
 11
345.033333
 21
423.009814
 31
0.0
  0
TEXT
  5
373
100
AcDbEntity
  8
LAY-6
  6
CONTINUOUS
 62
     2
100
AcDbText
 10
345.0
 20
420.809814
 30
0.0
 40
5.0
  1
６
 50
90.0
 41
0.672
  7
EXCADSTD
 72
     5
 11
345.0
 21
424.009814
 31
0.0
100
AcDbText
  0
LINE
  5
374
100
AcDbEntity
  8
LAY-6
  6
CONTINUOUS
 62
     1
100
AcDbLine
 10
260.256958
 20
319.15741
 30
0.0
 11
246.7
 21
319.15741
 31
0.0
  0
LINE
  5
375
100
AcDbEntity
  8
LAY-6
  6
CONTINUOUS
 62
     1
100
AcDbLine
 10
245.8
 20
327.15741
 30
0.0
 11
249.7
 21
327.15741
 31
0.0
  0
LINE
  5
376
100
AcDbEntity
  8
LAY-6
  6
CONTINUOUS
 62
     1
100
AcDbLine
 10
248.2
 20
319.15741
 30
0.0
 11
248.2
 21
327.15741
 31
0.0
  0
LINE
  5
377
100
AcDbEntity
  8
LAY-6
  6
CONTINUOUS
 62
     1
100
AcDbLine
 10
247.7
 20
322.15741
 30
0.0
 11
248.2
 21
319.15741
 31
0.0
  0
LINE
  5
378
100
AcDbEntity
  8
LAY-6
  6
CONTINUOUS
 62
     1
100
AcDbLine
 10
248.2
 20
319.15741
 30
0.0
 11
248.7
 21
322.15741
 31
0.0
  0
LINE
  5
379
100
AcDbEntity
  8
LAY-6
  6
CONTINUOUS
 62
     1
100
AcDbLine
 10
248.7
 20
324.15741
 30
0.0
 11
248.2
 21
327.15741
 31
0.0
  0
LINE
  5
37A
100
AcDbEntity
  8
LAY-6
  6
CONTINUOUS
 62
     1
100
AcDbLine
 10
248.2
 20
327.15741
 30
0.0
 11
247.7
 21
324.15741
 31
0.0
  0
TEXT
  5
37B
100
AcDbEntity
  8
LAY-6
  6
CONTINUOUS
 62
     2
100
AcDbText
 10
247.7
 20
321.15741
 30
0.0
 40
5.0
  1
８
 50
90.0
 41
0.672
  7
EXCADSTD
 72
     5
 11
247.7
 21
324.35741
 31
0.0
100
AcDbText
  0
LINE
  5
37C
100
AcDbEntity
  8
LAY-6
  6
CONTINUOUS
 62
     1
100
AcDbLine
 10
234.256958
 20
335.15741
 30
0.0
 11
249.7
 21
335.15741
 31
0.0
  0
LINE
  5
37D
100
AcDbEntity
  8
LAY-6
  6
CONTINUOUS
 62
     1
100
AcDbLine
 10
248.2
 20
327.15741
 30
0.0
 11
248.2
 21
335.15741
 31
0.0
  0
LINE
  5
37E
100
AcDbEntity
  8
LAY-6
  6
CONTINUOUS
 62
     1
100
AcDbLine
 10
247.7
 20
330.15741
 30
0.0
 11
248.2
 21
327.15741
 31
0.0
  0
LINE
  5
37F
100
AcDbEntity
  8
LAY-6
  6
CONTINUOUS
 62
     1
100
AcDbLine
 10
248.2
 20
327.15741
 30
0.0
 11
248.7
 21
330.15741
 31
0.0
  0
LINE
  5
380
100
AcDbEntity
  8
LAY-6
  6
CONTINUOUS
 62
     1
100
AcDbLine
 10
248.7
 20
332.15741
 30
0.0
 11
248.2
 21
335.15741
 31
0.0
  0
LINE
  5
381
100
AcDbEntity
  8
LAY-6
  6
CONTINUOUS
 62
     1
100
AcDbLine
 10
248.2
 20
335.15741
 30
0.0
 11
247.7
 21
332.15741
 31
0.0
  0
TEXT
  5
382
100
AcDbEntity
  8
LAY-6
  6
CONTINUOUS
 62
     2
100
AcDbText
 10
247.7
 20
329.15741
 30
0.0
 40
5.0
  1
８
 50
90.0
 41
0.672
  7
EXCADSTD
 72
     5
 11
247.7
 21
332.35741
 31
0.0
100
AcDbText
  0
LINE
  5
383
100
AcDbEntity
  8
LAY-6
  6
CONTINUOUS
 62
     1
100
AcDbLine
 10
329.721344
 20
343.15741
 30
0.0
 11
345.5
 21
343.15741
 31
0.0
  0
LINE
  5
384
100
AcDbEntity
  8
LAY-6
  6
CONTINUOUS
 62
     1
100
AcDbLine
 10
329.721344
 20
311.15741
 30
0.0
 11
345.5
 21
311.15741
 31
0.0
  0
LINE
  5
385
100
AcDbEntity
  8
LAY-6
  6
CONTINUOUS
 62
     1
100
AcDbLine
 10
344.0
 20
343.15741
 30
0.0
 11
344.0
 21
311.15741
 31
0.0
  0
LINE
  5
386
100
AcDbEntity
  8
LAY-6
  6
CONTINUOUS
 62
     1
100
AcDbLine
 10
344.5
 20
340.15741
 30
0.0
 11
344.0
 21
343.15741
 31
0.0
  0
LINE
  5
387
100
AcDbEntity
  8
LAY-6
  6
CONTINUOUS
 62
     1
100
AcDbLine
 10
344.0
 20
343.15741
 30
0.0
 11
343.5
 21
340.15741
 31
0.0
  0
LINE
  5
388
100
AcDbEntity
  8
LAY-6
  6
CONTINUOUS
 62
     1
100
AcDbLine
 10
343.5
 20
314.15741
 30
0.0
 11
344.0
 21
311.15741
 31
0.0
  0
LINE
  5
389
100
AcDbEntity
  8
LAY-6
  6
CONTINUOUS
 62
     1
100
AcDbLine
 10
344.0
 20
311.15741
 30
0.0
 11
344.5
 21
314.15741
 31
0.0
  0
TEXT
  5
38A
100
AcDbEntity
  8
LAY-6
  6
CONTINUOUS
 62
     2
100
AcDbText
 10
343.5
 20
323.15741
 30
0.0
 40
5.0
  1
３２
 50
90.0
 41
0.672
  7
EXCADSTD
 72
     5
 11
343.5
 21
330.49021
 31
0.0
100
AcDbText
  0
LINE
  5
38B
100
AcDbEntity
  8
LAY-6
  6
CONTINUOUS
 62
     1
100
AcDbLine
 10
194.721344
 20
308.0
 30
0.0
 11
194.721344
 21
295.0
 31
0.0
  0
LINE
  5
38C
100
AcDbEntity
  8
LAY-6
  6
CONTINUOUS
 62
     1
100
AcDbLine
 10
224.721314
 20
323.0
 30
0.0
 11
224.721314
 21
295.0
 31
0.0
  0
LINE
  5
38D
100
AcDbEntity
  8
LAY-6
  6
CONTINUOUS
 62
     1
100
AcDbLine
 10
194.721344
 20
296.5
 30
0.0
 11
224.721314
 21
296.5
 31
0.0
  0
LINE
  5
38E
100
AcDbEntity
  8
LAY-6
  6
CONTINUOUS
 62
     1
100
AcDbLine
 10
197.721344
 20
297.0
 30
0.0
 11
194.721344
 21
296.5
 31
0.0
  0
LINE
  5
38F
100
AcDbEntity
  8
LAY-6
  6
CONTINUOUS
 62
     1
100
AcDbLine
 10
194.721344
 20
296.5
 30
0.0
 11
197.721344
 21
296.0
 31
0.0
  0
LINE
  5
390
100
AcDbEntity
  8
LAY-6
  6
CONTINUOUS
 62
     1
100
AcDbLine
 10
221.721314
 20
296.0
 30
0.0
 11
224.721314
 21
296.5
 31
0.0
  0
LINE
  5
391
100
AcDbEntity
  8
LAY-6
  6
CONTINUOUS
 62
     1
100
AcDbLine
 10
224.721314
 20
296.5
 30
0.0
 11
221.721314
 21
297.0
 31
0.0
  0
TEXT
  5
392
100
AcDbEntity
  8
LAY-6
  6
CONTINUOUS
 62
     2
100
AcDbText
 10
205.721329
 20
297.0
 30
0.0
 40
5.0
  1
３０
 41
0.672
  7
EXCADSTD
 72
     5
 11
213.054129
 21
297.0
 31
0.0
100
AcDbText
  0
LINE
  5
393
100
AcDbEntity
  8
LAY-6
  6
CONTINUOUS
 62
     1
100
AcDbLine
 10
270.721344
 20
306.154175
 30
0.0
 11
270.721344
 21
295.0
 31
0.0
  0
LINE
  5
394
100
AcDbEntity
  8
LAY-6
  6
CONTINUOUS
 62
     1
100
AcDbLine
 10
224.721314
 20
296.5
 30
0.0
 11
270.721344
 21
296.5
 31
0.0
  0
LINE
  5
395
100
AcDbEntity
  8
LAY-6
  6
CONTINUOUS
 62
     1
100
AcDbLine
 10
227.721314
 20
297.0
 30
0.0
 11
224.721314
 21
296.5
 31
0.0
  0
LINE
  5
396
100
AcDbEntity
  8
LAY-6
  6
CONTINUOUS
 62
     1
100
AcDbLine
 10
224.721314
 20
296.5
 30
0.0
 11
227.721314
 21
296.0
 31
0.0
  0
LINE
  5
397
100
AcDbEntity
  8
LAY-6
  6
CONTINUOUS
 62
     1
100
AcDbLine
 10
267.721344
 20
296.0
 30
0.0
 11
270.721344
 21
296.5
 31
0.0
  0
LINE
  5
398
100
AcDbEntity
  8
LAY-6
  6
CONTINUOUS
 62
     1
100
AcDbLine
 10
270.721344
 20
296.5
 30
0.0
 11
267.721344
 21
297.0
 31
0.0
  0
TEXT
  5
399
100
AcDbEntity
  8
LAY-6
  6
CONTINUOUS
 62
     2
100
AcDbText
 10
243.721329
 20
297.0
 30
0.0
 40
5.0
  1
４６
 41
0.672
  7
EXCADSTD
 72
     5
 11
251.054129
 21
297.0
 31
0.0
100
AcDbText
  0
LINE
  5
39A
100
AcDbEntity
  8
LAY-6
  6
CONTINUOUS
 62
     1
100
AcDbLine
 10
316.721344
 20
326.0
 30
0.0
 11
316.721344
 21
295.0
 31
0.0
  0
LINE
  5
39B
100
AcDbEntity
  8
LAY-6
  6
CONTINUOUS
 62
     1
100
AcDbLine
 10
270.721344
 20
296.5
 30
0.0
 11
316.721344
 21
296.5
 31
0.0
  0
LINE
  5
39C
100
AcDbEntity
  8
LAY-6
  6
CONTINUOUS
 62
     1
100
AcDbLine
 10
273.721344
 20
297.0
 30
0.0
 11
270.721344
 21
296.5
 31
0.0
  0
LINE
  5
39D
100
AcDbEntity
  8
LAY-6
  6
CONTINUOUS
 62
     1
100
AcDbLine
 10
270.721344
 20
296.5
 30
0.0
 11
273.721344
 21
296.0
 31
0.0
  0
LINE
  5
39E
100
AcDbEntity
  8
LAY-6
  6
CONTINUOUS
 62
     1
100
AcDbLine
 10
313.721344
 20
296.0
 30
0.0
 11
316.721344
 21
296.5
 31
0.0
  0
LINE
  5
39F
100
AcDbEntity
  8
LAY-6
  6
CONTINUOUS
 62
     1
100
AcDbLine
 10
316.721344
 20
296.5
 30
0.0
 11
313.721344
 21
297.0
 31
0.0
  0
TEXT
  5
3A0
100
AcDbEntity
  8
LAY-6
  6
CONTINUOUS
 62
     2
100
AcDbText
 10
289.721344
 20
297.0
 30
0.0
 40
5.0
  1
４６
 41
0.672
  7
EXCADSTD
 72
     5
 11
297.054144
 21
297.0
 31
0.0
100
AcDbText
  0
LINE
  5
3A1
100
AcDbEntity
  8
LAY-6
  6
CONTINUOUS
 62
     1
100
AcDbLine
 10
178.721314
 20
311.15741
 30
0.0
 11
178.721314
 21
286.2
 31
0.0
  0
LINE
  5
3A2
100
AcDbEntity
  8
LAY-6
  6
CONTINUOUS
 62
     1
100
AcDbLine
 10
194.721344
 20
295.0
 30
0.0
 11
194.721344
 21
286.2
 31
0.0
  0
LINE
  5
3A3
100
AcDbEntity
  8
LAY-6
  6
CONTINUOUS
 62
     1
100
AcDbLine
 10
178.721314
 20
287.7
 30
0.0
 11
194.721344
 21
287.7
 31
0.0
  0
LINE
  5
3A4
100
AcDbEntity
  8
LAY-6
  6
CONTINUOUS
 62
     1
100
AcDbLine
 10
181.721314
 20
288.2
 30
0.0
 11
178.721314
 21
287.7
 31
0.0
  0
LINE
  5
3A5
100
AcDbEntity
  8
LAY-6
  6
CONTINUOUS
 62
     1
100
AcDbLine
 10
178.721314
 20
287.7
 30
0.0
 11
181.721314
 21
287.2
 31
0.0
  0
LINE
  5
3A6
100
AcDbEntity
  8
LAY-6
  6
CONTINUOUS
 62
     1
100
AcDbLine
 10
191.721344
 20
287.2
 30
0.0
 11
194.721344
 21
287.7
 31
0.0
  0
LINE
  5
3A7
100
AcDbEntity
  8
LAY-6
  6
CONTINUOUS
 62
     1
100
AcDbLine
 10
194.721344
 20
287.7
 30
0.0
 11
191.721344
 21
288.2
 31
0.0
  0
TEXT
  5
3A8
100
AcDbEntity
  8
LAY-6
  6
CONTINUOUS
 62
     2
100
AcDbText
 10
182.721329
 20
288.2
 30
0.0
 40
5.0
  1
１６
 41
0.672
  7
EXCADSTD
 72
     5
 11
190.054129
 21
288.2
 31
0.0
100
AcDbText
  0
TEXT
  5
3A9
100
AcDbEntity
  8
LAY-6
  6
CONTINUOUS
 62
     2
100
AcDbText
 10
179.721341
 20
212.8
 30
0.0
 40
5.0
  1
２２
 41
0.672
  7
EXCADSTD
 72
     5
 11
187.05414
 21
212.8
 31
0.0
100
AcDbText
  0
LINE
  5
3AA
100
AcDbEntity
  8
LAY-6
  6
CONTINUOUS
 62
     1
100
AcDbLine
 10
194.721344
 20
219.45
 30
0.0
 11
194.721344
 21
210.8
 31
0.0
  0
LINE
  5
3AB
100
AcDbEntity
  8
LAY-6
  6
CONTINUOUS
 62
     1
100
AcDbLine
 10
172.721337
 20
212.3
 30
0.0
 11
194.721344
 21
212.3
 31
0.0
  0
LINE
  5
3AC
100
AcDbEntity
  8
LAY-6
  6
CONTINUOUS
 62
     1
100
AcDbLine
 10
175.721337
 20
212.8
 30
0.0
 11
172.721337
 21
212.3
 31
0.0
  0
LINE
  5
3AD
100
AcDbEntity
  8
LAY-6
  6
CONTINUOUS
 62
     1
100
AcDbLine
 10
172.721337
 20
212.3
 30
0.0
 11
175.721337
 21
211.8
 31
0.0
  0
LINE
  5
3AE
100
AcDbEntity
  8
LAY-6
  6
CONTINUOUS
 62
     1
100
AcDbLine
 10
191.721344
 20
211.8
 30
0.0
 11
194.721344
 21
212.3
 31
0.0
  0
LINE
  5
3AF
100
AcDbEntity
  8
LAY-6
  6
CONTINUOUS
 62
     1
100
AcDbLine
 10
194.721344
 20
212.3
 30
0.0
 11
191.721344
 21
212.8
 31
0.0
  0
LINE
  5
3B0
100
AcDbEntity
  8
LAY-6
  6
CONTINUOUS
 62
     1
100
AcDbLine
 10
226.721329
 20
238.6
 30
0.0
 11
226.721329
 21
210.8
 31
0.0
  0
LINE
  5
3B1
100
AcDbEntity
  8
LAY-6
  6
CONTINUOUS
 62
     1
100
AcDbLine
 10
194.721344
 20
212.3
 30
0.0
 11
226.721329
 21
212.3
 31
0.0
  0
LINE
  5
3B2
100
AcDbEntity
  8
LAY-6
  6
CONTINUOUS
 62
     1
100
AcDbLine
 10
197.721344
 20
212.8
 30
0.0
 11
194.721344
 21
212.3
 31
0.0
  0
LINE
  5
3B3
100
AcDbEntity
  8
LAY-6
  6
CONTINUOUS
 62
     1
100
AcDbLine
 10
194.721344
 20
212.3
 30
0.0
 11
197.721344
 21
211.8
 31
0.0
  0
LINE
  5
3B4
100
AcDbEntity
  8
LAY-6
  6
CONTINUOUS
 62
     1
100
AcDbLine
 10
223.721329
 20
211.8
 30
0.0
 11
226.721329
 21
212.3
 31
0.0
  0
LINE
  5
3B5
100
AcDbEntity
  8
LAY-6
  6
CONTINUOUS
 62
     1
100
AcDbLine
 10
226.721329
 20
212.3
 30
0.0
 11
223.721329
 21
212.8
 31
0.0
  0
TEXT
  5
3B6
100
AcDbEntity
  8
LAY-6
  6
CONTINUOUS
 62
     2
100
AcDbText
 10
206.721336
 20
212.8
 30
0.0
 40
5.0
  1
３２
 41
0.672
  7
EXCADSTD
 72
     5
 11
214.054136
 21
212.8
 31
0.0
100
AcDbText
  0
LINE
  5
3B7
100
AcDbEntity
  8
LAY-6
  6
CONTINUOUS
 62
     1
100
AcDbLine
 10
266.721329
 20
227.2
 30
0.0
 11
266.721329
 21
210.8
 31
0.0
  0
LINE
  5
3B8
100
AcDbEntity
  8
LAY-6
  6
CONTINUOUS
 62
     1
100
AcDbLine
 10
226.721329
 20
212.3
 30
0.0
 11
266.721329
 21
212.3
 31
0.0
  0
LINE
  5
3B9
100
AcDbEntity
  8
LAY-6
  6
CONTINUOUS
 62
     1
100
AcDbLine
 10
229.721329
 20
212.8
 30
0.0
 11
226.721329
 21
212.3
 31
0.0
  0
LINE
  5
3BA
100
AcDbEntity
  8
LAY-6
  6
CONTINUOUS
 62
     1
100
AcDbLine
 10
226.721329
 20
212.3
 30
0.0
 11
229.721329
 21
211.8
 31
0.0
  0
LINE
  5
3BB
100
AcDbEntity
  8
LAY-6
  6
CONTINUOUS
 62
     1
100
AcDbLine
 10
263.721329
 20
211.8
 30
0.0
 11
266.721329
 21
212.3
 31
0.0
  0
LINE
  5
3BC
100
AcDbEntity
  8
LAY-6
  6
CONTINUOUS
 62
     1
100
AcDbLine
 10
266.721329
 20
212.3
 30
0.0
 11
263.721329
 21
212.8
 31
0.0
  0
TEXT
  5
3BD
100
AcDbEntity
  8
LAY-6
  6
CONTINUOUS
 62
     2
100
AcDbText
 10
242.721329
 20
212.8
 30
0.0
 40
5.0
  1
４０
 41
0.672
  7
EXCADSTD
 72
     5
 11
250.054129
 21
212.8
 31
0.0
100
AcDbText
  0
LINE
  5
3BE
100
AcDbEntity
  8
LAY-6
  6
CONTINUOUS
 62
     1
100
AcDbLine
 10
422.721344
 20
236.052094
 30
0.0
 11
422.721344
 21
210.8
 31
0.0
  0
LINE
  5
3BF
100
AcDbEntity
  8
LAY-6
  6
CONTINUOUS
 62
     1
100
AcDbLine
 10
422.721344
 20
238.2
 30
0.0
 11
422.721344
 21
210.8
 31
0.0
  0
LINE
  5
3C0
100
AcDbEntity
  8
LAY-6
  6
CONTINUOUS
 62
     1
100
AcDbLine
 10
462.721344
 20
227.6
 30
0.0
 11
462.721344
 21
210.8
 31
0.0
  0
LINE
  5
3C1
100
AcDbEntity
  8
LAY-6
  6
CONTINUOUS
 62
     1
100
AcDbLine
 10
422.721344
 20
212.3
 30
0.0
 11
462.721344
 21
212.3
 31
0.0
  0
LINE
  5
3C2
100
AcDbEntity
  8
LAY-6
  6
CONTINUOUS
 62
     1
100
AcDbLine
 10
425.721344
 20
212.8
 30
0.0
 11
422.721344
 21
212.3
 31
0.0
  0
LINE
  5
3C3
100
AcDbEntity
  8
LAY-6
  6
CONTINUOUS
 62
     1
100
AcDbLine
 10
422.721344
 20
212.3
 30
0.0
 11
425.721344
 21
211.8
 31
0.0
  0
LINE
  5
3C4
100
AcDbEntity
  8
LAY-6
  6
CONTINUOUS
 62
     1
100
AcDbLine
 10
459.721344
 20
211.8
 30
0.0
 11
462.721344
 21
212.3
 31
0.0
  0
LINE
  5
3C5
100
AcDbEntity
  8
LAY-6
  6
CONTINUOUS
 62
     1
100
AcDbLine
 10
462.721344
 20
212.3
 30
0.0
 11
459.721344
 21
212.8
 31
0.0
  0
TEXT
  5
3C6
100
AcDbEntity
  8
LAY-6
  6
CONTINUOUS
 62
     2
100
AcDbText
 10
438.721344
 20
212.8
 30
0.0
 40
5.0
  1
４０
 41
0.672
  7
EXCADSTD
 72
     5
 11
446.054144
 21
212.8
 31
0.0
100
AcDbText
  0
LINE
  5
3C7
100
AcDbEntity
  8
LAY-6
  6
CONTINUOUS
 62
     1
100
AcDbLine
 10
214.72136
 20
134.552063
 30
0.0
 11
291.6
 21
134.552063
 31
0.0
  0
LINE
  5
3C8
100
AcDbEntity
  8
LAY-6
  6
CONTINUOUS
 62
     1
100
AcDbLine
 10
279.2
 20
147.552063
 30
0.0
 11
268.6
 21
147.552063
 31
0.0
  0
LINE
  5
3C9
100
AcDbEntity
  8
LAY-6
  6
CONTINUOUS
 62
     1
100
AcDbLine
 10
173.22136
 20
147.552063
 30
0.0
 11
438.6
 21
147.552063
 31
0.0
  0
LINE
  5
3CA
100
AcDbEntity
  8
LAY-6
  6
CONTINUOUS
 62
     1
100
AcDbLine
 10
249.721344
 20
121.552063
 30
0.0
 11
268.5
 21
121.552063
 31
0.0
  0
LINE
  5
3CB
100
AcDbEntity
  8
LAY-6
  6
CONTINUOUS
 62
     1
100
AcDbLine
 10
677.478339
 20
495.009753
 30
0.0
 11
677.478339
 21
508.3
 31
0.0
  0
LINE
  5
3CC
100
AcDbEntity
  8
LAY-6
  6
CONTINUOUS
 62
     1
100
AcDbLine
 10
645.478339
 20
495.009753
 30
0.0
 11
645.478339
 21
508.3
 31
0.0
  0
TEXT
  5
3CD
100
AcDbEntity
  8
LAY-6
  6
CONTINUOUS
 62
     2
100
AcDbText
 10
657.478339
 20
507.3
 30
0.0
 40
5.0
  1
３２
 41
0.672
  7
EXCADSTD
 72
     5
 11
664.811139
 21
507.3
 31
0.0
100
AcDbText
  0
LINE
  5
3CE
100
AcDbEntity
  8
LAY-6
  6
CONTINUOUS
 62
     1
100
AcDbLine
 10
677.478339
 20
506.8
 30
0.0
 11
645.478339
 21
506.8
 31
0.0
  0
LINE
  5
3CF
100
AcDbEntity
  8
LAY-6
  6
CONTINUOUS
 62
     1
100
AcDbLine
 10
674.478339
 20
506.3
 30
0.0
 11
677.478339
 21
506.8
 31
0.0
  0
LINE
  5
3D0
100
AcDbEntity
  8
LAY-6
  6
CONTINUOUS
 62
     1
100
AcDbLine
 10
677.478339
 20
506.8
 30
0.0
 11
674.478339
 21
507.3
 31
0.0
  0
LINE
  5
3D1
100
AcDbEntity
  8
LAY-6
  6
CONTINUOUS
 62
     1
100
AcDbLine
 10
648.478339
 20
507.3
 30
0.0
 11
645.478339
 21
506.8
 31
0.0
  0
LINE
  5
3D2
100
AcDbEntity
  8
LAY-6
  6
CONTINUOUS
 62
     1
100
AcDbLine
 10
645.478339
 20
506.8
 30
0.0
 11
648.478339
 21
506.3
 31
0.0
  0
TEXT
  5
3D3
100
AcDbEntity
  8
LAY-6
  6
CONTINUOUS
 62
     2
100
AcDbText
 10
696.4
 20
471.509836
 30
0.0
 40
5.0
  1
２１
 50
90.0
 41
0.672
  7
EXCADSTD
 72
     5
 11
696.4
 21
478.842636
 31
0.0
100
AcDbText
  0
LINE
  5
3D4
100
AcDbEntity
  8
LAY-6
  6
CONTINUOUS
 62
     1
100
AcDbLine
 10
666.65
 20
465.00986
 30
0.0
 11
698.4
 21
465.00986
 31
0.0
  0
LINE
  5
3D5
100
AcDbEntity
  8
LAY-6
  6
CONTINUOUS
 62
     1
100
AcDbLine
 10
696.9
 20
465.00986
 30
0.0
 11
696.9
 21
486.009811
 31
0.0
  0
LINE
  5
3D6
100
AcDbEntity
  8
LAY-6
  6
CONTINUOUS
 62
     1
100
AcDbLine
 10
696.4
 20
468.00986
 30
0.0
 11
696.9
 21
465.00986
 31
0.0
  0
LINE
  5
3D7
100
AcDbEntity
  8
LAY-6
  6
CONTINUOUS
 62
     1
100
AcDbLine
 10
696.9
 20
465.00986
 30
0.0
 11
697.4
 21
468.00986
 31
0.0
  0
LINE
  5
3D8
100
AcDbEntity
  8
LAY-6
  6
CONTINUOUS
 62
     1
100
AcDbLine
 10
697.4
 20
483.009811
 30
0.0
 11
696.9
 21
486.009811
 31
0.0
  0
LINE
  5
3D9
100
AcDbEntity
  8
LAY-6
  6
CONTINUOUS
 62
     1
100
AcDbLine
 10
696.9
 20
486.009811
 30
0.0
 11
696.4
 21
483.009811
 31
0.0
  0
LINE
  5
3DA
100
AcDbEntity
  8
LAY-6
  6
CONTINUOUS
 62
     1
100
AcDbLine
 10
679.978339
 20
489.009814
 30
0.0
 11
698.4
 21
489.009814
 31
0.0
  0
TEXT
  5
3DB
100
AcDbEntity
  8
LAY-6
  6
CONTINUOUS
 62
     2
100
AcDbText
 10
696.4
 20
504.009851
 30
0.0
 40
5.0
  1
３８
 50
90.0
 41
0.672
  7
EXCADSTD
 72
     5
 11
696.4
 21
511.342651
 31
0.0
100
AcDbText
  0
LINE
  5
3DC
100
AcDbEntity
  8
LAY-6
  6
CONTINUOUS
 62
     1
100
AcDbLine
 10
670.978351
 20
527.009888
 30
0.0
 11
698.4
 21
527.009888
 31
0.0
  0
LINE
  5
3DD
100
AcDbEntity
  8
LAY-6
  6
CONTINUOUS
 62
     1
100
AcDbLine
 10
696.9
 20
489.009814
 30
0.0
 11
696.9
 21
527.009888
 31
0.0
  0
LINE
  5
3DE
100
AcDbEntity
  8
LAY-6
  6
CONTINUOUS
 62
     1
100
AcDbLine
 10
696.4
 20
492.009814
 30
0.0
 11
696.9
 21
489.009814
 31
0.0
  0
LINE
  5
3DF
100
AcDbEntity
  8
LAY-6
  6
CONTINUOUS
 62
     1
100
AcDbLine
 10
696.9
 20
489.009814
 30
0.0
 11
697.4
 21
492.009814
 31
0.0
  0
LINE
  5
3E0
100
AcDbEntity
  8
LAY-6
  6
CONTINUOUS
 62
     1
100
AcDbLine
 10
697.4
 20
524.009888
 30
0.0
 11
696.9
 21
527.009888
 31
0.0
  0
LINE
  5
3E1
100
AcDbEntity
  8
LAY-6
  6
CONTINUOUS
 62
     1
100
AcDbLine
 10
696.9
 20
527.009888
 30
0.0
 11
696.4
 21
524.009888
 31
0.0
  0
LINE
  5
3E2
100
AcDbEntity
  8
LAY-6
  6
CONTINUOUS
 62
     1
100
AcDbLine
 10
641.478461
 20
411.6
 30
0.0
 11
641.478461
 21
427.1
 31
0.0
  0
LINE
  5
3E3
100
AcDbEntity
  8
LAY-6
  6
CONTINUOUS
 62
     1
100
AcDbLine
 10
681.478461
 20
411.6
 30
0.0
 11
681.478461
 21
427.1
 31
0.0
  0
TEXT
  5
3E4
100
AcDbEntity
  8
LAY-6
  6
CONTINUOUS
 62
     2
100
AcDbText
 10
654.178461
 20
391.0
 30
0.0
 40
5.0
  1
４０以上
 41
0.672
  7
EXCADSTD
 72
     5
 11
670.178461
 21
391.0
 31
0.0
100
AcDbText
  0
LINE
  5
3E5
100
AcDbEntity
  8
LAY-6
  6
CONTINUOUS
 62
     1
100
AcDbLine
 10
641.478461
 20
390.6
 30
0.0
 11
681.478461
 21
390.6
 31
0.0
  0
LINE
  5
3E6
100
AcDbEntity
  8
LAY-6
  6
CONTINUOUS
 62
     1
100
AcDbLine
 10
644.478461
 20
391.1
 30
0.0
 11
641.478461
 21
390.6
 31
0.0
  0
LINE
  5
3E7
100
AcDbEntity
  8
LAY-6
  6
CONTINUOUS
 62
     1
100
AcDbLine
 10
641.478461
 20
390.6
 30
0.0
 11
644.478461
 21
390.1
 31
0.0
  0
LINE
  5
3E8
100
AcDbEntity
  8
LAY-6
  6
CONTINUOUS
 62
     1
100
AcDbLine
 10
678.478461
 20
390.1
 30
0.0
 11
681.478461
 21
390.6
 31
0.0
  0
LINE
  5
3E9
100
AcDbEntity
  8
LAY-6
  6
CONTINUOUS
 62
     1
100
AcDbLine
 10
681.478461
 20
390.6
 30
0.0
 11
678.478461
 21
391.1
 31
0.0
  0
LINE
  5
3EA
100
AcDbEntity
  8
LAY-6
  6
CONTINUOUS
 62
     1
100
AcDbLine
 10
676.4784
 20
351.552063
 30
0.0
 11
676.4784
 21
376.0
 31
0.0
  0
LINE
  5
3EB
100
AcDbEntity
  8
LAY-6
  6
CONTINUOUS
 62
     1
100
AcDbLine
 10
646.4784
 20
351.552063
 30
0.0
 11
646.4784
 21
376.0
 31
0.0
  0
LINE
  5
3EC
100
AcDbEntity
  8
LAY-6
  6
CONTINUOUS
 62
     1
100
AcDbLine
 10
676.4784
 20
374.5
 30
0.0
 11
646.4784
 21
374.5
 31
0.0
  0
LINE
  5
3ED
100
AcDbEntity
  8
LAY-6
  6
CONTINUOUS
 62
     1
100
AcDbLine
 10
673.4784
 20
374.0
 30
0.0
 11
676.4784
 21
374.5
 31
0.0
  0
LINE
  5
3EE
100
AcDbEntity
  8
LAY-6
  6
CONTINUOUS
 62
     1
100
AcDbLine
 10
676.4784
 20
374.5
 30
0.0
 11
673.4784
 21
375.0
 31
0.0
  0
LINE
  5
3EF
100
AcDbEntity
  8
LAY-6
  6
CONTINUOUS
 62
     1
100
AcDbLine
 10
649.4784
 20
375.0
 30
0.0
 11
646.4784
 21
374.5
 31
0.0
  0
LINE
  5
3F0
100
AcDbEntity
  8
LAY-6
  6
CONTINUOUS
 62
     1
100
AcDbLine
 10
646.4784
 20
374.5
 30
0.0
 11
649.4784
 21
374.0
 31
0.0
  0
TEXT
  5
3F1
100
AcDbEntity
  8
LAY-6
  6
CONTINUOUS
 62
     2
100
AcDbText
 10
657.4784
 20
375.0
 30
0.0
 40
5.0
  1
３０
 41
0.672
  7
EXCADSTD
 72
     5
 11
664.8112
 21
375.0
 31
0.0
100
AcDbText
  0
LINE
  5
3F2
100
AcDbEntity
  8
LAY-6
  6
CONTINUOUS
 62
     1
100
AcDbLine
 10
674.478401
 20
353.552063
 30
0.0
 11
696.9
 21
353.552063
 31
0.0
  0
LINE
  5
3F3
100
AcDbEntity
  8
LAY-6
  6
CONTINUOUS
 62
     1
100
AcDbLine
 10
695.4
 20
333.552063
 30
0.0
 11
695.4
 21
353.552063
 31
0.0
  0
LINE
  5
3F4
100
AcDbEntity
  8
LAY-6
  6
CONTINUOUS
 62
     1
100
AcDbLine
 10
694.9
 20
336.552063
 30
0.0
 11
695.4
 21
333.552063
 31
0.0
  0
LINE
  5
3F5
100
AcDbEntity
  8
LAY-6
  6
CONTINUOUS
 62
     1
100
AcDbLine
 10
695.4
 20
333.552063
 30
0.0
 11
695.9
 21
336.552063
 31
0.0
  0
LINE
  5
3F6
100
AcDbEntity
  8
LAY-6
  6
CONTINUOUS
 62
     1
100
AcDbLine
 10
695.9
 20
350.552063
 30
0.0
 11
695.4
 21
353.552063
 31
0.0
  0
LINE
  5
3F7
100
AcDbEntity
  8
LAY-6
  6
CONTINUOUS
 62
     1
100
AcDbLine
 10
695.4
 20
353.552063
 30
0.0
 11
694.9
 21
350.552063
 31
0.0
  0
TEXT
  5
3F8
100
AcDbEntity
  8
LAY-6
  6
CONTINUOUS
 62
     2
100
AcDbText
 10
694.9
 20
339.552063
 30
0.0
 40
5.0
  1
２０
 50
90.0
 41
0.672
  7
EXCADSTD
 72
     5
 11
694.9
 21
346.884863
 31
0.0
100
AcDbText
  0
POLYLINE
  5
3F9
100
AcDbEntity
  8
LAY-6
  6
CONTINUOUS
 62
     1
100
AcDb2dPolyline
 66
     1
 10
0.0
 20
0.0
 30
0.0
 70
   128
  0
VERTEX
  5
3FA
100
AcDbEntity
  8
LAY-6
  6
CONTINUOUS
 62
     1
100
AcDbVertex
100
AcDb2dVertex
 10
316.721314
 20
435.809826
 30
0.0
  0
VERTEX
  5
3FB
100
AcDbEntity
  8
LAY-6
  6
CONTINUOUS
 62
     1
100
AcDbVertex
100
AcDb2dVertex
 10
356.6
 20
466.3
 30
0.0
  0
VERTEX
  5
3FC
100
AcDbEntity
  8
LAY-6
  6
CONTINUOUS
 62
     1
100
AcDbVertex
100
AcDb2dVertex
 10
404.4
 20
466.3
 30
0.0
  0
SEQEND
  5
3FD
100
AcDbEntity
  8
LAY-6
  6
CONTINUOUS
 62
     1
  0
LINE
  5
3FE
100
AcDbEntity
  8
LAY-6
  6
CONTINUOUS
 62
     1
100
AcDbLine
 10
318.800848
 20
438.029181
 30
0.0
 11
316.721314
 21
435.809826
 31
0.0
  0
LINE
  5
3FF
100
AcDbEntity
  8
LAY-6
  6
CONTINUOUS
 62
     1
100
AcDbLine
 10
316.721314
 20
435.809826
 30
0.0
 11
319.408232
 21
437.234772
 31
0.0
  0
TEXT
  5
400
100
AcDbEntity
  8
LAY-6
  6
CONTINUOUS
 62
     2
100
AcDbText
 10
360.4
 20
466.3
 30
0.0
 40
5.0
  1
４－Ｍ６×１６皿小ネジ
 41
0.672
  7
EXCADSTD
 72
     5
 11
404.4
 21
466.3
 31
0.0
100
AcDbText
  0
POLYLINE
  5
401
100
AcDbEntity
  8
LAY-6
  6
CONTINUOUS
 62
     1
100
AcDb2dPolyline
 66
     1
 10
0.0
 20
0.0
 30
0.0
 70
   128
  0
VERTEX
  5
402
100
AcDbEntity
  8
LAY-6
  6
CONTINUOUS
 62
     1
100
AcDbVertex
100
AcDb2dVertex
 10
316.721344
 20
400.809814
 30
0.0
  0
VERTEX
  5
403
100
AcDbEntity
  8
LAY-6
  6
CONTINUOUS
 62
     1
100
AcDbVertex
100
AcDb2dVertex
 10
356.6
 20
384.1
 30
0.0
  0
VERTEX
  5
404
100
AcDbEntity
  8
LAY-6
  6
CONTINUOUS
 62
     1
100
AcDbVertex
100
AcDb2dVertex
 10
404.6
 20
384.1
 30
0.0
  0
SEQEND
  5
405
100
AcDbEntity
  8
LAY-6
  6
CONTINUOUS
 62
     1
  0
LINE
  5
406
100
AcDbEntity
  8
LAY-6
  6
CONTINUOUS
 62
     1
100
AcDbLine
 10
319.681492
 20
400.111583
 30
0.0
 11
316.721344
 21
400.809814
 31
0.0
  0
LINE
  5
407
100
AcDbEntity
  8
LAY-6
  6
CONTINUOUS
 62
     1
100
AcDbLine
 10
316.721344
 20
400.809814
 30
0.0
 11
319.29503
 21
399.189277
 31
0.0
  0
TEXT
  5
408
100
AcDbEntity
  8
LAY-6
  6
CONTINUOUS
 62
     2
100
AcDbText
 10
360.121344
 20
384.4
 30
0.0
 40
5.0
  1
３－Ｍ６×１６皿小ネジ
 41
0.672
  7
EXCADSTD
 72
     5
 11
404.121344
 21
384.4
 31
0.0
100
AcDbText
  0
POLYLINE
  5
409
100
AcDbEntity
  8
LAY-6
  6
CONTINUOUS
 62
     1
100
AcDb2dPolyline
 66
     1
 10
0.0
 20
0.0
 30
0.0
 70
   128
  0
VERTEX
  5
40A
100
AcDbEntity
  8
LAY-6
  6
CONTINUOUS
 62
     1
100
AcDbVertex
100
AcDb2dVertex
 10
226.621344
 20
154.952063
 30
0.0
  0
VERTEX
  5
40B
100
AcDbEntity
  8
LAY-6
  6
CONTINUOUS
 62
     1
100
AcDbVertex
100
AcDb2dVertex
 10
237.6
 20
170.5
 30
0.0
  0
VERTEX
  5
40C
100
AcDbEntity
  8
LAY-6
  6
CONTINUOUS
 62
     1
100
AcDbVertex
100
AcDb2dVertex
 10
285.2
 20
170.5
 30
0.0
  0
SEQEND
  5
40D
100
AcDbEntity
  8
LAY-6
  6
CONTINUOUS
 62
     1
  0
LINE
  5
40E
100
AcDbEntity
  8
LAY-6
  6
CONTINUOUS
 62
     1
100
AcDbLine
 10
227.943338
 20
157.691102
 30
0.0
 11
226.621344
 21
154.952063
 31
0.0
  0
LINE
  5
40F
100
AcDbEntity
  8
LAY-6
  6
CONTINUOUS
 62
     1
100
AcDbLine
 10
226.621344
 20
154.952063
 30
0.0
 11
228.760216
 21
157.114291
 31
0.0
  0
TEXT
  5
410
100
AcDbEntity
  8
LAY-6
  6
CONTINUOUS
 62
     2
100
AcDbText
 10
241.2
 20
170.5
 30
0.0
 40
5.0
  1
５－Ｍ６×２０皿小ネジ
 41
0.672
  7
EXCADSTD
 72
     5
 11
285.2
 21
170.5
 31
0.0
100
AcDbText
  0
POLYLINE
  5
411
100
AcDbEntity
  8
LAY-6
  6
CONTINUOUS
 62
     1
100
AcDb2dPolyline
 66
     1
 10
0.0
 20
0.0
 30
0.0
 70
   128
  0
VERTEX
  5
412
100
AcDbEntity
  8
LAY-6
  6
CONTINUOUS
 62
     1
100
AcDbVertex
100
AcDb2dVertex
 10
713.0
 20
174.152078
 30
0.0
  0
VERTEX
  5
413
100
AcDbEntity
  8
LAY-6
  6
CONTINUOUS
 62
     1
100
AcDbVertex
100
AcDb2dVertex
 10
723.8
 20
194.9
 30
0.0
  0
VERTEX
  5
414
100
AcDbEntity
  8
LAY-6
  6
CONTINUOUS
 62
     1
100
AcDbVertex
100
AcDb2dVertex
 10
776.0
 20
194.9
 30
0.0
  0
SEQEND
  5
415
100
AcDbEntity
  8
LAY-6
  6
CONTINUOUS
 62
     1
  0
LINE
  5
416
100
AcDbEntity
  8
LAY-6
  6
CONTINUOUS
 62
     1
100
AcDbLine
 10
713.941665
 20
177.044009
 30
0.0
 11
713.0
 21
174.152078
 31
0.0
  0
LINE
  5
417
100
AcDbEntity
  8
LAY-6
  6
CONTINUOUS
 62
     1
100
AcDbLine
 10
713.0
 20
174.152078
 30
0.0
 11
714.828688
 21
176.582284
 31
0.0
  0
TEXT
  5
418
100
AcDbEntity
  8
LAY-6
  6
CONTINUOUS
 62
     2
100
AcDbText
 10
726.0
 20
194.9
 30
0.0
 40
5.0
  1
フロアプレート　　１.５ｔ
 41
0.655621
  7
EXCADSTD
 72
     5
 11
776.0
 21
194.9
 31
0.0
100
AcDbText
  0
CIRCLE
  5
419
100
AcDbEntity
  8
LAY-6
  6
CONTINUOUS
 62
     1
100
AcDbCircle
 10
629.4
 20
532.1
 30
0.0
 40
4.0
  0
TEXT
  5
41A
100
AcDbEntity
  8
LAY-6
  6
CONTINUOUS
 62
     2
100
AcDbText
 10
626.571573
 20
529.271573
 30
0.0
 40
5.656854
  1
１
 41
0.84
  7
EXCADSTD
 72
     5
 11
631.097056
 21
529.271573
 31
0.0
100
AcDbText
  0
POLYLINE
  5
41B
100
AcDbEntity
  8
LAY-6
  6
CONTINUOUS
 62
     1
100
AcDb2dPolyline
 66
     1
 10
0.0
 20
0.0
 30
0.0
 70
   128
  0
VERTEX
  5
41C
100
AcDbEntity
  8
LAY-6
  6
CONTINUOUS
 62
     1
100
AcDbVertex
100
AcDb2dVertex
 10
651.978387
 20
521.3
 30
0.0
  0
VERTEX
  5
41D
100
AcDbEntity
  8
LAY-6
  6
CONTINUOUS
 62
     1
100
AcDbVertex
100
AcDb2dVertex
 10
633.009919
 20
530.37707
 30
0.0
  0
SEQEND
  5
41E
100
AcDbEntity
  8
LAY-6
  6
CONTINUOUS
 62
     1
  0
LINE
  5
41F
100
AcDbEntity
  8
LAY-6
  6
CONTINUOUS
 62
     1
100
AcDbLine
 10
649.056445
 20
522.14395
 30
0.0
 11
651.978387
 21
521.3
 31
0.0
  0
LINE
  5
420
100
AcDbEntity
  8
LAY-6
  6
CONTINUOUS
 62
     1
100
AcDbLine
 10
651.978387
 20
521.3
 30
0.0
 11
649.488101
 21
523.045989
 31
0.0
  0
CIRCLE
  5
421
100
AcDbEntity
  8
LAY-6
  6
CONTINUOUS
 62
     1
100
AcDbCircle
 10
629.2
 20
467.7
 30
0.0
 40
4.0
  0
TEXT
  5
422
100
AcDbEntity
  8
LAY-6
  6
CONTINUOUS
 62
     2
100
AcDbText
 10
626.371573
 20
464.871573
 30
0.0
 40
5.656854
  1
２
 41
0.84
  7
EXCADSTD
 72
     5
 11
630.897056
 21
464.871573
 31
0.0
100
AcDbText
  0
POLYLINE
  5
423
100
AcDbEntity
  8
LAY-6
  6
CONTINUOUS
 62
     1
100
AcDb2dPolyline
 66
     1
 10
0.0
 20
0.0
 30
0.0
 70
   128
  0
VERTEX
  5
424
100
AcDbEntity
  8
LAY-6
  6
CONTINUOUS
 62
     1
100
AcDbVertex
100
AcDb2dVertex
 10
652.163993
 20
472.979361
 30
0.0
  0
VERTEX
  5
425
100
AcDbEntity
  8
LAY-6
  6
CONTINUOUS
 62
     1
100
AcDbVertex
100
AcDb2dVertex
 10
633.100406
 20
468.587036
 30
0.0
  0
SEQEND
  5
426
100
AcDbEntity
  8
LAY-6
  6
CONTINUOUS
 62
     1
  0
LINE
  5
427
100
AcDbEntity
  8
LAY-6
  6
CONTINUOUS
 62
     1
100
AcDbLine
 10
649.352847
 20
471.818562
 30
0.0
 11
652.163993
 21
472.979361
 31
0.0
  0
LINE
  5
428
100
AcDbEntity
  8
LAY-6
  6
CONTINUOUS
 62
     1
100
AcDbLine
 10
652.163993
 20
472.979361
 30
0.0
 11
649.128325
 21
472.793031
 31
0.0
  0
CIRCLE
  5
429
100
AcDbEntity
  8
LAY-6
  6
CONTINUOUS
 62
     1
100
AcDbCircle
 10
625.3
 20
361.2
 30
0.0
 40
4.0
  0
POLYLINE
  5
42A
100
AcDbEntity
  8
LAY-6
  6
CONTINUOUS
 62
     1
100
AcDb2dPolyline
 66
     1
 10
0.0
 20
0.0
 30
0.0
 70
   128
  0
VERTEX
  5
42B
100
AcDbEntity
  8
LAY-6
  6
CONTINUOUS
 62
     1
100
AcDbVertex
100
AcDb2dVertex
 10
646.4784
 20
349.7
 30
0.0
  0
VERTEX
  5
42C
100
AcDbEntity
  8
LAY-6
  6
CONTINUOUS
 62
     1
100
AcDbVertex
100
AcDb2dVertex
 10
628.744739
 20
359.166832
 30
0.0
  0
SEQEND
  5
42D
100
AcDbEntity
  8
LAY-6
  6
CONTINUOUS
 62
     1
  0
LINE
  5
42E
100
AcDbEntity
  8
LAY-6
  6
CONTINUOUS
 62
     1
100
AcDbLine
 10
643.596426
 20
350.671712
 30
0.0
 11
646.4784
 21
349.7
 31
0.0
  0
LINE
  5
42F
100
AcDbEntity
  8
LAY-6
  6
CONTINUOUS
 62
     1
100
AcDbLine
 10
646.4784
 20
349.7
 30
0.0
 11
644.067358
 21
351.553881
 31
0.0
  0
TEXT
  5
430
100
AcDbEntity
  8
LAY-6
  6
CONTINUOUS
 62
     2
100
AcDbText
 10
622.471573
 20
358.371573
 30
0.0
 40
5.656854
  1
３
 41
0.84
  7
EXCADSTD
 72
     5
 11
626.997056
 21
358.371573
 31
0.0
100
AcDbText
  0
CIRCLE
  5
431
100
AcDbEntity
  8
LAY-6
  6
CONTINUOUS
 62
     1
100
AcDbCircle
 10
611.8
 20
337.2
 30
0.0
 40
4.0
  0
POLYLINE
  5
432
100
AcDbEntity
  8
LAY-6
  6
CONTINUOUS
 62
     1
100
AcDb2dPolyline
 66
     1
 10
0.0
 20
0.0
 30
0.0
 70
   128
  0
VERTEX
  5
433
100
AcDbEntity
  8
LAY-6
  6
CONTINUOUS
 62
     1
100
AcDbVertex
100
AcDb2dVertex
 10
641.478461
 20
322.2
 30
0.0
  0
VERTEX
  5
434
100
AcDbEntity
  8
LAY-6
  6
CONTINUOUS
 62
     1
100
AcDbVertex
100
AcDb2dVertex
 10
615.253892
 20
335.182419
 30
0.0
  0
SEQEND
  5
435
100
AcDbEntity
  8
LAY-6
  6
CONTINUOUS
 62
     1
  0
LINE
  5
436
100
AcDbEntity
  8
LAY-6
  6
CONTINUOUS
 62
     1
100
AcDbLine
 10
638.568045
 20
323.082881
 30
0.0
 11
641.478461
 21
322.2
 31
0.0
  0
LINE
  5
437
100
AcDbEntity
  8
LAY-6
  6
CONTINUOUS
 62
     1
100
AcDbLine
 10
641.478461
 20
322.2
 30
0.0
 11
639.011705
 21
323.979077
 31
0.0
  0
TEXT
  5
438
100
AcDbEntity
  8
LAY-6
  6
CONTINUOUS
 62
     2
100
AcDbText
 10
608.971573
 20
334.371573
 30
0.0
 40
5.656854
  1
４
 41
0.84
  7
EXCADSTD
 72
     5
 11
613.497056
 21
334.371573
 31
0.0
100
AcDbText
  0
TEXT
  5
439
100
AcDbEntity
  8
LAY-6
  6
CONTINUOUS
 62
     2
100
AcDbText
 10
654.278461
 20
419.6
 30
0.0
 40
6.0
  1
ド　ア
 41
0.672
  7
EXCADSTD
 72
     5
 11
668.678461
 21
419.6
 31
0.0
100
AcDbText
  0
TEXT
  5
43A
100
AcDbEntity
  8
LAY-6
  6
CONTINUOUS
 62
     2
100
AcDbText
 10
368.9
 20
424.3
 30
0.0
 40
6.0
  1
上　枠
 41
0.672
  7
EXCADSTD
 72
     5
 11
383.300001
 21
424.3
 31
0.0
100
AcDbText
  0
TEXT
  5
43B
100
AcDbEntity
  8
LAY-6
  6
CONTINUOUS
 62
     2
100
AcDbText
 10
369.4
 20
404.8
 30
0.0
 40
6.0
  1
ド　ア
 41
0.672
  7
EXCADSTD
 72
     5
 11
383.800001
 21
404.8
 31
0.0
100
AcDbText
  0
TEXT
  5
43C
100
AcDbEntity
  8
LAY-6
  6
CONTINUOUS
 62
     2
100
AcDbText
 10
384.3
 20
323.3
 30
0.0
 40
6.0
  1
ド　ア
 41
0.672
  7
EXCADSTD
 72
     5
 11
398.700001
 21
323.3
 31
0.0
100
AcDbText
  0
TEXT
  5
43D
100
AcDbEntity
  8
LAY-6
  6
CONTINUOUS
 62
     2
100
AcDbText
 10
506.6
 20
240.4
 30
0.0
 40
6.0
  1
ド　ア
 41
0.672
  7
EXCADSTD
 72
     5
 11
521.000001
 21
240.4
 31
0.0
100
AcDbText
  0
TEXT
  5
43E
100
AcDbEntity
  8
LAY-6
  6
CONTINUOUS
 62
     2
100
AcDbText
 10
500.7
 20
134.1
 30
0.0
 40
6.0
  1
ド　ア
 41
0.672
  7
EXCADSTD
 72
     5
 11
515.100001
 21
134.1
 31
0.0
100
AcDbText
  0
TEXT
  5
43F
100
AcDbEntity
  8
LAY-6
  6
CONTINUOUS
 62
     2
100
AcDbText
 10
121.7
 20
167.0
 30
0.0
 40
6.0
  1
竪　枠
 41
0.8
  7
EXCADVERT
 72
     3
 11
121.7
 21
149.0
 31
0.0
100
AcDbText
  0
TEXT
  5
440
100
AcDbEntity
  8
LAY-6
  6
CONTINUOUS
 62
     2
100
AcDbText
 10
120.7
 20
409.2
 30
0.0
 40
6.0
  1
竪　枠
 41
0.8
  7
EXCADVERT
 72
     3
 11
120.7
 21
391.2
 31
0.0
100
AcDbText
  0
INSERT
  5
441
100
AcDbEntity
  8
LAY-6
  6
CONTINUOUS
 62
     0
100
AcDbBlockReference
  2
SYM-2
 10
80.0
 20
357.0
 30
0.0
  0
INSERT
  5
442
100
AcDbEntity
  8
LAY-6
  6
CONTINUOUS
 62
     0
100
AcDbBlockReference
  2
SYM-3
 10
79.0
 20
272.0
 30
0.0
  0
INSERT
  5
443
100
AcDbEntity
  8
LAY-6
  6
CONTINUOUS
 62
     0
100
AcDbBlockReference
  2
SYM-4
 10
599.0
 20
207.0
 30
0.0
  0
INSERT
  5
444
100
AcDbEntity
  8
LAY-6
  6
CONTINUOUS
 62
     0
100
AcDbBlockReference
  2
SYM-5
 10
81.0
 20
567.0
 30
0.0
  0
TEXT
  5
445
100
AcDbEntity
  8
LAY-6
  6
CONTINUOUS
 62
     2
100
AcDbText
 10
322.6
 20
567.7
 30
0.0
 40
5.0
  1
トッププレート　０.８ｔ
 41
0.654222
  7
EXCADSTD
 72
     5
 11
368.6
 21
567.7
 31
0.0
100
AcDbText
  0
POLYLINE
  5
446
100
AcDbEntity
  8
LAY-6
  6
CONTINUOUS
 62
     1
100
AcDb2dPolyline
 66
     1
 10
0.0
 20
0.0
 30
0.0
 70
   128
  0
VERTEX
  5
447
100
AcDbEntity
  8
LAY-6
  6
CONTINUOUS
 62
     1
100
AcDbVertex
100
AcDb2dVertex
 10
301.8
 20
546.727417
 30
0.0
  0
VERTEX
  5
448
100
AcDbEntity
  8
LAY-6
  6
CONTINUOUS
 62
     1
100
AcDbVertex
100
AcDb2dVertex
 10
322.7
 20
567.7
 30
0.0
  0
VERTEX
  5
449
100
AcDbEntity
  8
LAY-6
  6
CONTINUOUS
 62
     1
100
AcDbVertex
100
AcDb2dVertex
 10
368.8
 20
567.7
 30
0.0
  0
SEQEND
  5
44A
100
AcDbEntity
  8
LAY-6
  6
CONTINUOUS
 62
     1
  0
LINE
  5
44B
100
AcDbEntity
  8
LAY-6
  6
CONTINUOUS
 62
     1
100
AcDbLine
 10
303.563474
 20
549.205351
 30
0.0
 11
301.8
 21
546.727417
 31
0.0
  0
LINE
  5
44C
100
AcDbEntity
  8
LAY-6
  6
CONTINUOUS
 62
     1
100
AcDbLine
 10
301.8
 20
546.727417
 30
0.0
 11
304.271806
 21
548.499471
 31
0.0
  0
LINE
  5
44D
100
AcDbEntity
  8
LAY-6
  6
CONTINUOUS
 62
     1
100
AcDbLine
 10
641.478461
 20
305.551885
 30
0.0
 11
597.3
 21
305.551885
 31
0.0
  0
LINE
  5
44E
100
AcDbEntity
  8
LAY-6
  6
CONTINUOUS
 62
     1
100
AcDbLine
 10
639.478461
 20
327.551885
 30
0.0
 11
597.3
 21
327.551885
 31
0.0
  0
LINE
  5
44F
100
AcDbEntity
  8
LAY-6
  6
CONTINUOUS
 62
     1
100
AcDbLine
 10
598.8
 20
305.551885
 30
0.0
 11
598.8
 21
327.551885
 31
0.0
  0
LINE
  5
450
100
AcDbEntity
  8
LAY-6
  6
CONTINUOUS
 62
     1
100
AcDbLine
 10
598.3
 20
308.551885
 30
0.0
 11
598.8
 21
305.551885
 31
0.0
  0
LINE
  5
451
100
AcDbEntity
  8
LAY-6
  6
CONTINUOUS
 62
     1
100
AcDbLine
 10
598.8
 20
305.551885
 30
0.0
 11
599.3
 21
308.551885
 31
0.0
  0
LINE
  5
452
100
AcDbEntity
  8
LAY-6
  6
CONTINUOUS
 62
     1
100
AcDbLine
 10
599.3
 20
324.551885
 30
0.0
 11
598.8
 21
327.551885
 31
0.0
  0
LINE
  5
453
100
AcDbEntity
  8
LAY-6
  6
CONTINUOUS
 62
     1
100
AcDbLine
 10
598.8
 20
327.551885
 30
0.0
 11
598.3
 21
324.551885
 31
0.0
  0
TEXT
  5
454
100
AcDbEntity
  8
LAY-6
  6
CONTINUOUS
 62
     2
100
AcDbText
 10
598.3
 20
312.551885
 30
0.0
 40
5.0
  1
２２
 50
90.0
 41
0.672
  7
EXCADSTD
 72
     5
 11
598.3
 21
319.884685
 31
0.0
100
AcDbText
  0
LINE
  5
455
100
AcDbEntity
  8
LAY-6
  6
CONTINUOUS
 62
     1
100
AcDbLine
 10
639.478461
 20
329.051695
 30
0.0
 11
597.3
 21
329.051695
 31
0.0
  0
LINE
  5
456
100
AcDbEntity
  8
LAY-6
  6
CONTINUOUS
 62
     1
100
AcDbLine
 10
598.8
 20
322.551885
 30
0.0
 11
598.8
 21
334.051695
 31
0.0
  0
LINE
  5
457
100
AcDbEntity
  8
LAY-6
  6
CONTINUOUS
 62
     1
100
AcDbLine
 10
599.3
 20
324.551885
 30
0.0
 11
598.8
 21
327.551885
 31
0.0
  0
LINE
  5
458
100
AcDbEntity
  8
LAY-6
  6
CONTINUOUS
 62
     1
100
AcDbLine
 10
598.8
 20
327.551885
 30
0.0
 11
598.3
 21
324.551885
 31
0.0
  0
LINE
  5
459
100
AcDbEntity
  8
LAY-6
  6
CONTINUOUS
 62
     1
100
AcDbLine
 10
598.3
 20
332.051695
 30
0.0
 11
598.8
 21
329.051695
 31
0.0
  0
LINE
  5
45A
100
AcDbEntity
  8
LAY-6
  6
CONTINUOUS
 62
     1
100
AcDbLine
 10
598.8
 20
329.051695
 30
0.0
 11
599.3
 21
332.051695
 31
0.0
  0
TEXT
  5
45B
100
AcDbEntity
  8
LAY-6
  6
CONTINUOUS
 62
     2
100
AcDbText
 10
598.2
 20
332.50179
 30
0.0
 40
5.0
  1
１.５
 50
90.0
 41
0.595556
  7
EXCADSTD
 72
     5
 11
598.2
 21
342.50179
 31
0.0
100
AcDbText
  0
INSERT
  5
45C
100
AcDbEntity
  8
LAY-6
  6
CONTINUOUS
 62
     0
100
AcDbBlockReference
  2
SYM-1
 10
597.2
 20
330.2
 30
0.0
 50
90.0
  0
LINE
  5
45D
100
AcDbEntity
  8
LAY-6
  6
CONTINUOUS
 62
     1
100
AcDbLine
 10
598.8
 20
329.051695
 30
0.0
 11
598.8
 21
342.0
 31
0.0
  0
LINE
  5
45E
100
AcDbEntity
  8
LAY-6
  6
CONTINUOUS
 62
     1
100
AcDbLine
 10
674.4784
 20
333.552063
 30
0.0
 11
696.9
 21
333.552063
 31
0.0
  0
LINE
  5
45F
100
AcDbEntity
  8
LAY-6
  6
CONTINUOUS
 62
     1
100
AcDbLine
 10
696.9
 20
333.552063
 30
0.0
 11
711.8
 21
333.552063
 31
0.0
  0
LINE
  5
460
100
AcDbEntity
  8
LAY-6
  6
CONTINUOUS
 62
     1
100
AcDbLine
 10
698.4
 20
486.009811
 30
0.0
 11
711.8
 21
486.009811
 31
0.0
  0
TEXT
  5
461
100
AcDbEntity
  8
LAY-6
  6
CONTINUOUS
 62
     2
100
AcDbText
 10
709.8
 20
405.780937
 30
0.0
 40
5.0
  1
ＤＨ
 50
90.0
 41
0.672
  7
EXCADSTD
 72
     5
 11
709.8
 21
413.113737
 31
0.0
100
AcDbText
  0
LINE
  5
462
100
AcDbEntity
  8
LAY-6
  6
CONTINUOUS
 62
     1
100
AcDbLine
 10
710.3
 20
333.552063
 30
0.0
 11
710.3
 21
486.009811
 31
0.0
  0
LINE
  5
463
100
AcDbEntity
  8
LAY-6
  6
CONTINUOUS
 62
     1
100
AcDbLine
 10
709.8
 20
336.552063
 30
0.0
 11
710.3
 21
333.552063
 31
0.0
  0
LINE
  5
464
100
AcDbEntity
  8
LAY-6
  6
CONTINUOUS
 62
     1
100
AcDbLine
 10
710.3
 20
333.552063
 30
0.0
 11
710.8
 21
336.552063
 31
0.0
  0
LINE
  5
465
100
AcDbEntity
  8
LAY-6
  6
CONTINUOUS
 62
     1
100
AcDbLine
 10
710.8
 20
483.009811
 30
0.0
 11
710.3
 21
486.009811
 31
0.0
  0
LINE
  5
466
100
AcDbEntity
  8
LAY-6
  6
CONTINUOUS
 62
     1
100
AcDbLine
 10
710.3
 20
486.009811
 30
0.0
 11
709.8
 21
483.009811
 31
0.0
  0
LINE
  5
467
100
AcDbEntity
  8
LAY-6
  6
CONTINUOUS
 62
     1
100
AcDbLine
 10
710.3
 20
481.009811
 30
0.0
 11
710.3
 21
494.009814
 31
0.0
  0
LINE
  5
468
100
AcDbEntity
  8
LAY-6
  6
CONTINUOUS
 62
     1
100
AcDbLine
 10
710.8
 20
483.009811
 30
0.0
 11
710.3
 21
486.009811
 31
0.0
  0
LINE
  5
469
100
AcDbEntity
  8
LAY-6
  6
CONTINUOUS
 62
     1
100
AcDbLine
 10
710.3
 20
486.009811
 30
0.0
 11
709.8
 21
483.009811
 31
0.0
  0
LINE
  5
46A
100
AcDbEntity
  8
LAY-6
  6
CONTINUOUS
 62
     1
100
AcDbLine
 10
709.8
 20
492.009814
 30
0.0
 11
710.3
 21
489.009814
 31
0.0
  0
LINE
  5
46B
100
AcDbEntity
  8
LAY-6
  6
CONTINUOUS
 62
     1
100
AcDbLine
 10
710.3
 20
489.009814
 30
0.0
 11
710.8
 21
492.009814
 31
0.0
  0
TEXT
  5
46C
100
AcDbEntity
  8
LAY-6
  6
CONTINUOUS
 62
     2
100
AcDbText
 10
709.8
 20
485.509813
 30
0.0
 40
5.0
  1
３
 50
90.0
 41
0.672
  7
EXCADSTD
 72
     5
 11
709.8
 21
488.709813
 31
0.0
100
AcDbText
  0
TEXT
  5
46D
100
AcDbEntity
  8
LAY-6
  6
CONTINUOUS
 62
     2
100
AcDbText
 10
712.5
 20
510.1
 30
0.0
 40
6.0
  1
上　枠
 41
0.672
  7
EXCADSTD
 72
     5
 11
726.900001
 21
510.1
 31
0.0
100
AcDbText
  0
LINE
  5
46E
100
AcDbEntity
  8
LAY-6
  6
CONTINUOUS
 62
     1
100
AcDbLine
 10
470.7
 20
259.052094
 30
0.0
 11
489.2
 21
259.052094
 31
0.0
  0
LINE
  5
46F
100
AcDbEntity
  8
LAY-6
  6
CONTINUOUS
 62
     1
100
AcDbLine
 10
470.3
 20
229.052094
 30
0.0
 11
489.2
 21
229.052094
 31
0.0
  0
LINE
  5
470
100
AcDbEntity
  8
LAY-6
  6
CONTINUOUS
 62
     1
100
AcDbLine
 10
488.2
 20
259.052094
 30
0.0
 11
488.2
 21
229.052094
 31
0.0
  0
LINE
  5
471
100
AcDbEntity
  8
LAY-6
  6
CONTINUOUS
 62
     1
100
AcDbLine
 10
488.7
 20
256.052094
 30
0.0
 11
488.2
 21
259.052094
 31
0.0
  0
LINE
  5
472
100
AcDbEntity
  8
LAY-6
  6
CONTINUOUS
 62
     1
100
AcDbLine
 10
488.2
 20
259.052094
 30
0.0
 11
487.7
 21
256.052094
 31
0.0
  0
LINE
  5
473
100
AcDbEntity
  8
LAY-6
  6
CONTINUOUS
 62
     1
100
AcDbLine
 10
487.7
 20
232.052094
 30
0.0
 11
488.2
 21
229.052094
 31
0.0
  0
LINE
  5
474
100
AcDbEntity
  8
LAY-6
  6
CONTINUOUS
 62
     1
100
AcDbLine
 10
488.2
 20
229.052094
 30
0.0
 11
488.7
 21
232.052094
 31
0.0
  0
TEXT
  5
475
100
AcDbEntity
  8
LAY-6
  6
CONTINUOUS
 62
     2
100
AcDbText
 10
487.7
 20
240.052094
 30
0.0
 40
5.0
  1
３０
 50
90.0
 41
0.672
  7
EXCADSTD
 72
     5
 11
487.7
 21
247.384894
 31
0.0
100
AcDbText
  0
LINE
  5
476
100
AcDbEntity
  8
LAY-6
  6
CONTINUOUS
 62
     1
100
AcDbLine
 10
708.8
 20
333.552063
 30
0.0
 11
711.3
 21
333.552063
 31
0.0
  0
LINE
  5
477
100
AcDbEntity
  8
LAY-6
  6
CONTINUOUS
 62
     1
100
AcDbLine
 10
710.3
 20
337.552063
 30
0.0
 11
710.3
 21
323.552074
 31
0.0
  0
LINE
  5
478
100
AcDbEntity
  8
LAY-6
  6
CONTINUOUS
 62
     1
100
AcDbLine
 10
709.8
 20
336.552063
 30
0.0
 11
710.3
 21
333.552063
 31
0.0
  0
LINE
  5
479
100
AcDbEntity
  8
LAY-6
  6
CONTINUOUS
 62
     1
100
AcDbLine
 10
710.3
 20
333.552063
 30
0.0
 11
710.8
 21
336.552063
 31
0.0
  0
LINE
  5
47A
100
AcDbEntity
  8
LAY-6
  6
CONTINUOUS
 62
     1
100
AcDbLine
 10
710.8
 20
324.552074
 30
0.0
 11
710.3
 21
327.552074
 31
0.0
  0
LINE
  5
47B
100
AcDbEntity
  8
LAY-6
  6
CONTINUOUS
 62
     1
100
AcDbLine
 10
710.3
 20
327.552074
 30
0.0
 11
709.8
 21
324.552074
 31
0.0
  0
TEXT
  5
47C
100
AcDbEntity
  8
LAY-6
  6
CONTINUOUS
 62
     2
100
AcDbText
 10
709.8
 20
328.552069
 30
0.0
 40
5.0
  1
６
 50
90.0
 41
0.672
  7
EXCADSTD
 72
     5
 11
709.8
 21
331.752069
 31
0.0
100
AcDbText
  0
LINE
  5
47D
100
AcDbEntity
  8
LAY-6
  6
CONTINUOUS
 62
     1
100
AcDbLine
 10
695.4
 20
327.552074
 30
0.0
 11
711.3
 21
327.552074
 31
0.0
  0
LINE
  5
47E
100
AcDbEntity
  8
LAY-6
  6
CONTINUOUS
 62
     1
100
AcDbLine
 10
711.478461
 20
172.552078
 30
0.0
 11
738.5
 21
172.552078
 31
0.0
  0
LINE
  5
47F
100
AcDbEntity
  8
LAY-6
  6
CONTINUOUS
 62
     1
100
AcDbLine
 10
711.478461
 20
132.552078
 30
0.0
 11
738.5
 21
132.552078
 31
0.0
  0
LINE
  5
480
100
AcDbEntity
  8
LAY-6
  6
CONTINUOUS
 62
     1
100
AcDbLine
 10
737.5
 20
172.552078
 30
0.0
 11
737.5
 21
132.552078
 31
0.0
  0
LINE
  5
481
100
AcDbEntity
  8
LAY-6
  6
CONTINUOUS
 62
     1
100
AcDbLine
 10
738.0
 20
169.552078
 30
0.0
 11
737.5
 21
172.552078
 31
0.0
  0
LINE
  5
482
100
AcDbEntity
  8
LAY-6
  6
CONTINUOUS
 62
     1
100
AcDbLine
 10
737.5
 20
172.552078
 30
0.0
 11
737.0
 21
169.552078
 31
0.0
  0
LINE
  5
483
100
AcDbEntity
  8
LAY-6
  6
CONTINUOUS
 62
     1
100
AcDbLine
 10
737.0
 20
135.552078
 30
0.0
 11
737.5
 21
132.552078
 31
0.0
  0
LINE
  5
484
100
AcDbEntity
  8
LAY-6
  6
CONTINUOUS
 62
     1
100
AcDbLine
 10
737.5
 20
132.552078
 30
0.0
 11
738.0
 21
135.552078
 31
0.0
  0
TEXT
  5
485
100
AcDbEntity
  8
LAY-6
  6
CONTINUOUS
 62
     2
100
AcDbText
 10
737.0
 20
148.552078
 30
0.0
 40
5.0
  1
４０
 50
90.0
 41
0.672
  7
EXCADSTD
 72
     5
 11
737.0
 21
155.884878
 31
0.0
100
AcDbText
  0
LINE
  5
486
100
AcDbEntity
  8
LAY-6
  6
CONTINUOUS
 62
     1
100
AcDbLine
 10
716.478461
 20
164.552078
 30
0.0
 11
728.2
 21
164.552078
 31
0.0
  0
LINE
  5
487
100
AcDbEntity
  8
LAY-6
  6
CONTINUOUS
 62
     1
100
AcDbLine
 10
716.478461
 20
140.552078
 30
0.0
 11
728.2
 21
140.552078
 31
0.0
  0
LINE
  5
488
100
AcDbEntity
  8
LAY-6
  6
CONTINUOUS
 62
     1
100
AcDbLine
 10
727.2
 20
164.552078
 30
0.0
 11
727.2
 21
140.552078
 31
0.0
  0
LINE
  5
489
100
AcDbEntity
  8
LAY-6
  6
CONTINUOUS
 62
     1
100
AcDbLine
 10
727.7
 20
161.552078
 30
0.0
 11
727.2
 21
164.552078
 31
0.0
  0
LINE
  5
48A
100
AcDbEntity
  8
LAY-6
  6
CONTINUOUS
 62
     1
100
AcDbLine
 10
727.2
 20
164.552078
 30
0.0
 11
726.7
 21
161.552078
 31
0.0
  0
LINE
  5
48B
100
AcDbEntity
  8
LAY-6
  6
CONTINUOUS
 62
     1
100
AcDbLine
 10
726.7
 20
143.552078
 30
0.0
 11
727.2
 21
140.552078
 31
0.0
  0
LINE
  5
48C
100
AcDbEntity
  8
LAY-6
  6
CONTINUOUS
 62
     1
100
AcDbLine
 10
727.2
 20
140.552078
 30
0.0
 11
727.7
 21
143.552078
 31
0.0
  0
TEXT
  5
48D
100
AcDbEntity
  8
LAY-6
  6
CONTINUOUS
 62
     2
100
AcDbText
 10
726.7
 20
148.552078
 30
0.0
 40
5.0
  1
２４
 50
90.0
 41
0.672
  7
EXCADSTD
 72
     5
 11
726.7
 21
155.884878
 31
0.0
100
AcDbText
  0
LINE
  5
48E
100
AcDbEntity
  8
LAY-6
  6
CONTINUOUS
 62
     1
100
AcDbLine
 10
636.478461
 20
174.052078
 30
0.0
 11
622.0
 21
174.052078
 31
0.0
  0
LINE
  5
48F
100
AcDbEntity
  8
LAY-6
  6
CONTINUOUS
 62
     1
100
AcDbLine
 10
636.478461
 20
131.052078
 30
0.0
 11
622.0
 21
131.052078
 31
0.0
  0
LINE
  5
490
100
AcDbEntity
  8
LAY-6
  6
CONTINUOUS
 62
     1
100
AcDbLine
 10
623.0
 20
174.052078
 30
0.0
 11
623.0
 21
131.052078
 31
0.0
  0
LINE
  5
491
100
AcDbEntity
  8
LAY-6
  6
CONTINUOUS
 62
     1
100
AcDbLine
 10
623.5
 20
171.052078
 30
0.0
 11
623.0
 21
174.052078
 31
0.0
  0
LINE
  5
492
100
AcDbEntity
  8
LAY-6
  6
CONTINUOUS
 62
     1
100
AcDbLine
 10
623.0
 20
174.052078
 30
0.0
 11
622.5
 21
171.052078
 31
0.0
  0
LINE
  5
493
100
AcDbEntity
  8
LAY-6
  6
CONTINUOUS
 62
     1
100
AcDbLine
 10
622.5
 20
134.052078
 30
0.0
 11
623.0
 21
131.052078
 31
0.0
  0
LINE
  5
494
100
AcDbEntity
  8
LAY-6
  6
CONTINUOUS
 62
     1
100
AcDbLine
 10
623.0
 20
131.052078
 30
0.0
 11
623.5
 21
134.052078
 31
0.0
  0
TEXT
  5
495
100
AcDbEntity
  8
LAY-6
  6
CONTINUOUS
 62
     2
100
AcDbText
 10
622.5
 20
148.552078
 30
0.0
 40
5.0
  1
４３
 50
90.0
 41
0.672
  7
EXCADSTD
 72
     5
 11
622.5
 21
155.884878
 31
0.0
100
AcDbText
  0
TEXT
  5
496
100
AcDbEntity
  8
LAY-6
  6
CONTINUOUS
 62
     2
100
AcDbText
 10
647.478461
 20
120.9
 30
0.0
 40
5.0
  1
２０
 41
0.672
  7
EXCADSTD
 72
     5
 11
654.811261
 21
120.9
 31
0.0
100
AcDbText
  0
LINE
  5
497
100
AcDbEntity
  8
LAY-6
  6
CONTINUOUS
 62
     1
100
AcDbLine
 10
661.478461
 20
120.6
 30
0.0
 11
661.478461
 21
119.4
 31
0.0
  0
LINE
  5
498
100
AcDbEntity
  8
LAY-6
  6
CONTINUOUS
 62
     1
100
AcDbLine
 10
641.478461
 20
120.4
 30
0.0
 11
661.478461
 21
120.4
 31
0.0
  0
LINE
  5
499
100
AcDbEntity
  8
LAY-6
  6
CONTINUOUS
 62
     1
100
AcDbLine
 10
644.478461
 20
120.9
 30
0.0
 11
641.478461
 21
120.4
 31
0.0
  0
LINE
  5
49A
100
AcDbEntity
  8
LAY-6
  6
CONTINUOUS
 62
     1
100
AcDbLine
 10
641.478461
 20
120.4
 30
0.0
 11
644.478461
 21
119.9
 31
0.0
  0
LINE
  5
49B
100
AcDbEntity
  8
LAY-6
  6
CONTINUOUS
 62
     1
100
AcDbLine
 10
658.478461
 20
119.9
 30
0.0
 11
661.478461
 21
120.4
 31
0.0
  0
LINE
  5
49C
100
AcDbEntity
  8
LAY-6
  6
CONTINUOUS
 62
     1
100
AcDbLine
 10
661.478461
 20
120.4
 30
0.0
 11
658.478461
 21
120.9
 31
0.0
  0
LINE
  5
49D
100
AcDbEntity
  8
LAY-6
  6
CONTINUOUS
 62
     1
100
AcDbLine
 10
683.478461
 20
129.0
 30
0.0
 11
683.478461
 21
119.4
 31
0.0
  0
LINE
  5
49E
100
AcDbEntity
  8
LAY-6
  6
CONTINUOUS
 62
     1
100
AcDbLine
 10
661.478461
 20
120.4
 30
0.0
 11
683.478461
 21
120.4
 31
0.0
  0
LINE
  5
49F
100
AcDbEntity
  8
LAY-6
  6
CONTINUOUS
 62
     1
100
AcDbLine
 10
664.478461
 20
120.9
 30
0.0
 11
661.478461
 21
120.4
 31
0.0
  0
LINE
  5
4A0
100
AcDbEntity
  8
LAY-6
  6
CONTINUOUS
 62
     1
100
AcDbLine
 10
661.478461
 20
120.4
 30
0.0
 11
664.478461
 21
119.9
 31
0.0
  0
LINE
  5
4A1
100
AcDbEntity
  8
LAY-6
  6
CONTINUOUS
 62
     1
100
AcDbLine
 10
680.478461
 20
119.9
 30
0.0
 11
683.478461
 21
120.4
 31
0.0
  0
LINE
  5
4A2
100
AcDbEntity
  8
LAY-6
  6
CONTINUOUS
 62
     1
100
AcDbLine
 10
683.478461
 20
120.4
 30
0.0
 11
680.478461
 21
120.9
 31
0.0
  0
TEXT
  5
4A3
100
AcDbEntity
  8
LAY-6
  6
CONTINUOUS
 62
     2
100
AcDbText
 10
668.478461
 20
120.9
 30
0.0
 40
5.0
  1
２２
 41
0.672
  7
EXCADSTD
 72
     5
 11
675.811261
 21
120.9
 31
0.0
100
AcDbText
  0
LINE
  5
4A4
100
AcDbEntity
  8
LAY-6
  6
CONTINUOUS
 62
     1
100
AcDbLine
 10
703.478461
 20
129.0
 30
0.0
 11
703.478461
 21
119.4
 31
0.0
  0
LINE
  5
4A5
100
AcDbEntity
  8
LAY-6
  6
CONTINUOUS
 62
     1
100
AcDbLine
 10
683.478461
 20
120.4
 30
0.0
 11
703.478461
 21
120.4
 31
0.0
  0
LINE
  5
4A6
100
AcDbEntity
  8
LAY-6
  6
CONTINUOUS
 62
     1
100
AcDbLine
 10
686.478461
 20
120.9
 30
0.0
 11
683.478461
 21
120.4
 31
0.0
  0
LINE
  5
4A7
100
AcDbEntity
  8
LAY-6
  6
CONTINUOUS
 62
     1
100
AcDbLine
 10
683.478461
 20
120.4
 30
0.0
 11
686.478461
 21
119.9
 31
0.0
  0
LINE
  5
4A8
100
AcDbEntity
  8
LAY-6
  6
CONTINUOUS
 62
     1
100
AcDbLine
 10
700.478461
 20
119.9
 30
0.0
 11
703.478461
 21
120.4
 31
0.0
  0
LINE
  5
4A9
100
AcDbEntity
  8
LAY-6
  6
CONTINUOUS
 62
     1
100
AcDbLine
 10
703.478461
 20
120.4
 30
0.0
 11
700.478461
 21
120.9
 31
0.0
  0
TEXT
  5
4AA
100
AcDbEntity
  8
LAY-6
  6
CONTINUOUS
 62
     2
100
AcDbText
 10
689.478461
 20
120.9
 30
0.0
 40
5.0
  1
２０
 41
0.672
  7
EXCADSTD
 72
     5
 11
696.811261
 21
120.9
 31
0.0
100
AcDbText
  0
LINE
  5
4AB
100
AcDbEntity
  8
LAY-6
  6
CONTINUOUS
 62
     1
100
AcDbLine
 10
636.478461
 20
174.052078
 30
0.0
 11
636.478461
 21
184.5
 31
0.0
  0
LINE
  5
4AC
100
AcDbEntity
  8
LAY-6
  6
CONTINUOUS
 62
     1
100
AcDbLine
 10
661.478461
 20
183.9
 30
0.0
 11
661.478461
 21
182.5
 31
0.0
  0
LINE
  5
4AD
100
AcDbEntity
  8
LAY-6
  6
CONTINUOUS
 62
     1
100
AcDbLine
 10
636.478461
 20
183.5
 30
0.0
 11
661.478461
 21
183.5
 31
0.0
  0
LINE
  5
4AE
100
AcDbEntity
  8
LAY-6
  6
CONTINUOUS
 62
     1
100
AcDbLine
 10
639.478461
 20
184.0
 30
0.0
 11
636.478461
 21
183.5
 31
0.0
  0
LINE
  5
4AF
100
AcDbEntity
  8
LAY-6
  6
CONTINUOUS
 62
     1
100
AcDbLine
 10
636.478461
 20
183.5
 30
0.0
 11
639.478461
 21
183.0
 31
0.0
  0
LINE
  5
4B0
100
AcDbEntity
  8
LAY-6
  6
CONTINUOUS
 62
     1
100
AcDbLine
 10
658.478461
 20
183.0
 30
0.0
 11
661.478461
 21
183.5
 31
0.0
  0
LINE
  5
4B1
100
AcDbEntity
  8
LAY-6
  6
CONTINUOUS
 62
     1
100
AcDbLine
 10
661.478461
 20
183.5
 30
0.0
 11
658.478461
 21
184.0
 31
0.0
  0
TEXT
  5
4B2
100
AcDbEntity
  8
LAY-6
  6
CONTINUOUS
 62
     2
100
AcDbText
 10
644.978461
 20
184.0
 30
0.0
 40
5.0
  1
２５
 41
0.672
  7
EXCADSTD
 72
     5
 11
652.311261
 21
184.0
 31
0.0
100
AcDbText
  0
LINE
  5
4B3
100
AcDbEntity
  8
LAY-6
  6
CONTINUOUS
 62
     1
100
AcDbLine
 10
716.478461
 20
174.052078
 30
0.0
 11
716.478461
 21
184.5
 31
0.0
  0
LINE
  5
4B4
100
AcDbEntity
  8
LAY-6
  6
CONTINUOUS
 62
     1
100
AcDbLine
 10
661.478461
 20
183.5
 30
0.0
 11
716.478461
 21
183.5
 31
0.0
  0
LINE
  5
4B5
100
AcDbEntity
  8
LAY-6
  6
CONTINUOUS
 62
     1
100
AcDbLine
 10
664.478461
 20
184.0
 30
0.0
 11
661.478461
 21
183.5
 31
0.0
  0
LINE
  5
4B6
100
AcDbEntity
  8
LAY-6
  6
CONTINUOUS
 62
     1
100
AcDbLine
 10
661.478461
 20
183.5
 30
0.0
 11
664.478461
 21
183.0
 31
0.0
  0
LINE
  5
4B7
100
AcDbEntity
  8
LAY-6
  6
CONTINUOUS
 62
     1
100
AcDbLine
 10
713.478461
 20
183.0
 30
0.0
 11
716.478461
 21
183.5
 31
0.0
  0
LINE
  5
4B8
100
AcDbEntity
  8
LAY-6
  6
CONTINUOUS
 62
     1
100
AcDbLine
 10
716.478461
 20
183.5
 30
0.0
 11
713.478461
 21
184.0
 31
0.0
  0
TEXT
  5
4B9
100
AcDbEntity
  8
LAY-6
  6
CONTINUOUS
 62
     2
100
AcDbText
 10
684.978461
 20
184.0
 30
0.0
 40
5.0
  1
５５
 41
0.672
  7
EXCADSTD
 72
     5
 11
692.311261
 21
184.0
 31
0.0
100
AcDbText
  0
LINE
  5
4BA
100
AcDbEntity
  8
LAY-6
  6
CONTINUOUS
 62
     1
100
AcDbLine
 10
716.478461
 20
180.4
 30
0.0
 11
716.478461
 21
195.2
 31
0.0
  0
LINE
  5
4BB
100
AcDbEntity
  8
LAY-6
  6
CONTINUOUS
 62
     1
100
AcDbLine
 10
636.478461
 20
181.1
 30
0.0
 11
636.478461
 21
195.2
 31
0.0
  0
LINE
  5
4BC
100
AcDbEntity
  8
LAY-6
  6
CONTINUOUS
 62
     1
100
AcDbLine
 10
716.478461
 20
194.2
 30
0.0
 11
636.478461
 21
194.2
 31
0.0
  0
LINE
  5
4BD
100
AcDbEntity
  8
LAY-6
  6
CONTINUOUS
 62
     1
100
AcDbLine
 10
713.478461
 20
193.7
 30
0.0
 11
716.478461
 21
194.2
 31
0.0
  0
LINE
  5
4BE
100
AcDbEntity
  8
LAY-6
  6
CONTINUOUS
 62
     1
100
AcDbLine
 10
716.478461
 20
194.2
 30
0.0
 11
713.478461
 21
194.7
 31
0.0
  0
LINE
  5
4BF
100
AcDbEntity
  8
LAY-6
  6
CONTINUOUS
 62
     1
100
AcDbLine
 10
639.478461
 20
194.7
 30
0.0
 11
636.478461
 21
194.2
 31
0.0
  0
LINE
  5
4C0
100
AcDbEntity
  8
LAY-6
  6
CONTINUOUS
 62
     1
100
AcDbLine
 10
636.478461
 20
194.2
 30
0.0
 11
639.478461
 21
193.7
 31
0.0
  0
TEXT
  5
4C1
100
AcDbEntity
  8
LAY-6
  6
CONTINUOUS
 62
     2
100
AcDbText
 10
672.478461
 20
194.7
 30
0.0
 40
5.0
  1
８０
 41
0.672
  7
EXCADSTD
 72
     5
 11
679.811261
 21
194.7
 31
0.0
100
AcDbText
  0
TEXT
  5
4C2
100
AcDbEntity
  8
LAY-6
  6
CONTINUOUS
 62
     2
100
AcDbText
 10
732.149849
 20
109.69784
 30
0.0
 40
5.0
  1
４－Ｍ６×２５皿小ネジ
 41
0.672
  7
EXCADSTD
 72
     5
 11
776.149849
 21
109.69784
 31
0.0
100
AcDbText
  0
POLYLINE
  5
4C3
100
AcDbEntity
  8
LAY-6
  6
CONTINUOUS
 62
     1
100
AcDb2dPolyline
 66
     1
 10
0.0
 20
0.0
 30
0.0
 70
   128
  0
VERTEX
  5
4C4
100
AcDbEntity
  8
LAY-6
  6
CONTINUOUS
 62
     1
100
AcDbVertex
100
AcDb2dVertex
 10
708.216803
 20
137.294685
 30
0.0
  0
VERTEX
  5
4C5
100
AcDbEntity
  8
LAY-6
  6
CONTINUOUS
 62
     1
100
AcDbVertex
100
AcDb2dVertex
 10
732.149849
 20
109.69784
 30
0.0
  0
VERTEX
  5
4C6
100
AcDbEntity
  8
LAY-6
  6
CONTINUOUS
 62
     1
100
AcDbVertex
100
AcDb2dVertex
 10
777.3
 20
109.69784
 30
0.0
  0
SEQEND
  5
4C7
100
AcDbEntity
  8
LAY-6
  6
CONTINUOUS
 62
     1
  0
LINE
  5
4C8
100
AcDbEntity
  8
LAY-6
  6
CONTINUOUS
 62
     1
100
AcDbLine
 10
710.560073
 20
135.355848
 30
0.0
 11
708.216803
 21
137.294685
 31
0.0
  0
LINE
  5
4C9
100
AcDbEntity
  8
LAY-6
  6
CONTINUOUS
 62
     1
100
AcDbLine
 10
708.216803
 20
137.294685
 30
0.0
 11
709.804597
 21
134.70067
 31
0.0
  0
LINE
  5
4CA
100
AcDbEntity
  8
LAY-6
  6
CONTINUOUS
 62
     1
100
AcDbLine
 10
291.0
 20
99.552063
 30
0.0
 11
291.0
 21
121.552063
 31
0.0
  0
LINE
  5
4CB
100
AcDbEntity
  8
LAY-6
  6
CONTINUOUS
 62
     1
100
AcDbLine
 10
290.5
 20
102.552063
 30
0.0
 11
291.0
 21
99.552063
 31
0.0
  0
LINE
  5
4CC
100
AcDbEntity
  8
LAY-6
  6
CONTINUOUS
 62
     1
100
AcDbLine
 10
291.0
 20
99.552063
 30
0.0
 11
291.5
 21
102.552063
 31
0.0
  0
LINE
  5
4CD
100
AcDbEntity
  8
LAY-6
  6
CONTINUOUS
 62
     1
100
AcDbLine
 10
291.5
 20
118.552063
 30
0.0
 11
291.0
 21
121.552063
 31
0.0
  0
LINE
  5
4CE
100
AcDbEntity
  8
LAY-6
  6
CONTINUOUS
 62
     1
100
AcDbLine
 10
291.0
 20
121.552063
 30
0.0
 11
290.5
 21
118.552063
 31
0.0
  0
TEXT
  5
4CF
100
AcDbEntity
  8
LAY-6
  6
CONTINUOUS
 62
     2
100
AcDbText
 10
290.5
 20
106.552063
 30
0.0
 40
5.0
  1
２２
 50
90.0
 41
0.672
  7
EXCADSTD
 72
     5
 11
290.5
 21
113.884863
 31
0.0
100
AcDbText
  0
LINE
  5
4D0
100
AcDbEntity
  8
LAY-6
  6
CONTINUOUS
 62
     1
100
AcDbLine
 10
244.721344
 20
99.552063
 30
0.0
 11
292.0
 21
99.552063
 31
0.0
  0
LINE
  5
4D1
100
AcDbEntity
  8
LAY-6
  6
CONTINUOUS
 62
     1
100
AcDbLine
 10
258.3
 20
121.552063
 30
0.0
 11
292.0
 21
121.552063
 31
0.0
  0
LINE
  5
4D2
100
AcDbEntity
  8
LAY-6
  6
CONTINUOUS
 62
     1
100
AcDbLine
 10
284.1
 20
127.552002
 30
0.0
 11
279.7
 21
127.552002
 31
0.0
  0
LINE
  5
4D3
100
AcDbEntity
  8
LAY-6
  6
CONTINUOUS
 62
     1
100
AcDbLine
 10
280.7
 20
127.552002
 30
0.0
 11
280.7
 21
134.552063
 31
0.0
  0
LINE
  5
4D4
100
AcDbEntity
  8
LAY-6
  6
CONTINUOUS
 62
     1
100
AcDbLine
 10
280.2
 20
130.552002
 30
0.0
 11
280.7
 21
127.552002
 31
0.0
  0
LINE
  5
4D5
100
AcDbEntity
  8
LAY-6
  6
CONTINUOUS
 62
     1
100
AcDbLine
 10
280.7
 20
127.552002
 30
0.0
 11
281.2
 21
130.552002
 31
0.0
  0
LINE
  5
4D6
100
AcDbEntity
  8
LAY-6
  6
CONTINUOUS
 62
     1
100
AcDbLine
 10
281.2
 20
131.552063
 30
0.0
 11
280.7
 21
134.552063
 31
0.0
  0
LINE
  5
4D7
100
AcDbEntity
  8
LAY-6
  6
CONTINUOUS
 62
     1
100
AcDbLine
 10
280.7
 20
134.552063
 30
0.0
 11
280.2
 21
131.552063
 31
0.0
  0
TEXT
  5
4D8
100
AcDbEntity
  8
LAY-6
  6
CONTINUOUS
 62
     2
100
AcDbText
 10
280.2
 20
129.052033
 30
0.0
 40
5.0
  1
７
 50
90.0
 41
0.672
  7
EXCADSTD
 72
     5
 11
280.2
 21
132.252032
 31
0.0
100
AcDbText
  0
LINE
  5
4D9
100
AcDbEntity
  8
LAY-6
  6
CONTINUOUS
 62
     1
100
AcDbLine
 10
284.6
 20
147.552002
 30
0.0
 11
279.7
 21
147.552002
 31
0.0
  0
LINE
  5
4DA
100
AcDbEntity
  8
LAY-6
  6
CONTINUOUS
 62
     1
100
AcDbLine
 10
280.7
 20
134.552063
 30
0.0
 11
280.7
 21
147.552002
 31
0.0
  0
LINE
  5
4DB
100
AcDbEntity
  8
LAY-6
  6
CONTINUOUS
 62
     1
100
AcDbLine
 10
280.2
 20
137.552063
 30
0.0
 11
280.7
 21
134.552063
 31
0.0
  0
LINE
  5
4DC
100
AcDbEntity
  8
LAY-6
  6
CONTINUOUS
 62
     1
100
AcDbLine
 10
280.7
 20
134.552063
 30
0.0
 11
281.2
 21
137.552063
 31
0.0
  0
LINE
  5
4DD
100
AcDbEntity
  8
LAY-6
  6
CONTINUOUS
 62
     1
100
AcDbLine
 10
281.2
 20
144.552002
 30
0.0
 11
280.7
 21
147.552002
 31
0.0
  0
LINE
  5
4DE
100
AcDbEntity
  8
LAY-6
  6
CONTINUOUS
 62
     1
100
AcDbLine
 10
280.7
 20
147.552002
 30
0.0
 11
280.2
 21
144.552002
 31
0.0
  0
TEXT
  5
4DF
100
AcDbEntity
  8
LAY-6
  6
CONTINUOUS
 62
     2
100
AcDbText
 10
280.2
 20
137.052032
 30
0.0
 40
5.0
  1
１３
 50
90.0
 41
0.672
  7
EXCADSTD
 72
     5
 11
280.2
 21
144.384832
 31
0.0
100
AcDbText
  0
TEXT
  5
4E0
100
AcDbEntity
  8
LAY-6
  6
CONTINUOUS
 62
     2
100
AcDbText
 10
290.5
 20
122.552032
 30
0.0
 40
5.0
  1
６
 50
90.0
 41
0.672
  7
EXCADSTD
 72
     5
 11
290.5
 21
125.752032
 31
0.0
100
AcDbText
  0
LINE
  5
4E1
100
AcDbEntity
  8
LAY-6
  6
CONTINUOUS
 62
     1
100
AcDbLine
 10
291.0
 20
127.552002
 30
0.0
 11
291.0
 21
121.552063
 31
0.0
  0
LINE
  5
4E2
100
AcDbEntity
  8
LAY-6
  6
CONTINUOUS
 62
     1
100
AcDbLine
 10
291.5
 20
124.552002
 30
0.0
 11
291.0
 21
127.552002
 31
0.0
  0
LINE
  5
4E3
100
AcDbEntity
  8
LAY-6
  6
CONTINUOUS
 62
     1
100
AcDbLine
 10
291.0
 20
127.552002
 30
0.0
 11
290.5
 21
124.552002
 31
0.0
  0
LINE
  5
4E4
100
AcDbEntity
  8
LAY-6
  6
CONTINUOUS
 62
     1
100
AcDbLine
 10
290.5
 20
124.552063
 30
0.0
 11
291.0
 21
121.552063
 31
0.0
  0
LINE
  5
4E5
100
AcDbEntity
  8
LAY-6
  6
CONTINUOUS
 62
     1
100
AcDbLine
 10
291.0
 20
121.552063
 30
0.0
 11
291.5
 21
124.552063
 31
0.0
  0
LINE
  5
4E6
100
AcDbEntity
  8
LAY-6
  6
CONTINUOUS
 62
     1
100
AcDbLine
 10
289.9
 20
127.552002
 30
0.0
 11
292.0
 21
127.552002
 31
0.0
  0
LINE
  5
4E7
100
AcDbEntity
  8
LAY-6
  6
CONTINUOUS
 62
     1
100
AcDbLine
 10
291.7
 20
147.552063
 30
0.0
 11
290.0
 21
147.552063
 31
0.0
  0
LINE
  5
4E8
100
AcDbEntity
  8
LAY-6
  6
CONTINUOUS
 62
     1
100
AcDbLine
 10
291.0
 20
127.552002
 30
0.0
 11
291.0
 21
147.552063
 31
0.0
  0
LINE
  5
4E9
100
AcDbEntity
  8
LAY-6
  6
CONTINUOUS
 62
     1
100
AcDbLine
 10
290.5
 20
130.552002
 30
0.0
 11
291.0
 21
127.552002
 31
0.0
  0
LINE
  5
4EA
100
AcDbEntity
  8
LAY-6
  6
CONTINUOUS
 62
     1
100
AcDbLine
 10
291.0
 20
127.552002
 30
0.0
 11
291.5
 21
130.552002
 31
0.0
  0
LINE
  5
4EB
100
AcDbEntity
  8
LAY-6
  6
CONTINUOUS
 62
     1
100
AcDbLine
 10
291.5
 20
144.552063
 30
0.0
 11
291.0
 21
147.552063
 31
0.0
  0
LINE
  5
4EC
100
AcDbEntity
  8
LAY-6
  6
CONTINUOUS
 62
     1
100
AcDbLine
 10
291.0
 20
147.552063
 30
0.0
 11
290.5
 21
144.552063
 31
0.0
  0
TEXT
  5
4ED
100
AcDbEntity
  8
LAY-6
  6
CONTINUOUS
 62
     2
100
AcDbText
 10
290.5
 20
135.552033
 30
0.0
 40
5.0
  1
２０
 50
90.0
 41
0.672
  7
EXCADSTD
 72
     5
 11
290.5
 21
142.884832
 31
0.0
100
AcDbText
  0
LINE
  5
4EE
100
AcDbEntity
  8
LAY-6
  6
CONTINUOUS
 62
     1
100
AcDbLine
 10
266.721329
 20
214.0
 30
0.0
 11
266.721329
 21
211.3
 31
0.0
  0
LINE
  5
4EF
100
AcDbEntity
  8
LAY-6
  6
CONTINUOUS
 62
     1
100
AcDbLine
 10
344.721329
 20
232.4
 30
0.0
 11
344.721329
 21
211.3
 31
0.0
  0
LINE
  5
4F0
100
AcDbEntity
  8
LAY-6
  6
CONTINUOUS
 62
     1
100
AcDbLine
 10
266.721329
 20
212.3
 30
0.0
 11
344.721329
 21
212.3
 31
0.0
  0
LINE
  5
4F1
100
AcDbEntity
  8
LAY-6
  6
CONTINUOUS
 62
     1
100
AcDbLine
 10
269.721329
 20
212.8
 30
0.0
 11
266.721329
 21
212.3
 31
0.0
  0
LINE
  5
4F2
100
AcDbEntity
  8
LAY-6
  6
CONTINUOUS
 62
     1
100
AcDbLine
 10
266.721329
 20
212.3
 30
0.0
 11
269.721329
 21
211.8
 31
0.0
  0
LINE
  5
4F3
100
AcDbEntity
  8
LAY-6
  6
CONTINUOUS
 62
     1
100
AcDbLine
 10
341.721329
 20
211.8
 30
0.0
 11
344.721329
 21
212.3
 31
0.0
  0
LINE
  5
4F4
100
AcDbEntity
  8
LAY-6
  6
CONTINUOUS
 62
     1
100
AcDbLine
 10
344.721329
 20
212.3
 30
0.0
 11
341.721329
 21
212.8
 31
0.0
  0
TEXT
  5
4F5
100
AcDbEntity
  8
LAY-6
  6
CONTINUOUS
 62
     2
100
AcDbText
 10
301.721329
 20
212.8
 30
0.0
 40
5.0
  1
７８
 41
0.672
  7
EXCADSTD
 72
     5
 11
309.054129
 21
212.8
 31
0.0
100
AcDbText
  0
LINE
  5
4F6
100
AcDbEntity
  8
LAY-6
  6
CONTINUOUS
 62
     1
100
AcDbLine
 10
422.721344
 20
215.0
 30
0.0
 11
422.721344
 21
211.3
 31
0.0
  0
LINE
  5
4F7
100
AcDbEntity
  8
LAY-6
  6
CONTINUOUS
 62
     1
100
AcDbLine
 10
344.721329
 20
212.3
 30
0.0
 11
422.721344
 21
212.3
 31
0.0
  0
LINE
  5
4F8
100
AcDbEntity
  8
LAY-6
  6
CONTINUOUS
 62
     1
100
AcDbLine
 10
347.721329
 20
212.8
 30
0.0
 11
344.721329
 21
212.3
 31
0.0
  0
LINE
  5
4F9
100
AcDbEntity
  8
LAY-6
  6
CONTINUOUS
 62
     1
100
AcDbLine
 10
344.721329
 20
212.3
 30
0.0
 11
347.721329
 21
211.8
 31
0.0
  0
LINE
  5
4FA
100
AcDbEntity
  8
LAY-6
  6
CONTINUOUS
 62
     1
100
AcDbLine
 10
419.721344
 20
211.8
 30
0.0
 11
422.721344
 21
212.3
 31
0.0
  0
LINE
  5
4FB
100
AcDbEntity
  8
LAY-6
  6
CONTINUOUS
 62
     1
100
AcDbLine
 10
422.721344
 20
212.3
 30
0.0
 11
419.721344
 21
212.8
 31
0.0
  0
TEXT
  5
4FC
100
AcDbEntity
  8
LAY-6
  6
CONTINUOUS
 62
     2
100
AcDbText
 10
379.721337
 20
212.8
 30
0.0
 40
5.0
  1
７８
 41
0.672
  7
EXCADSTD
 72
     5
 11
387.054137
 21
212.8
 31
0.0
100
AcDbText
  0
LINE
  5
4FD
100
AcDbEntity
  8
LAY-6
  6
CONTINUOUS
 62
     1
100
AcDbLine
 10
681.478461
 20
305.551885
 30
0.0
 11
696.4
 21
305.551885
 31
0.0
  0
LINE
  5
4FE
100
AcDbEntity
  8
LAY-6
  6
CONTINUOUS
 62
     1
100
AcDbLine
 10
695.4
 20
327.552074
 30
0.0
 11
695.4
 21
305.551885
 31
0.0
  0
LINE
  5
4FF
100
AcDbEntity
  8
LAY-6
  6
CONTINUOUS
 62
     1
100
AcDbLine
 10
695.9
 20
324.552074
 30
0.0
 11
695.4
 21
327.552074
 31
0.0
  0
LINE
  5
500
100
AcDbEntity
  8
LAY-6
  6
CONTINUOUS
 62
     1
100
AcDbLine
 10
695.4
 20
327.552074
 30
0.0
 11
694.9
 21
324.552074
 31
0.0
  0
LINE
  5
501
100
AcDbEntity
  8
LAY-6
  6
CONTINUOUS
 62
     1
100
AcDbLine
 10
694.9
 20
308.551885
 30
0.0
 11
695.4
 21
305.551885
 31
0.0
  0
LINE
  5
502
100
AcDbEntity
  8
LAY-6
  6
CONTINUOUS
 62
     1
100
AcDbLine
 10
695.4
 20
305.551885
 30
0.0
 11
695.9
 21
308.551885
 31
0.0
  0
TEXT
  5
503
100
AcDbEntity
  8
LAY-6
  6
CONTINUOUS
 62
     2
100
AcDbText
 10
694.9
 20
312.55198
 30
0.0
 40
5.0
  1
２２
 50
90.0
 41
0.672
  7
EXCADSTD
 72
     5
 11
694.9
 21
319.88478
 31
0.0
100
AcDbText
  0
LINE
  5
504
100
AcDbEntity
  8
LAY-6
  6
CONTINUOUS
 62
     1
100
AcDbLine
 10
695.7
 20
327.552074
 30
0.0
 11
683.478461
 21
327.552074
 31
0.0
  0
INSERT
  5
505
100
AcDbEntity
  8
LAY-6
  6
CONTINUOUS
 62
     0
100
AcDbBlockReference
  2
SYM-1
 10
621.9
 20
146.9
 30
0.0
 50
90.0
  0
INSERT
  5
506
100
AcDbEntity
  8
LAY-6
  6
CONTINUOUS
 62
     0
100
AcDbBlockReference
  2
SYM-1
 10
671.3
 20
195.6
 30
0.0
  0
INSERT
  5
507
100
AcDbEntity
  8
LAY-6
  6
CONTINUOUS
 62
     0
100
AcDbBlockReference
  2
SYM-1
 10
757.4
 20
195.8
 30
0.0
  0
LINE
  5
508
100
AcDbEntity
  8
LAY-6
  6
CONTINUOUS
 62
     1
100
AcDbLine
 10
390.0
 20
416.809814
 30
0.0
 11
329.721344
 21
416.809814
 31
0.0
  0
LINE
  5
509
100
AcDbEntity
  8
LAY-6
  6
CONTINUOUS
 62
     1
100
AcDbLine
 10
359.6
 20
416.809814
 30
0.0
 11
344.0
 21
416.809814
 31
0.0
  0
LINE
  5
50A
100
AcDbEntity
  8
LAY-6
  6
CONTINUOUS
 62
     1
100
AcDbLine
 10
391.0
 20
419.809814
 30
0.0
 11
335.7
 21
419.809814
 31
0.0
  0
LINE
  5
50B
100
AcDbEntity
  8
LAY-6
  6
CONTINUOUS
 62
     1
100
AcDbLine
 10
359.6
 20
419.809814
 30
0.0
 11
344.0
 21
419.809814
 31
0.0
  0
LINE
  5
50C
100
AcDbEntity
  8
LAY-6
  6
CONTINUOUS
 62
     1
100
AcDbLine
 10
677.478339
 20
486.009811
 30
0.0
 11
698.4
 21
486.009811
 31
0.0
  0
LINE
  5
50D
100
AcDbEntity
  8
LAY-6
  6
CONTINUOUS
 62
     1
100
AcDbLine
 10
645.478339
 20
479.509811
 30
0.0
 11
645.478339
 21
455.2
 31
0.0
  0
LINE
  5
50E
100
AcDbEntity
  8
LAY-6
  6
CONTINUOUS
 62
     1
100
AcDbLine
 10
677.478339
 20
479.509781
 30
0.0
 11
677.478339
 21
455.2
 31
0.0
  0
TEXT
  5
50F
100
AcDbEntity
  8
LAY-6
  6
CONTINUOUS
 62
     2
100
AcDbText
 10
657.478339
 20
456.7
 30
0.0
 40
5.0
  1
３２
 41
0.672
  7
EXCADSTD
 72
     5
 11
664.811139
 21
456.7
 31
0.0
100
AcDbText
  0
LINE
  5
510
100
AcDbEntity
  8
LAY-6
  6
CONTINUOUS
 62
     1
100
AcDbLine
 10
645.478339
 20
456.2
 30
0.0
 11
677.478339
 21
456.2
 31
0.0
  0
LINE
  5
511
100
AcDbEntity
  8
LAY-6
  6
CONTINUOUS
 62
     1
100
AcDbLine
 10
647.478339
 20
456.533333
 30
0.0
 11
645.478339
 21
456.2
 31
0.0
  0
LINE
  5
512
100
AcDbEntity
  8
LAY-6
  6
CONTINUOUS
 62
     1
100
AcDbLine
 10
645.478339
 20
456.2
 30
0.0
 11
647.478339
 21
455.866667
 31
0.0
  0
LINE
  5
513
100
AcDbEntity
  8
LAY-6
  6
CONTINUOUS
 62
     1
100
AcDbLine
 10
675.478339
 20
455.866667
 30
0.0
 11
677.478339
 21
456.2
 31
0.0
  0
LINE
  5
514
100
AcDbEntity
  8
LAY-6
  6
CONTINUOUS
 62
     1
100
AcDbLine
 10
677.478339
 20
456.2
 30
0.0
 11
675.478339
 21
456.533333
 31
0.0
  0
LINE
  5
515
100
AcDbEntity
  8
LAY-6
  6
CONTINUOUS
 62
     1
100
AcDbLine
 10
316.721344
 20
512.227448
 30
0.0
 11
316.721344
 21
497.1
 31
0.0
  0
POLYLINE
  5
516
100
AcDbEntity
  8
LAY-6
  6
CONTINUOUS
 62
     1
100
AcDb2dPolyline
 66
     1
 10
0.0
 20
0.0
 30
0.0
 70
   128
  0
VERTEX
  5
517
100
AcDbEntity
  8
LAY-6
  6
CONTINUOUS
 62
     1
100
AcDbVertex
100
AcDb2dVertex
 10
325.658721
 20
430.649812
 30
0.0
  0
VERTEX
  5
518
100
AcDbEntity
  8
LAY-6
  6
CONTINUOUS
 62
     1
100
AcDbVertex
100
AcDb2dVertex
 10
354.928898
 20
455.01516
 30
0.0
  0
VERTEX
  5
519
100
AcDbEntity
  8
LAY-6
  6
CONTINUOUS
 62
     1
100
AcDbVertex
100
AcDb2dVertex
 10
402.728898
 20
455.01516
 30
0.0
  0
SEQEND
  5
51A
100
AcDbEntity
  8
LAY-6
  6
CONTINUOUS
 62
     1
  0
LINE
  5
51B
100
AcDbEntity
  8
LAY-6
  6
CONTINUOUS
 62
     1
100
AcDbLine
 10
327.644523
 20
432.953416
 30
0.0
 11
325.658721
 21
430.649812
 31
0.0
  0
LINE
  5
51C
100
AcDbEntity
  8
LAY-6
  6
CONTINUOUS
 62
     1
100
AcDbLine
 10
325.658721
 20
430.649812
 30
0.0
 11
328.284297
 21
432.184853
 31
0.0
  0
TEXT
  5
51D
100
AcDbEntity
  8
LAY-6
  6
CONTINUOUS
 62
     2
100
AcDbText
 10
356.728898
 20
455.01516
 30
0.0
 40
5.0
  1
裏板４.５ｔ以上（別途）
 41
0.654222
  7
EXCADSTD
 72
     5
 11
402.728898
 21
455.01516
 31
0.0
100
AcDbText
  0
POLYLINE
  5
51E
100
AcDbEntity
  8
LAY-6
  6
CONTINUOUS
 62
     1
100
AcDb2dPolyline
 66
     1
 10
0.0
 20
0.0
 30
0.0
 70
   128
  0
VERTEX
  5
51F
100
AcDbEntity
  8
LAY-6
  6
CONTINUOUS
 62
     1
100
AcDbVertex
100
AcDb2dVertex
 10
278.6
 20
406.309814
 30
0.0
  0
VERTEX
  5
520
100
AcDbEntity
  8
LAY-6
  6
CONTINUOUS
 62
     1
100
AcDbVertex
100
AcDb2dVertex
 10
319.0
 20
366.4
 30
0.0
  0
VERTEX
  5
521
100
AcDbEntity
  8
LAY-6
  6
CONTINUOUS
 62
     1
100
AcDbVertex
100
AcDb2dVertex
 10
367.0
 20
366.4
 30
0.0
  0
SEQEND
  5
522
100
AcDbEntity
  8
LAY-6
  6
CONTINUOUS
 62
     1
  0
LINE
  5
523
100
AcDbEntity
  8
LAY-6
  6
CONTINUOUS
 62
     1
100
AcDbLine
 10
281.085617
 20
404.557186
 30
0.0
 11
278.6
 21
406.309814
 31
0.0
  0
LINE
  5
524
100
AcDbEntity
  8
LAY-6
  6
CONTINUOUS
 62
     1
100
AcDbLine
 10
278.6
 20
406.309814
 30
0.0
 11
280.38284
 21
403.845776
 31
0.0
  0
TEXT
  5
525
100
AcDbEntity
  8
LAY-6
  6
CONTINUOUS
 62
     2
100
AcDbText
 10
321.0
 20
366.4
 30
0.0
 40
5.0
  1
裏板４.５ｔ以上（別途）
 41
0.654222
  7
EXCADSTD
 72
     5
 11
367.0
 21
366.4
 31
0.0
100
AcDbText
  0
TEXT
  5
526
100
AcDbEntity
  8
LAY-6
  6
CONTINUOUS
 62
     2
100
AcDbText
 10
205.721344
 20
85.2
 30
0.0
 40
5.0
  1
７０
 41
0.672
  7
EXCADSTD
 72
     5
 11
213.054144
 21
85.2
 31
0.0
100
AcDbText
  0
LINE
  5
527
100
AcDbEntity
  8
LAY-6
  6
CONTINUOUS
 62
     1
100
AcDbLine
 10
174.721344
 20
99.052063
 30
0.0
 11
174.721344
 21
83.7
 31
0.0
  0
LINE
  5
528
100
AcDbEntity
  8
LAY-6
  6
CONTINUOUS
 62
     1
100
AcDbLine
 10
244.721344
 20
99.052063
 30
0.0
 11
244.721344
 21
83.7
 31
0.0
  0
LINE
  5
529
100
AcDbEntity
  8
LAY-6
  6
CONTINUOUS
 62
     1
100
AcDbLine
 10
174.721344
 20
84.7
 30
0.0
 11
244.721344
 21
84.7
 31
0.0
  0
LINE
  5
52A
100
AcDbEntity
  8
LAY-6
  6
CONTINUOUS
 62
     1
100
AcDbLine
 10
177.721344
 20
85.2
 30
0.0
 11
174.721344
 21
84.7
 31
0.0
  0
LINE
  5
52B
100
AcDbEntity
  8
LAY-6
  6
CONTINUOUS
 62
     1
100
AcDbLine
 10
174.721344
 20
84.7
 30
0.0
 11
177.721344
 21
84.2
 31
0.0
  0
LINE
  5
52C
100
AcDbEntity
  8
LAY-6
  6
CONTINUOUS
 62
     1
100
AcDbLine
 10
241.721344
 20
84.2
 30
0.0
 11
244.721344
 21
84.7
 31
0.0
  0
LINE
  5
52D
100
AcDbEntity
  8
LAY-6
  6
CONTINUOUS
 62
     1
100
AcDbLine
 10
244.721344
 20
84.7
 30
0.0
 11
241.721344
 21
85.2
 31
0.0
  0
POLYLINE
  5
52E
100
AcDbEntity
  8
LAY-6
  6
CONTINUOUS
 62
     1
100
AcDb2dPolyline
 66
     1
 10
0.0
 20
0.0
 30
0.0
 70
   128
  0
VERTEX
  5
52F
100
AcDbEntity
  8
LAY-6
  6
CONTINUOUS
 62
     1
100
AcDbVertex
100
AcDb2dVertex
 10
292.3
 20
152.652063
 30
0.0
  0
VERTEX
  5
530
100
AcDbEntity
  8
LAY-6
  6
CONTINUOUS
 62
     1
100
AcDbVertex
100
AcDb2dVertex
 10
303.278656
 20
168.2
 30
0.0
  0
VERTEX
  5
531
100
AcDbEntity
  8
LAY-6
  6
CONTINUOUS
 62
     1
100
AcDbVertex
100
AcDb2dVertex
 10
350.878656
 20
168.2
 30
0.0
  0
SEQEND
  5
532
100
AcDbEntity
  8
LAY-6
  6
CONTINUOUS
 62
     1
  0
LINE
  5
533
100
AcDbEntity
  8
LAY-6
  6
CONTINUOUS
 62
     1
100
AcDbLine
 10
293.621994
 20
155.391102
 30
0.0
 11
292.3
 21
152.652063
 31
0.0
  0
LINE
  5
534
100
AcDbEntity
  8
LAY-6
  6
CONTINUOUS
 62
     1
100
AcDbLine
 10
292.3
 20
152.652063
 30
0.0
 11
294.438872
 21
154.814291
 31
0.0
  0
TEXT
  5
535
100
AcDbEntity
  8
LAY-6
  6
CONTINUOUS
 62
     2
100
AcDbText
 10
304.878656
 20
168.2
 30
0.0
 40
5.0
  1
裏板４.５ｔ以上（別途）
 41
0.654222
  7
EXCADSTD
 72
     5
 11
350.878656
 21
168.2
 31
0.0
100
AcDbText
  0
POLYLINE
  5
536
100
AcDbEntity
  8
LAY-6
  6
CONTINUOUS
 62
     1
100
AcDb2dPolyline
 66
     1
 10
0.0
 20
0.0
 30
0.0
 70
   128
  0
VERTEX
  5
537
100
AcDbEntity
  8
LAY-6
  6
CONTINUOUS
 62
     1
100
AcDbVertex
100
AcDb2dVertex
 10
293.1
 20
95.052063
 30
0.0
  0
VERTEX
  5
538
100
AcDbEntity
  8
LAY-6
  6
CONTINUOUS
 62
     1
100
AcDbVertex
100
AcDb2dVertex
 10
311.73764
 20
76.640559
 30
0.0
  0
VERTEX
  5
539
100
AcDbEntity
  8
LAY-6
  6
CONTINUOUS
 62
     1
100
AcDbVertex
100
AcDb2dVertex
 10
359.73764
 20
76.640559
 30
0.0
  0
SEQEND
  5
53A
100
AcDbEntity
  8
LAY-6
  6
CONTINUOUS
 62
     1
  0
LINE
  5
53B
100
AcDbEntity
  8
LAY-6
  6
CONTINUOUS
 62
     1
100
AcDbLine
 10
295.585617
 20
93.299435
 30
0.0
 11
293.1
 21
95.052063
 31
0.0
  0
LINE
  5
53C
100
AcDbEntity
  8
LAY-6
  6
CONTINUOUS
 62
     1
100
AcDbLine
 10
293.1
 20
95.052063
 30
0.0
 11
294.88284
 21
92.588025
 31
0.0
  0
TEXT
  5
53D
100
AcDbEntity
  8
LAY-6
  6
CONTINUOUS
 62
     2
100
AcDbText
 10
313.73764
 20
76.640559
 30
0.0
 40
5.0
  1
裏板４.５ｔ以上（別途）
 41
0.654222
  7
EXCADSTD
 72
     5
 11
359.73764
 21
76.640559
 31
0.0
100
AcDbText
  0
TEXT
  5
53E
100
AcDbEntity
  8
LAY-6
  6
CONTINUOUS
 62
     2
100
AcDbText
 10
657.478461
 20
283.4
 30
0.0
 40
5.0
  1
４０
 41
0.672
  7
EXCADSTD
 72
     5
 11
664.811261
 21
283.4
 31
0.0
100
AcDbText
  0
LINE
  5
53F
100
AcDbEntity
  8
LAY-6
  6
CONTINUOUS
 62
     1
100
AcDbLine
 10
641.478461
 20
305.051885
 30
0.0
 11
641.478461
 21
281.9
 31
0.0
  0
LINE
  5
540
100
AcDbEntity
  8
LAY-6
  6
CONTINUOUS
 62
     1
100
AcDbLine
 10
681.478461
 20
305.051885
 30
0.0
 11
681.478461
 21
281.9
 31
0.0
  0
LINE
  5
541
100
AcDbEntity
  8
LAY-6
  6
CONTINUOUS
 62
     1
100
AcDbLine
 10
641.478461
 20
282.9
 30
0.0
 11
681.478461
 21
282.9
 31
0.0
  0
LINE
  5
542
100
AcDbEntity
  8
LAY-6
  6
CONTINUOUS
 62
     1
100
AcDbLine
 10
644.478461
 20
283.4
 30
0.0
 11
641.478461
 21
282.9
 31
0.0
  0
LINE
  5
543
100
AcDbEntity
  8
LAY-6
  6
CONTINUOUS
 62
     1
100
AcDbLine
 10
641.478461
 20
282.9
 30
0.0
 11
644.478461
 21
282.4
 31
0.0
  0
LINE
  5
544
100
AcDbEntity
  8
LAY-6
  6
CONTINUOUS
 62
     1
100
AcDbLine
 10
678.478461
 20
282.4
 30
0.0
 11
681.478461
 21
282.9
 31
0.0
  0
LINE
  5
545
100
AcDbEntity
  8
LAY-6
  6
CONTINUOUS
 62
     1
100
AcDbLine
 10
681.478461
 20
282.9
 30
0.0
 11
678.478461
 21
283.4
 31
0.0
  0
LINE
  5
546
100
AcDbEntity
  8
LAY-6
  6
CONTINUOUS
 62
     1
100
AcDbLine
 10
651.978387
 20
527.509888
 30
0.0
 11
651.978387
 21
548.0
 31
0.0
  0
LINE
  5
547
100
AcDbEntity
  8
LAY-6
  6
CONTINUOUS
 62
     1
100
AcDbLine
 10
670.978351
 20
527.509888
 30
0.0
 11
670.978351
 21
548.0
 31
0.0
  0
TEXT
  5
548
100
AcDbEntity
  8
LAY-6
  6
CONTINUOUS
 62
     2
100
AcDbText
 10
655.478369
 20
547.5
 30
0.0
 40
5.0
  1
φ
 41
0.672
  7
EXCADSTD
 72
     5
 11
658.678369
 21
547.5
 31
0.0
100
AcDbText
  0
TEXT
  5
549
100
AcDbEntity
  8
LAY-6
  6
CONTINUOUS
 62
     2
100
AcDbText
 10
659.478369
 20
547.5
 30
0.0
 40
5.0
  1
１９
 41
0.672
  7
EXCADSTD
 72
     5
 11
666.811169
 21
547.5
 31
0.0
100
AcDbText
  0
LINE
  5
54A
100
AcDbEntity
  8
LAY-6
  6
CONTINUOUS
 62
     1
100
AcDbLine
 10
651.978387
 20
547.0
 30
0.0
 11
670.978351
 21
547.0
 31
0.0
  0
LINE
  5
54B
100
AcDbEntity
  8
LAY-6
  6
CONTINUOUS
 62
     1
100
AcDbLine
 10
653.978387
 20
547.333333
 30
0.0
 11
651.978387
 21
547.0
 31
0.0
  0
LINE
  5
54C
100
AcDbEntity
  8
LAY-6
  6
CONTINUOUS
 62
     1
100
AcDbLine
 10
651.978387
 20
547.0
 30
0.0
 11
653.978387
 21
546.666667
 31
0.0
  0
LINE
  5
54D
100
AcDbEntity
  8
LAY-6
  6
CONTINUOUS
 62
     1
100
AcDbLine
 10
668.978351
 20
546.666667
 30
0.0
 11
670.978351
 21
547.0
 31
0.0
  0
LINE
  5
54E
100
AcDbEntity
  8
LAY-6
  6
CONTINUOUS
 62
     1
100
AcDbLine
 10
670.978351
 20
547.0
 30
0.0
 11
668.978351
 21
547.333333
 31
0.0
  0
LINE
  5
54F
100
AcDbEntity
  8
LAY-6
  6
CONTINUOUS
 62
     1
100
AcDbLine
 10
652.728461
 20
470.709796
 30
0.0
 11
652.728461
 21
474.0
 31
0.0
  0
LINE
  5
550
100
AcDbEntity
  8
LAY-6
  6
CONTINUOUS
 62
     1
100
AcDbLine
 10
670.228461
 20
470.709796
 30
0.0
 11
670.228461
 21
474.0
 31
0.0
  0
TEXT
  5
551
100
AcDbEntity
  8
LAY-6
  6
CONTINUOUS
 62
     2
100
AcDbText
 10
620.478461
 20
441.9
 30
0.0
 40
5.0
  1
φ
 41
0.672
  7
EXCADSTD
 72
     5
 11
623.678461
 21
441.9
 31
0.0
100
AcDbText
  0
TEXT
  5
552
100
AcDbEntity
  8
LAY-6
  6
CONTINUOUS
 62
     2
100
AcDbText
 10
624.478461
 20
441.9
 30
0.0
 40
5.0
  1
１７.５
 41
0.616
  7
EXCADSTD
 72
     5
 11
638.478461
 21
441.9
 31
0.0
100
AcDbText
  0
LINE
  5
553
100
AcDbEntity
  8
LAY-6
  6
CONTINUOUS
 62
     1
100
AcDbLine
 10
652.728461
 20
473.0
 30
0.0
 11
670.228461
 21
473.0
 31
0.0
  0
LINE
  5
554
100
AcDbEntity
  8
LAY-6
  6
CONTINUOUS
 62
     1
100
AcDbLine
 10
654.728461
 20
473.333333
 30
0.0
 11
652.728461
 21
473.0
 31
0.0
  0
LINE
  5
555
100
AcDbEntity
  8
LAY-6
  6
CONTINUOUS
 62
     1
100
AcDbLine
 10
652.728461
 20
473.0
 30
0.0
 11
654.728461
 21
472.666667
 31
0.0
  0
LINE
  5
556
100
AcDbEntity
  8
LAY-6
  6
CONTINUOUS
 62
     1
100
AcDbLine
 10
668.228461
 20
472.666667
 30
0.0
 11
670.228461
 21
473.0
 31
0.0
  0
LINE
  5
557
100
AcDbEntity
  8
LAY-6
  6
CONTINUOUS
 62
     1
100
AcDbLine
 10
670.228461
 20
473.0
 30
0.0
 11
668.228461
 21
473.333333
 31
0.0
  0
LINE
  5
558
100
AcDbEntity
  8
LAY-6
  6
CONTINUOUS
 62
     1
100
AcDbLine
 10
655.228339
 20
485.509811
 30
0.0
 11
655.228339
 21
481.8
 31
0.0
  0
LINE
  5
559
100
AcDbEntity
  8
LAY-6
  6
CONTINUOUS
 62
     1
100
AcDbLine
 10
667.728339
 20
485.509811
 30
0.0
 11
667.728339
 21
481.8
 31
0.0
  0
LINE
  5
55A
100
AcDbEntity
  8
LAY-6
  6
CONTINUOUS
 62
     1
100
AcDbLine
 10
655.228339
 20
482.8
 30
0.0
 11
667.728339
 21
482.8
 31
0.0
  0
LINE
  5
55B
100
AcDbEntity
  8
LAY-6
  6
CONTINUOUS
 62
     1
100
AcDbLine
 10
657.228339
 20
483.133333
 30
0.0
 11
655.228339
 21
482.8
 31
0.0
  0
LINE
  5
55C
100
AcDbEntity
  8
LAY-6
  6
CONTINUOUS
 62
     1
100
AcDbLine
 10
655.228339
 20
482.8
 30
0.0
 11
657.228339
 21
482.466667
 31
0.0
  0
LINE
  5
55D
100
AcDbEntity
  8
LAY-6
  6
CONTINUOUS
 62
     1
100
AcDbLine
 10
665.728339
 20
482.466667
 30
0.0
 11
667.728339
 21
482.8
 31
0.0
  0
LINE
  5
55E
100
AcDbEntity
  8
LAY-6
  6
CONTINUOUS
 62
     1
100
AcDbLine
 10
667.728339
 20
482.8
 30
0.0
 11
665.728339
 21
483.133333
 31
0.0
  0
TEXT
  5
55F
100
AcDbEntity
  8
LAY-6
  6
CONTINUOUS
 62
     2
100
AcDbText
 10
686.578339
 20
451.9
 30
0.0
 40
5.0
  1
φ
 41
0.672
  7
EXCADSTD
 72
     5
 11
689.778339
 21
451.9
 31
0.0
100
AcDbText
  0
TEXT
  5
560
100
AcDbEntity
  8
LAY-6
  6
CONTINUOUS
 62
     2
100
AcDbText
 10
690.578339
 20
451.9
 30
0.0
 40
5.0
  1
１２.５
 41
0.616
  7
EXCADSTD
 72
     5
 11
704.578339
 21
451.9
 31
0.0
100
AcDbText
  0
POLYLINE
  5
561
100
AcDbEntity
  8
LAY-6
  6
CONTINUOUS
 62
     1
100
AcDb2dPolyline
 66
     1
 10
0.0
 20
0.0
 30
0.0
 70
   128
  0
VERTEX
  5
562
100
AcDbEntity
  8
LAY-6
  6
CONTINUOUS
 62
     1
100
AcDbVertex
100
AcDb2dVertex
 10
661.489878
 20
482.80016
 30
0.0
  0
VERTEX
  5
563
100
AcDbEntity
  8
LAY-6
  6
CONTINUOUS
 62
     1
100
AcDbVertex
100
AcDb2dVertex
 10
685.9
 20
451.3
 30
0.0
  0
VERTEX
  5
564
100
AcDbEntity
  8
LAY-6
  6
CONTINUOUS
 62
     1
100
AcDbVertex
100
AcDb2dVertex
 10
704.7
 20
451.3
 30
0.0
  0
SEQEND
  5
565
100
AcDbEntity
  8
LAY-6
  6
CONTINUOUS
 62
     1
  0
CIRCLE
  5
566
100
AcDbEntity
  8
LAY-6
  6
CONTINUOUS
 62
     1
100
AcDbCircle
 10
661.489878
 20
482.80016
 30
0.0
 40
1.5
  0
CIRCLE
  5
567
100
AcDbEntity
  8
LAY-6
  6
CONTINUOUS
 62
     1
100
AcDbCircle
 10
661.489878
 20
482.80016
 30
0.0
 40
0.75
  0
POLYLINE
  5
568
100
AcDbEntity
  8
LAY-6
  6
CONTINUOUS
 62
     1
100
AcDb2dPolyline
 66
     1
 10
0.0
 20
0.0
 30
0.0
 70
   128
  0
VERTEX
  5
569
100
AcDbEntity
  8
LAY-6
  6
CONTINUOUS
 62
     1
100
AcDbVertex
100
AcDb2dVertex
 10
661.456922
 20
473.0
 30
0.0
  0
VERTEX
  5
56A
100
AcDbEntity
  8
LAY-6
  6
CONTINUOUS
 62
     1
100
AcDbVertex
100
AcDb2dVertex
 10
637.0468
 20
441.49984
 30
0.0
  0
VERTEX
  5
56B
100
AcDbEntity
  8
LAY-6
  6
CONTINUOUS
 62
     1
100
AcDbVertex
100
AcDb2dVertex
 10
621.6
 20
441.49984
 30
0.0
  0
SEQEND
  5
56C
100
AcDbEntity
  8
LAY-6
  6
CONTINUOUS
 62
     1
  0
CIRCLE
  5
56D
100
AcDbEntity
  8
LAY-6
  6
CONTINUOUS
 62
     1
100
AcDbCircle
 10
661.456922
 20
473.0
 30
0.0
 40
1.5
  0
CIRCLE
  5
56E
100
AcDbEntity
  8
LAY-6
  6
CONTINUOUS
 62
     1
100
AcDbCircle
 10
661.456922
 20
473.0
 30
0.0
 40
0.75
  0
TEXT
  5
56F
100
AcDbEntity
  8
LAY-6
  6
CONTINUOUS
 62
     2
100
AcDbText
 10
603.0
 20
315.0
 30
0.0
 40
6.0
  1
床　面
 41
0.672
  7
EXCADSTD
 72
     5
 11
617.400001
 21
315.0
 31
0.0
100
AcDbText
  0
TEXT
  5
570
100
AcDbEntity
  8
LAY-6
  6
CONTINUOUS
 62
     2
100
AcDbText
 10
501.5
 20
111.9
 30
0.0
 40
6.0
  1
沓　摺
 41
0.672
  7
EXCADSTD
 72
     5
 11
515.900001
 21
111.9
 31
0.0
100
AcDbText
  0
TEXT
  5
571
100
AcDbEntity
  8
LAY-6
  6
CONTINUOUS
 62
     2
100
AcDbText
 10
686.7
 20
295.1
 30
0.0
 40
6.0
  1
沓　摺
 41
0.672
  7
EXCADSTD
 72
     5
 11
701.100001
 21
295.1
 31
0.0
100
AcDbText
  0
LINE
  5
572
100
AcDbEntity
  8
LAY-6
  6
CONTINUOUS
 62
     1
100
AcDbLine
 10
153.721344
 20
552.2
 30
0.0
 11
194.721344
 21
552.2
 31
0.0
  0
LINE
  5
573
100
AcDbEntity
  8
LAY-6
  6
CONTINUOUS
 62
     1
100
AcDbLine
 10
156.721344
 20
552.7
 30
0.0
 11
153.721344
 21
552.2
 31
0.0
  0
LINE
  5
574
100
AcDbEntity
  8
LAY-6
  6
CONTINUOUS
 62
     1
100
AcDbLine
 10
153.721344
 20
552.2
 30
0.0
 11
156.721344
 21
551.7
 31
0.0
  0
LINE
  5
575
100
AcDbEntity
  8
LAY-6
  6
CONTINUOUS
 62
     1
100
AcDbLine
 10
191.721344
 20
551.7
 30
0.0
 11
194.721344
 21
552.2
 31
0.0
  0
LINE
  5
576
100
AcDbEntity
  8
LAY-6
  6
CONTINUOUS
 62
     1
100
AcDbLine
 10
194.721344
 20
552.2
 30
0.0
 11
191.721344
 21
552.7
 31
0.0
  0
TEXT
  5
577
100
AcDbEntity
  8
LAY-6
  6
CONTINUOUS
 62
     2
100
AcDbText
 10
170.221344
 20
552.7
 30
0.0
 40
5.0
  1
４１
 41
0.672
  7
EXCADSTD
 72
     5
 11
177.554144
 21
552.7
 31
0.0
100
AcDbText
  0
LINE
  5
578
100
AcDbEntity
  8
LAY-6
  6
CONTINUOUS
 62
     1
100
AcDbLine
 10
194.721344
 20
555.330078
 30
0.0
 11
194.721344
 21
550.7
 31
0.0
  0
LINE
  5
579
100
AcDbEntity
  8
LAY-6
  6
CONTINUOUS
 62
     1
100
AcDbLine
 10
194.721344
 20
552.2
 30
0.0
 11
335.721344
 21
552.2
 31
0.0
  0
LINE
  5
57A
100
AcDbEntity
  8
LAY-6
  6
CONTINUOUS
 62
     1
100
AcDbLine
 10
197.721344
 20
552.7
 30
0.0
 11
194.721344
 21
552.2
 31
0.0
  0
LINE
  5
57B
100
AcDbEntity
  8
LAY-6
  6
CONTINUOUS
 62
     1
100
AcDbLine
 10
194.721344
 20
552.2
 30
0.0
 11
197.721344
 21
551.7
 31
0.0
  0
LINE
  5
57C
100
AcDbEntity
  8
LAY-6
  6
CONTINUOUS
 62
     1
100
AcDbLine
 10
332.721344
 20
551.7
 30
0.0
 11
335.721344
 21
552.2
 31
0.0
  0
LINE
  5
57D
100
AcDbEntity
  8
LAY-6
  6
CONTINUOUS
 62
     1
100
AcDbLine
 10
335.721344
 20
552.2
 30
0.0
 11
332.721344
 21
552.7
 31
0.0
  0
TEXT
  5
57E
100
AcDbEntity
  8
LAY-6
  6
CONTINUOUS
 62
     2
100
AcDbText
 10
259.221344
 20
552.7
 30
0.0
 40
5.0
  1
１４１
 41
0.672
  7
EXCADSTD
 72
     5
 11
271.221344
 21
552.7
 31
0.0
100
AcDbText
  0
LINE
  5
57F
100
AcDbEntity
  8
LAY-6
  6
CONTINUOUS
 62
     1
100
AcDbLine
 10
153.721344
 20
547.227417
 30
0.0
 11
153.721344
 21
561.4
 31
0.0
  0
LINE
  5
580
100
AcDbEntity
  8
LAY-6
  6
CONTINUOUS
 62
     1
100
AcDbLine
 10
335.721344
 20
547.227417
 30
0.0
 11
335.721344
 21
561.4
 31
0.0
  0
LINE
  5
581
100
AcDbEntity
  8
LAY-6
  6
CONTINUOUS
 62
     1
100
AcDbLine
 10
153.721344
 20
559.9
 30
0.0
 11
335.721344
 21
559.9
 31
0.0
  0
LINE
  5
582
100
AcDbEntity
  8
LAY-6
  6
CONTINUOUS
 62
     1
100
AcDbLine
 10
156.721344
 20
560.4
 30
0.0
 11
153.721344
 21
559.9
 31
0.0
  0
LINE
  5
583
100
AcDbEntity
  8
LAY-6
  6
CONTINUOUS
 62
     1
100
AcDbLine
 10
153.721344
 20
559.9
 30
0.0
 11
156.721344
 21
559.4
 31
0.0
  0
LINE
  5
584
100
AcDbEntity
  8
LAY-6
  6
CONTINUOUS
 62
     1
100
AcDbLine
 10
332.721344
 20
559.4
 30
0.0
 11
335.721344
 21
559.9
 31
0.0
  0
LINE
  5
585
100
AcDbEntity
  8
LAY-6
  6
CONTINUOUS
 62
     1
100
AcDbLine
 10
335.721344
 20
559.9
 30
0.0
 11
332.721344
 21
560.4
 31
0.0
  0
TEXT
  5
586
100
AcDbEntity
  8
LAY-6
  6
CONTINUOUS
 62
     2
100
AcDbText
 10
238.721344
 20
560.4
 30
0.0
 40
5.0
  1
１８２
 41
0.672
  7
EXCADSTD
 72
     5
 11
250.721344
 21
560.4
 31
0.0
100
AcDbText
  0
INSERT
  5
587
100
AcDbEntity
  8
LAY-6
  6
CONTINUOUS
 62
     0
100
AcDbBlockReference
  2
SYM-1
 10
236.6
 20
561.44
 30
0.0
  0
INSERT
  5
588
100
AcDbEntity
  8
LAY-6
  6
CONTINUOUS
 62
     0
100
AcDbBlockReference
  2
SYM-1
 10
352.4
 20
568.7
 30
0.0
  0
LINE
  5
589
100
AcDbEntity
  8
LAY-6
  6
CONTINUOUS
 62
     1
100
AcDbLine
 10
160.721344
 20
511.727448
 30
0.0
 11
160.721344
 21
485.6
 31
0.0
  0
LINE
  5
58A
100
AcDbEntity
  8
LAY-6
  6
CONTINUOUS
 62
     1
100
AcDbLine
 10
194.721344
 20
501.5
 30
0.0
 11
194.721344
 21
485.6
 31
0.0
  0
LINE
  5
58B
100
AcDbEntity
  8
LAY-6
  6
CONTINUOUS
 62
     1
100
AcDbLine
 10
160.721344
 20
487.1
 30
0.0
 11
194.721344
 21
487.1
 31
0.0
  0
LINE
  5
58C
100
AcDbEntity
  8
LAY-6
  6
CONTINUOUS
 62
     1
100
AcDbLine
 10
163.721344
 20
487.6
 30
0.0
 11
160.721344
 21
487.1
 31
0.0
  0
LINE
  5
58D
100
AcDbEntity
  8
LAY-6
  6
CONTINUOUS
 62
     1
100
AcDbLine
 10
160.721344
 20
487.1
 30
0.0
 11
163.721344
 21
486.6
 31
0.0
  0
LINE
  5
58E
100
AcDbEntity
  8
LAY-6
  6
CONTINUOUS
 62
     1
100
AcDbLine
 10
191.721344
 20
486.6
 30
0.0
 11
194.721344
 21
487.1
 31
0.0
  0
LINE
  5
58F
100
AcDbEntity
  8
LAY-6
  6
CONTINUOUS
 62
     1
100
AcDbLine
 10
194.721344
 20
487.1
 30
0.0
 11
191.721344
 21
487.6
 31
0.0
  0
TEXT
  5
590
100
AcDbEntity
  8
LAY-6
  6
CONTINUOUS
 62
     2
100
AcDbText
 10
173.721344
 20
487.6
 30
0.0
 40
5.0
  1
３４
 41
0.672
  7
EXCADSTD
 72
     5
 11
181.054144
 21
487.6
 31
0.0
100
AcDbText
  0
LINE
  5
591
100
AcDbEntity
  8
LAY-6
  6
CONTINUOUS
 62
     1
100
AcDbLine
 10
329.721344
 20
511.727448
 30
0.0
 11
329.721344
 21
485.6
 31
0.0
  0
LINE
  5
592
100
AcDbEntity
  8
LAY-6
  6
CONTINUOUS
 62
     1
100
AcDbLine
 10
194.721344
 20
487.1
 30
0.0
 11
329.721344
 21
487.1
 31
0.0
  0
LINE
  5
593
100
AcDbEntity
  8
LAY-6
  6
CONTINUOUS
 62
     1
100
AcDbLine
 10
197.721344
 20
487.6
 30
0.0
 11
194.721344
 21
487.1
 31
0.0
  0
LINE
  5
594
100
AcDbEntity
  8
LAY-6
  6
CONTINUOUS
 62
     1
100
AcDbLine
 10
194.721344
 20
487.1
 30
0.0
 11
197.721344
 21
486.6
 31
0.0
  0
LINE
  5
595
100
AcDbEntity
  8
LAY-6
  6
CONTINUOUS
 62
     1
100
AcDbLine
 10
326.721344
 20
486.6
 30
0.0
 11
329.721344
 21
487.1
 31
0.0
  0
LINE
  5
596
100
AcDbEntity
  8
LAY-6
  6
CONTINUOUS
 62
     1
100
AcDbLine
 10
329.721344
 20
487.1
 30
0.0
 11
326.721344
 21
487.6
 31
0.0
  0
TEXT
  5
597
100
AcDbEntity
  8
LAY-6
  6
CONTINUOUS
 62
     2
100
AcDbText
 10
256.221344
 20
487.6
 30
0.0
 40
5.0
  1
１３５
 41
0.672
  7
EXCADSTD
 72
     5
 11
268.221344
 21
487.6
 31
0.0
100
AcDbText
  0
LINE
  5
598
100
AcDbEntity
  8
LAY-6
  6
CONTINUOUS
 62
     1
100
AcDbLine
 10
329.721344
 20
310.65741
 30
0.0
 11
329.721344
 21
286.2
 31
0.0
  0
LINE
  5
599
100
AcDbEntity
  8
LAY-6
  6
CONTINUOUS
 62
     1
100
AcDbLine
 10
194.721344
 20
287.7
 30
0.0
 11
329.721344
 21
287.7
 31
0.0
  0
LINE
  5
59A
100
AcDbEntity
  8
LAY-6
  6
CONTINUOUS
 62
     1
100
AcDbLine
 10
197.721344
 20
288.2
 30
0.0
 11
194.721344
 21
287.7
 31
0.0
  0
LINE
  5
59B
100
AcDbEntity
  8
LAY-6
  6
CONTINUOUS
 62
     1
100
AcDbLine
 10
194.721344
 20
287.7
 30
0.0
 11
197.721344
 21
287.2
 31
0.0
  0
LINE
  5
59C
100
AcDbEntity
  8
LAY-6
  6
CONTINUOUS
 62
     1
100
AcDbLine
 10
326.721344
 20
287.2
 30
0.0
 11
329.721344
 21
287.7
 31
0.0
  0
LINE
  5
59D
100
AcDbEntity
  8
LAY-6
  6
CONTINUOUS
 62
     1
100
AcDbLine
 10
329.721344
 20
287.7
 30
0.0
 11
326.721344
 21
288.2
 31
0.0
  0
TEXT
  5
59E
100
AcDbEntity
  8
LAY-6
  6
CONTINUOUS
 62
     2
100
AcDbText
 10
256.221344
 20
288.2
 30
0.0
 40
5.0
  1
１３５
 41
0.672
  7
EXCADSTD
 72
     5
 11
268.221344
 21
288.2
 31
0.0
100
AcDbText
  0
TEXT
  5
59F
100
AcDbEntity
  8
LAY-6
  6
CONTINUOUS
 62
     2
100
AcDbText
 10
445.2
 20
239.552094
 30
0.0
 40
5.0
  1
５
 50
90.0
 41
0.672
  7
EXCADSTD
 72
     5
 11
445.2
 21
242.752094
 31
0.0
100
AcDbText
  0
LINE
  5
5A0
100
AcDbEntity
  8
LAY-6
  6
CONTINUOUS
 62
     1
100
AcDbLine
 10
441.9
 20
239.052109
 30
0.0
 11
447.2
 21
239.052109
 31
0.0
  0
LINE
  5
5A1
100
AcDbEntity
  8
LAY-6
  6
CONTINUOUS
 62
     1
100
AcDbLine
 10
445.7
 20
234.052109
 30
0.0
 11
445.7
 21
244.052078
 31
0.0
  0
LINE
  5
5A2
100
AcDbEntity
  8
LAY-6
  6
CONTINUOUS
 62
     1
100
AcDbLine
 10
446.2
 20
236.052109
 30
0.0
 11
445.7
 21
239.052109
 31
0.0
  0
LINE
  5
5A3
100
AcDbEntity
  8
LAY-6
  6
CONTINUOUS
 62
     1
100
AcDbLine
 10
445.7
 20
239.052109
 30
0.0
 11
445.2
 21
236.052109
 31
0.0
  0
TEXT
  5
5A4
100
AcDbEntity
  8
LAY-6
  6
CONTINUOUS
 62
     2
100
AcDbText
 10
445.2
 20
244.552094
 30
0.0
 40
5.0
  1
５
 50
90.0
 41
0.672
  7
EXCADSTD
 72
     5
 11
445.2
 21
247.752094
 31
0.0
100
AcDbText
  0
LINE
  5
5A5
100
AcDbEntity
  8
LAY-6
  6
CONTINUOUS
 62
     1
100
AcDbLine
 10
439.3
 20
249.052109
 30
0.0
 11
447.2
 21
249.052109
 31
0.0
  0
LINE
  5
5A6
100
AcDbEntity
  8
LAY-6
  6
CONTINUOUS
 62
     1
100
AcDbLine
 10
445.7
 20
244.052078
 30
0.0
 11
445.7
 21
254.052109
 31
0.0
  0
CIRCLE
  5
5A7
100
AcDbEntity
  8
LAY-6
  6
CONTINUOUS
 62
     1
100
AcDbCircle
 10
445.7
 20
244.052078
 30
0.0
 40
0.5
  0
CIRCLE
  5
5A8
100
AcDbEntity
  8
LAY-6
  6
CONTINUOUS
 62
     1
100
AcDbCircle
 10
445.7
 20
244.052078
 30
0.0
 40
0.25
  0
LINE
  5
5A9
100
AcDbEntity
  8
LAY-6
  6
CONTINUOUS
 62
     1
100
AcDbLine
 10
445.2
 20
252.052109
 30
0.0
 11
445.7
 21
249.052109
 31
0.0
  0
LINE
  5
5AA
100
AcDbEntity
  8
LAY-6
  6
CONTINUOUS
 62
     1
100
AcDbLine
 10
445.7
 20
249.052109
 30
0.0
 11
446.2
 21
252.052109
 31
0.0
  0
TEXT
  5
5AB
100
AcDbEntity
  8
LAY-6
  6
CONTINUOUS
 62
     2
100
AcDbText
 10
190.721355
 20
132.2
 30
0.0
 40
5.0
  1
２５
 41
0.672
  7
EXCADSTD
 72
     5
 11
198.054155
 21
132.2
 31
0.0
100
AcDbText
  0
LINE
  5
5AC
100
AcDbEntity
  8
LAY-6
  6
CONTINUOUS
 62
     1
100
AcDbLine
 10
182.371344
 20
131.7
 30
0.0
 11
207.071367
 21
131.7
 31
0.0
  0
LINE
  5
5AD
100
AcDbEntity
  8
LAY-6
  6
CONTINUOUS
 62
     1
100
AcDbLine
 10
185.371344
 20
132.2
 30
0.0
 11
182.371344
 21
131.7
 31
0.0
  0
LINE
  5
5AE
100
AcDbEntity
  8
LAY-6
  6
CONTINUOUS
 62
     1
100
AcDbLine
 10
182.371344
 20
131.7
 30
0.0
 11
185.371344
 21
131.2
 31
0.0
  0
LINE
  5
5AF
100
AcDbEntity
  8
LAY-6
  6
CONTINUOUS
 62
     1
100
AcDbLine
 10
204.071367
 20
131.2
 30
0.0
 11
207.071367
 21
131.7
 31
0.0
  0
LINE
  5
5B0
100
AcDbEntity
  8
LAY-6
  6
CONTINUOUS
 62
     1
100
AcDbLine
 10
207.071367
 20
131.7
 30
0.0
 11
204.071367
 21
132.2
 31
0.0
  0
LINE
  5
5B1
100
AcDbEntity
  8
LAY-6
  6
CONTINUOUS
 62
     1
100
AcDbLine
 10
172.721337
 20
232.931065
 30
0.0
 11
172.721337
 21
202.2
 31
0.0
  0
LINE
  5
5B2
100
AcDbEntity
  8
LAY-6
  6
CONTINUOUS
 62
     1
100
AcDbLine
 10
472.721344
 20
233.552093
 30
0.0
 11
472.721344
 21
202.2
 31
0.0
  0
LINE
  5
5B3
100
AcDbEntity
  8
LAY-6
  6
CONTINUOUS
 62
     1
100
AcDbLine
 10
172.721337
 20
203.7
 30
0.0
 11
472.721344
 21
203.7
 31
0.0
  0
LINE
  5
5B4
100
AcDbEntity
  8
LAY-6
  6
CONTINUOUS
 62
     1
100
AcDbLine
 10
175.721337
 20
204.2
 30
0.0
 11
172.721337
 21
203.7
 31
0.0
  0
LINE
  5
5B5
100
AcDbEntity
  8
LAY-6
  6
CONTINUOUS
 62
     1
100
AcDbLine
 10
172.721337
 20
203.7
 30
0.0
 11
175.721337
 21
203.2
 31
0.0
  0
LINE
  5
5B6
100
AcDbEntity
  8
LAY-6
  6
CONTINUOUS
 62
     1
100
AcDbLine
 10
469.721344
 20
203.2
 30
0.0
 11
472.721344
 21
203.7
 31
0.0
  0
LINE
  5
5B7
100
AcDbEntity
  8
LAY-6
  6
CONTINUOUS
 62
     1
100
AcDbLine
 10
472.721344
 20
203.7
 30
0.0
 11
469.721344
 21
204.2
 31
0.0
  0
TEXT
  5
5B8
100
AcDbEntity
  8
LAY-6
  6
CONTINUOUS
 62
     2
100
AcDbText
 10
316.721341
 20
204.2
 30
0.0
 40
5.0
  1
３００
 41
0.672
  7
EXCADSTD
 72
     5
 11
328.721341
 21
204.2
 31
0.0
100
AcDbText
  0
LINE
  5
5B9
100
AcDbEntity
  8
LAY-6
  6
CONTINUOUS
 62
     1
100
AcDbLine
 10
641.478461
 20
132.052078
 30
0.0
 11
641.478461
 21
110.5
 31
0.0
  0
LINE
  5
5BA
100
AcDbEntity
  8
LAY-6
  6
CONTINUOUS
 62
     1
100
AcDbLine
 10
711.478461
 20
132.052078
 30
0.0
 11
711.478461
 21
110.5
 31
0.0
  0
LINE
  5
5BB
100
AcDbEntity
  8
LAY-6
  6
CONTINUOUS
 62
     1
100
AcDbLine
 10
641.478461
 20
112.0
 30
0.0
 11
711.478461
 21
112.0
 31
0.0
  0
LINE
  5
5BC
100
AcDbEntity
  8
LAY-6
  6
CONTINUOUS
 62
     1
100
AcDbLine
 10
644.478461
 20
112.5
 30
0.0
 11
641.478461
 21
112.0
 31
0.0
  0
LINE
  5
5BD
100
AcDbEntity
  8
LAY-6
  6
CONTINUOUS
 62
     1
100
AcDbLine
 10
641.478461
 20
112.0
 30
0.0
 11
644.478461
 21
111.5
 31
0.0
  0
LINE
  5
5BE
100
AcDbEntity
  8
LAY-6
  6
CONTINUOUS
 62
     1
100
AcDbLine
 10
708.478461
 20
111.5
 30
0.0
 11
711.478461
 21
112.0
 31
0.0
  0
LINE
  5
5BF
100
AcDbEntity
  8
LAY-6
  6
CONTINUOUS
 62
     1
100
AcDbLine
 10
711.478461
 20
112.0
 30
0.0
 11
708.478461
 21
112.5
 31
0.0
  0
TEXT
  5
5C0
100
AcDbEntity
  8
LAY-6
  6
CONTINUOUS
 62
     2
100
AcDbText
 10
672.478461
 20
112.5
 30
0.0
 40
5.0
  1
７０
 41
0.672
  7
EXCADSTD
 72
     5
 11
679.811261
 21
112.5
 31
0.0
100
AcDbText
  0
LINE
  5
5C1
100
AcDbEntity
  8
LAY-9
  6
CONTINUOUS
 62
     1
100
AcDbLine
 10
136.321344
 20
415.209814
 30
0.0
 11
178.721329
 21
415.209814
 31
0.0
  0
LINE
  5
5C2
100
AcDbEntity
  8
LAY-9
  6
CONTINUOUS
 62
     1
100
AcDbLine
 10
329.721344
 20
415.209814
 30
0.0
 11
389.538211
 21
415.209814
 31
0.0
  0
POLYLINE
  5
5C3
100
AcDbEntity
  8
LAY-9
  6
CONTINUOUS
 62
     1
100
AcDb2dPolyline
 66
     1
 10
0.0
 20
0.0
 30
0.0
 70
   128
  0
VERTEX
  5
5C4
100
AcDbEntity
  8
LAY-9
  6
CONTINUOUS
 62
     1
100
AcDbVertex
100
AcDb2dVertex
 10
391.0
 20
419.809814
 30
0.0
  0
VERTEX
  5
5C5
100
AcDbEntity
  8
LAY-9
  6
CONTINUOUS
 62
     1
100
AcDbVertex
100
AcDb2dVertex
 10
391.024918
 20
419.882651
 30
0.0
  0
VERTEX
  5
5C6
100
AcDbEntity
  8
LAY-9
  6
CONTINUOUS
 62
     1
100
AcDbVertex
100
AcDb2dVertex
 10
391.093618
 20
420.088724
 30
0.0
  0
VERTEX
  5
5C7
100
AcDbEntity
  8
LAY-9
  6
CONTINUOUS
 62
     1
100
AcDbVertex
100
AcDb2dVertex
 10
391.197024
 20
420.409371
 30
0.0
  0
VERTEX
  5
5C8
100
AcDbEntity
  8
LAY-9
  6
CONTINUOUS
 62
     1
100
AcDbVertex
100
AcDb2dVertex
 10
391.326056
 20
420.825933
 30
0.0
  0
VERTEX
  5
5C9
100
AcDbEntity
  8
LAY-9
  6
CONTINUOUS
 62
     1
100
AcDbVertex
100
AcDb2dVertex
 10
391.471635
 20
421.31975
 30
0.0
  0
VERTEX
  5
5CA
100
AcDbEntity
  8
LAY-9
  6
CONTINUOUS
 62
     1
100
AcDbVertex
100
AcDb2dVertex
 10
391.624684
 20
421.872162
 30
0.0
  0
VERTEX
  5
5CB
100
AcDbEntity
  8
LAY-9
  6
CONTINUOUS
 62
     1
100
AcDbVertex
100
AcDb2dVertex
 10
391.776125
 20
422.464509
 30
0.0
  0
VERTEX
  5
5CC
100
AcDbEntity
  8
LAY-9
  6
CONTINUOUS
 62
     1
100
AcDbVertex
100
AcDb2dVertex
 10
391.916877
 20
423.07813
 30
0.0
  0
VERTEX
  5
5CD
100
AcDbEntity
  8
LAY-9
  6
CONTINUOUS
 62
     1
100
AcDbVertex
100
AcDb2dVertex
 10
392.037865
 20
423.694367
 30
0.0
  0
VERTEX
  5
5CE
100
AcDbEntity
  8
LAY-9
  6
CONTINUOUS
 62
     1
100
AcDbVertex
100
AcDb2dVertex
 10
392.130008
 20
424.294559
 30
0.0
  0
VERTEX
  5
5CF
100
AcDbEntity
  8
LAY-9
  6
CONTINUOUS
 62
     1
100
AcDbVertex
100
AcDb2dVertex
 10
392.184228
 20
424.860046
 30
0.0
  0
VERTEX
  5
5D0
100
AcDbEntity
  8
LAY-9
  6
CONTINUOUS
 62
     1
100
AcDbVertex
100
AcDb2dVertex
 10
392.194679
 20
425.335674
 30
0.0
  0
VERTEX
  5
5D1
100
AcDbEntity
  8
LAY-9
  6
CONTINUOUS
 62
     1
100
AcDbVertex
100
AcDb2dVertex
 10
392.169545
 20
425.774812
 30
0.0
  0
VERTEX
  5
5D2
100
AcDbEntity
  8
LAY-9
  6
CONTINUOUS
 62
     1
100
AcDbVertex
100
AcDb2dVertex
 10
392.112718
 20
426.185795
 30
0.0
  0
VERTEX
  5
5D3
100
AcDbEntity
  8
LAY-9
  6
CONTINUOUS
 62
     1
100
AcDbVertex
100
AcDb2dVertex
 10
392.02809
 20
426.576955
 30
0.0
  0
VERTEX
  5
5D4
100
AcDbEntity
  8
LAY-9
  6
CONTINUOUS
 62
     1
100
AcDbVertex
100
AcDb2dVertex
 10
391.919555
 20
426.956626
 30
0.0
  0
VERTEX
  5
5D5
100
AcDbEntity
  8
LAY-9
  6
CONTINUOUS
 62
     1
100
AcDbVertex
100
AcDb2dVertex
 10
391.791003
 20
427.333141
 30
0.0
  0
VERTEX
  5
5D6
100
AcDbEntity
  8
LAY-9
  6
CONTINUOUS
 62
     1
100
AcDbVertex
100
AcDb2dVertex
 10
391.646327
 20
427.714834
 30
0.0
  0
VERTEX
  5
5D7
100
AcDbEntity
  8
LAY-9
  6
CONTINUOUS
 62
     1
100
AcDbVertex
100
AcDb2dVertex
 10
391.489419
 20
428.110038
 30
0.0
  0
VERTEX
  5
5D8
100
AcDbEntity
  8
LAY-9
  6
CONTINUOUS
 62
     1
100
AcDbVertex
100
AcDb2dVertex
 10
391.324172
 20
428.527085
 30
0.0
  0
VERTEX
  5
5D9
100
AcDbEntity
  8
LAY-9
  6
CONTINUOUS
 62
     1
100
AcDbVertex
100
AcDb2dVertex
 10
391.154478
 20
428.97431
 30
0.0
  0
VERTEX
  5
5DA
100
AcDbEntity
  8
LAY-9
  6
CONTINUOUS
 62
     1
100
AcDbVertex
100
AcDb2dVertex
 10
390.984228
 20
429.460046
 30
0.0
  0
VERTEX
  5
5DB
100
AcDbEntity
  8
LAY-9
  6
CONTINUOUS
 62
     1
100
AcDbVertex
100
AcDb2dVertex
 10
390.82803
 20
429.951992
 30
0.0
  0
VERTEX
  5
5DC
100
AcDbEntity
  8
LAY-9
  6
CONTINUOUS
 62
     1
100
AcDbVertex
100
AcDb2dVertex
 10
390.676824
 20
430.469511
 30
0.0
  0
VERTEX
  5
5DD
100
AcDbEntity
  8
LAY-9
  6
CONTINUOUS
 62
     1
100
AcDbVertex
100
AcDb2dVertex
 10
390.532692
 20
430.997342
 30
0.0
  0
VERTEX
  5
5DE
100
AcDbEntity
  8
LAY-9
  6
CONTINUOUS
 62
     1
100
AcDbVertex
100
AcDb2dVertex
 10
390.397717
 20
431.520227
 30
0.0
  0
VERTEX
  5
5DF
100
AcDbEntity
  8
LAY-9
  6
CONTINUOUS
 62
     1
100
AcDbVertex
100
AcDb2dVertex
 10
390.273981
 20
432.022904
 30
0.0
  0
VERTEX
  5
5E0
100
AcDbEntity
  8
LAY-9
  6
CONTINUOUS
 62
     1
100
AcDbVertex
100
AcDb2dVertex
 10
390.163568
 20
432.490114
 30
0.0
  0
VERTEX
  5
5E1
100
AcDbEntity
  8
LAY-9
  6
CONTINUOUS
 62
     1
100
AcDbVertex
100
AcDb2dVertex
 10
390.068559
 20
432.906596
 30
0.0
  0
VERTEX
  5
5E2
100
AcDbEntity
  8
LAY-9
  6
CONTINUOUS
 62
     1
100
AcDbVertex
100
AcDb2dVertex
 10
389.991038
 20
433.25709
 30
0.0
  0
VERTEX
  5
5E3
100
AcDbEntity
  8
LAY-9
  6
CONTINUOUS
 62
     1
100
AcDbVertex
100
AcDb2dVertex
 10
389.933088
 20
433.526337
 30
0.0
  0
VERTEX
  5
5E4
100
AcDbEntity
  8
LAY-9
  6
CONTINUOUS
 62
     1
100
AcDbVertex
100
AcDb2dVertex
 10
389.89679
 20
433.699075
 30
0.0
  0
VERTEX
  5
5E5
100
AcDbEntity
  8
LAY-9
  6
CONTINUOUS
 62
     1
100
AcDbVertex
100
AcDb2dVertex
 10
389.884228
 20
433.760046
 30
0.0
  0
SEQEND
  5
5E6
100
AcDbEntity
  8
LAY-9
  6
CONTINUOUS
 62
     1
  0
POLYLINE
  5
5E7
100
AcDbEntity
  8
LAY-9
  6
CONTINUOUS
 62
     1
100
AcDb2dPolyline
 66
     1
 10
0.0
 20
0.0
 30
0.0
 70
   128
  0
VERTEX
  5
5E8
100
AcDbEntity
  8
LAY-9
  6
CONTINUOUS
 62
     1
100
AcDbVertex
100
AcDb2dVertex
 10
390.0
 20
416.809814
 30
0.0
  0
VERTEX
  5
5E9
100
AcDbEntity
  8
LAY-9
  6
CONTINUOUS
 62
     1
100
AcDbVertex
100
AcDb2dVertex
 10
389.980961
 20
416.728123
 30
0.0
  0
VERTEX
  5
5EA
100
AcDbEntity
  8
LAY-9
  6
CONTINUOUS
 62
     1
100
AcDbVertex
100
AcDb2dVertex
 10
389.928103
 20
416.49705
 30
0.0
  0
VERTEX
  5
5EB
100
AcDbEntity
  8
LAY-9
  6
CONTINUOUS
 62
     1
100
AcDbVertex
100
AcDb2dVertex
 10
389.847811
 20
416.137593
 30
0.0
  0
VERTEX
  5
5EC
100
AcDbEntity
  8
LAY-9
  6
CONTINUOUS
 62
     1
100
AcDbVertex
100
AcDb2dVertex
 10
389.746473
 20
415.670753
 30
0.0
  0
VERTEX
  5
5ED
100
AcDbEntity
  8
LAY-9
  6
CONTINUOUS
 62
     1
100
AcDbVertex
100
AcDb2dVertex
 10
389.630473
 20
415.117527
 30
0.0
  0
VERTEX
  5
5EE
100
AcDbEntity
  8
LAY-9
  6
CONTINUOUS
 62
     1
100
AcDbVertex
100
AcDb2dVertex
 10
389.506199
 20
414.498916
 30
0.0
  0
VERTEX
  5
5EF
100
AcDbEntity
  8
LAY-9
  6
CONTINUOUS
 62
     1
100
AcDbVertex
100
AcDb2dVertex
 10
389.380036
 20
413.835919
 30
0.0
  0
VERTEX
  5
5F0
100
AcDbEntity
  8
LAY-9
  6
CONTINUOUS
 62
     1
100
AcDbVertex
100
AcDb2dVertex
 10
389.258372
 20
413.149534
 30
0.0
  0
VERTEX
  5
5F1
100
AcDbEntity
  8
LAY-9
  6
CONTINUOUS
 62
     1
100
AcDbVertex
100
AcDb2dVertex
 10
389.147591
 20
412.460761
 30
0.0
  0
VERTEX
  5
5F2
100
AcDbEntity
  8
LAY-9
  6
CONTINUOUS
 62
     1
100
AcDbVertex
100
AcDb2dVertex
 10
389.054081
 20
411.790598
 30
0.0
  0
VERTEX
  5
5F3
100
AcDbEntity
  8
LAY-9
  6
CONTINUOUS
 62
     1
100
AcDbVertex
100
AcDb2dVertex
 10
388.984228
 20
411.160046
 30
0.0
  0
VERTEX
  5
5F4
100
AcDbEntity
  8
LAY-9
  6
CONTINUOUS
 62
     1
100
AcDbVertex
100
AcDb2dVertex
 10
388.949955
 20
410.708615
 30
0.0
  0
VERTEX
  5
5F5
100
AcDbEntity
  8
LAY-9
  6
CONTINUOUS
 62
     1
100
AcDbVertex
100
AcDb2dVertex
 10
388.934152
 20
410.287138
 30
0.0
  0
VERTEX
  5
5F6
100
AcDbEntity
  8
LAY-9
  6
CONTINUOUS
 62
     1
100
AcDbVertex
100
AcDb2dVertex
 10
388.937188
 20
409.88906
 30
0.0
  0
VERTEX
  5
5F7
100
AcDbEntity
  8
LAY-9
  6
CONTINUOUS
 62
     1
100
AcDbVertex
100
AcDb2dVertex
 10
388.959435
 20
409.507824
 30
0.0
  0
VERTEX
  5
5F8
100
AcDbEntity
  8
LAY-9
  6
CONTINUOUS
 62
     1
100
AcDbVertex
100
AcDb2dVertex
 10
389.001263
 20
409.136875
 30
0.0
  0
VERTEX
  5
5F9
100
AcDbEntity
  8
LAY-9
  6
CONTINUOUS
 62
     1
100
AcDbVertex
100
AcDb2dVertex
 10
389.063045
 20
408.769656
 30
0.0
  0
VERTEX
  5
5FA
100
AcDbEntity
  8
LAY-9
  6
CONTINUOUS
 62
     1
100
AcDbVertex
100
AcDb2dVertex
 10
389.14515
 20
408.39961
 30
0.0
  0
VERTEX
  5
5FB
100
AcDbEntity
  8
LAY-9
  6
CONTINUOUS
 62
     1
100
AcDbVertex
100
AcDb2dVertex
 10
389.24795
 20
408.020183
 30
0.0
  0
VERTEX
  5
5FC
100
AcDbEntity
  8
LAY-9
  6
CONTINUOUS
 62
     1
100
AcDbVertex
100
AcDb2dVertex
 10
389.371816
 20
407.624817
 30
0.0
  0
VERTEX
  5
5FD
100
AcDbEntity
  8
LAY-9
  6
CONTINUOUS
 62
     1
100
AcDbVertex
100
AcDb2dVertex
 10
389.517118
 20
407.206957
 30
0.0
  0
VERTEX
  5
5FE
100
AcDbEntity
  8
LAY-9
  6
CONTINUOUS
 62
     1
100
AcDbVertex
100
AcDb2dVertex
 10
389.684228
 20
406.760046
 30
0.0
  0
VERTEX
  5
5FF
100
AcDbEntity
  8
LAY-9
  6
CONTINUOUS
 62
     1
100
AcDbVertex
100
AcDb2dVertex
 10
389.867439
 20
406.293105
 30
0.0
  0
VERTEX
  5
600
100
AcDbEntity
  8
LAY-9
  6
CONTINUOUS
 62
     1
100
AcDbVertex
100
AcDb2dVertex
 10
390.065047
 20
405.805915
 30
0.0
  0
VERTEX
  5
601
100
AcDbEntity
  8
LAY-9
  6
CONTINUOUS
 62
     1
100
AcDbVertex
100
AcDb2dVertex
 10
390.270341
 20
405.312114
 30
0.0
  0
VERTEX
  5
602
100
AcDbEntity
  8
LAY-9
  6
CONTINUOUS
 62
     1
100
AcDbVertex
100
AcDb2dVertex
 10
390.476611
 20
404.825337
 30
0.0
  0
VERTEX
  5
603
100
AcDbEntity
  8
LAY-9
  6
CONTINUOUS
 62
     1
100
AcDbVertex
100
AcDb2dVertex
 10
390.677149
 20
404.359221
 30
0.0
  0
VERTEX
  5
604
100
AcDbEntity
  8
LAY-9
  6
CONTINUOUS
 62
     1
100
AcDbVertex
100
AcDb2dVertex
 10
390.865243
 20
403.927403
 30
0.0
  0
VERTEX
  5
605
100
AcDbEntity
  8
LAY-9
  6
CONTINUOUS
 62
     1
100
AcDbVertex
100
AcDb2dVertex
 10
391.034185
 20
403.543518
 30
0.0
  0
VERTEX
  5
606
100
AcDbEntity
  8
LAY-9
  6
CONTINUOUS
 62
     1
100
AcDbVertex
100
AcDb2dVertex
 10
391.177264
 20
403.221204
 30
0.0
  0
VERTEX
  5
607
100
AcDbEntity
  8
LAY-9
  6
CONTINUOUS
 62
     1
100
AcDbVertex
100
AcDb2dVertex
 10
391.287771
 20
402.974096
 30
0.0
  0
VERTEX
  5
608
100
AcDbEntity
  8
LAY-9
  6
CONTINUOUS
 62
     1
100
AcDbVertex
100
AcDb2dVertex
 10
391.358995
 20
402.815831
 30
0.0
  0
VERTEX
  5
609
100
AcDbEntity
  8
LAY-9
  6
CONTINUOUS
 62
     1
100
AcDbVertex
100
AcDb2dVertex
 10
391.384228
 20
402.760046
 30
0.0
  0
SEQEND
  5
60A
100
AcDbEntity
  8
LAY-9
  6
CONTINUOUS
 62
     1
  0
LINE
  5
60B
100
AcDbEntity
  8
LAY-9
  6
CONTINUOUS
 62
     1
100
AcDbLine
 10
160.721313
 20
425.809814
 30
0.0
 11
160.721313
 21
430.309814
 31
0.0
  0
LINE
  5
60C
100
AcDbEntity
  8
LAY-9
  6
CONTINUOUS
 62
     1
100
AcDbLine
 10
160.721313
 20
430.309814
 30
0.0
 11
180.721313
 21
430.309814
 31
0.0
  0
LINE
  5
60D
100
AcDbEntity
  8
LAY-9
  6
CONTINUOUS
 62
     1
100
AcDbLine
 10
180.721313
 20
430.309814
 30
0.0
 11
180.721313
 21
425.809814
 31
0.0
  0
LINE
  5
60E
100
AcDbEntity
  8
LAY-9
  6
CONTINUOUS
 62
     1
100
AcDbLine
 10
329.721344
 20
425.809814
 30
0.0
 11
329.721344
 21
430.309814
 31
0.0
  0
LINE
  5
60F
100
AcDbEntity
  8
LAY-9
  6
CONTINUOUS
 62
     1
100
AcDbLine
 10
329.721344
 20
430.309814
 30
0.0
 11
310.721344
 21
430.309814
 31
0.0
  0
LINE
  5
610
100
AcDbEntity
  8
LAY-9
  6
CONTINUOUS
 62
     1
100
AcDbLine
 10
310.721344
 20
430.309814
 30
0.0
 11
310.721344
 21
425.809814
 31
0.0
  0
LINE
  5
611
100
AcDbEntity
  8
LAY-9
  6
CONTINUOUS
 62
     1
100
AcDbLine
 10
171.505569
 20
425.809814
 30
0.0
 11
176.005569
 21
430.309814
 31
0.0
  0
LINE
  5
612
100
AcDbEntity
  8
LAY-9
  6
CONTINUOUS
 62
     1
100
AcDbLine
 10
174.333996
 20
425.809814
 30
0.0
 11
178.833996
 21
430.309814
 31
0.0
  0
LINE
  5
613
100
AcDbEntity
  8
LAY-9
  6
CONTINUOUS
 62
     1
100
AcDbLine
 10
318.133996
 20
425.809814
 30
0.0
 11
322.633996
 21
430.309814
 31
0.0
  0
LINE
  5
614
100
AcDbEntity
  8
LAY-9
  6
CONTINUOUS
 62
     1
100
AcDbLine
 10
320.962423
 20
425.809814
 30
0.0
 11
325.462423
 21
430.309814
 31
0.0
  0
LINE
  5
615
100
AcDbEntity
  8
LAY-9
  6
CONTINUOUS
 62
     1
100
AcDbLine
 10
329.721344
 20
410.809814
 30
0.0
 11
329.721344
 21
406.309814
 31
0.0
  0
LINE
  5
616
100
AcDbEntity
  8
LAY-9
  6
CONTINUOUS
 62
     1
100
AcDbLine
 10
329.721344
 20
406.309814
 30
0.0
 11
214.721344
 21
406.309814
 31
0.0
  0
LINE
  5
617
100
AcDbEntity
  8
LAY-9
  6
CONTINUOUS
 62
     1
100
AcDbLine
 10
214.721344
 20
406.309814
 30
0.0
 11
214.721344
 21
410.809814
 31
0.0
  0
LINE
  5
618
100
AcDbEntity
  8
LAY-9
  6
CONTINUOUS
 62
     1
100
AcDbLine
 10
228.361304
 20
406.309814
 30
0.0
 11
232.861304
 21
410.809814
 31
0.0
  0
LINE
  5
619
100
AcDbEntity
  8
LAY-9
  6
CONTINUOUS
 62
     1
100
AcDbLine
 10
231.189731
 20
406.309814
 30
0.0
 11
235.689731
 21
410.809814
 31
0.0
  0
LINE
  5
61A
100
AcDbEntity
  8
LAY-9
  6
CONTINUOUS
 62
     1
100
AcDbLine
 10
256.645575
 20
406.309814
 30
0.0
 11
261.145575
 21
410.809814
 31
0.0
  0
LINE
  5
61B
100
AcDbEntity
  8
LAY-9
  6
CONTINUOUS
 62
     1
100
AcDbLine
 10
259.474002
 20
406.309814
 30
0.0
 11
263.974002
 21
410.809814
 31
0.0
  0
LINE
  5
61C
100
AcDbEntity
  8
LAY-9
  6
CONTINUOUS
 62
     1
100
AcDbLine
 10
284.929847
 20
406.309814
 30
0.0
 11
289.429847
 21
410.809814
 31
0.0
  0
LINE
  5
61D
100
AcDbEntity
  8
LAY-9
  6
CONTINUOUS
 62
     1
100
AcDbLine
 10
287.758274
 20
406.309814
 30
0.0
 11
292.258274
 21
410.809814
 31
0.0
  0
LINE
  5
61E
100
AcDbEntity
  8
LAY-9
  6
CONTINUOUS
 62
     1
100
AcDbLine
 10
313.214118
 20
406.309814
 30
0.0
 11
317.714118
 21
410.809814
 31
0.0
  0
LINE
  5
61F
100
AcDbEntity
  8
LAY-9
  6
CONTINUOUS
 62
     1
100
AcDbLine
 10
316.042545
 20
406.309814
 30
0.0
 11
320.542545
 21
410.809814
 31
0.0
  0
LINE
  5
620
100
AcDbEntity
  8
LAY-9
  6
CONTINUOUS
 62
     1
100
AcDbLine
 10
131.721344
 20
121.552063
 30
0.0
 11
528.7
 21
121.552063
 31
0.0
  0
LINE
  5
621
100
AcDbEntity
  8
LAY-9
  6
CONTINUOUS
 62
     1
100
AcDbLine
 10
136.321344
 20
147.552002
 30
0.0
 11
525.540584
 21
147.552002
 31
0.0
  0
LINE
  5
622
100
AcDbEntity
  8
LAY-9
  6
CONTINUOUS
 62
     1
100
AcDbLine
 10
136.321344
 20
152.052002
 30
0.0
 11
526.139372
 21
152.052002
 31
0.0
  0
LINE
  5
623
100
AcDbEntity
  8
LAY-9
  6
CONTINUOUS
 62
     1
100
AcDbLine
 10
136.321344
 20
154.352002
 30
0.0
 11
527.08042
 21
154.352002
 31
0.0
  0
LINE
  5
624
100
AcDbEntity
  8
LAY-9
  6
CONTINUOUS
 62
     1
100
AcDbLine
 10
136.321344
 20
181.599939
 30
0.0
 11
136.321344
 21
127.552002
 31
0.0
  0
LINE
  5
625
100
AcDbEntity
  8
LAY-9
  6
CONTINUOUS
 62
     1
100
AcDbLine
 10
134.721344
 20
181.599939
 30
0.0
 11
134.721344
 21
127.552002
 31
0.0
  0
LINE
  5
626
100
AcDbEntity
  8
LAY-9
  6
CONTINUOUS
 62
     1
100
AcDbLine
 10
158.522049
 20
147.552002
 30
0.0
 11
163.022049
 21
152.052002
 31
0.0
  0
LINE
  5
627
100
AcDbEntity
  8
LAY-9
  6
CONTINUOUS
 62
     1
100
AcDbLine
 10
161.350476
 20
147.552002
 30
0.0
 11
165.850476
 21
152.052002
 31
0.0
  0
LINE
  5
628
100
AcDbEntity
  8
LAY-9
  6
CONTINUOUS
 62
     1
100
AcDbLine
 10
186.80632
 20
147.552002
 30
0.0
 11
191.30632
 21
152.052002
 31
0.0
  0
LINE
  5
629
100
AcDbEntity
  8
LAY-9
  6
CONTINUOUS
 62
     1
100
AcDbLine
 10
189.634747
 20
147.552002
 30
0.0
 11
194.134747
 21
152.052002
 31
0.0
  0
LINE
  5
62A
100
AcDbEntity
  8
LAY-9
  6
CONTINUOUS
 62
     1
100
AcDbLine
 10
215.090591
 20
147.552002
 30
0.0
 11
219.590591
 21
152.052002
 31
0.0
  0
LINE
  5
62B
100
AcDbEntity
  8
LAY-9
  6
CONTINUOUS
 62
     1
100
AcDbLine
 10
217.919019
 20
147.552002
 30
0.0
 11
222.419019
 21
152.052002
 31
0.0
  0
LINE
  5
62C
100
AcDbEntity
  8
LAY-9
  6
CONTINUOUS
 62
     1
100
AcDbLine
 10
243.374863
 20
147.552002
 30
0.0
 11
247.874863
 21
152.052002
 31
0.0
  0
LINE
  5
62D
100
AcDbEntity
  8
LAY-9
  6
CONTINUOUS
 62
     1
100
AcDbLine
 10
246.20329
 20
147.552002
 30
0.0
 11
250.70329
 21
152.052002
 31
0.0
  0
LINE
  5
62E
100
AcDbEntity
  8
LAY-9
  6
CONTINUOUS
 62
     1
100
AcDbLine
 10
271.659134
 20
147.552002
 30
0.0
 11
276.159134
 21
152.052002
 31
0.0
  0
LINE
  5
62F
100
AcDbEntity
  8
LAY-9
  6
CONTINUOUS
 62
     1
100
AcDbLine
 10
274.487561
 20
147.552002
 30
0.0
 11
278.987561
 21
152.052002
 31
0.0
  0
LINE
  5
630
100
AcDbEntity
  8
LAY-9
  6
CONTINUOUS
 62
     1
100
AcDbLine
 10
299.943405
 20
147.552002
 30
0.0
 11
304.443405
 21
152.052002
 31
0.0
  0
LINE
  5
631
100
AcDbEntity
  8
LAY-9
  6
CONTINUOUS
 62
     1
100
AcDbLine
 10
302.771832
 20
147.552002
 30
0.0
 11
307.271832
 21
152.052002
 31
0.0
  0
LINE
  5
632
100
AcDbEntity
  8
LAY-9
  6
CONTINUOUS
 62
     1
100
AcDbLine
 10
328.227676
 20
147.552002
 30
0.0
 11
332.727676
 21
152.052002
 31
0.0
  0
LINE
  5
633
100
AcDbEntity
  8
LAY-9
  6
CONTINUOUS
 62
     1
100
AcDbLine
 10
331.056104
 20
147.552002
 30
0.0
 11
335.556104
 21
152.052002
 31
0.0
  0
LINE
  5
634
100
AcDbEntity
  8
LAY-9
  6
CONTINUOUS
 62
     1
100
AcDbLine
 10
356.511948
 20
147.552002
 30
0.0
 11
361.011948
 21
152.052002
 31
0.0
  0
LINE
  5
635
100
AcDbEntity
  8
LAY-9
  6
CONTINUOUS
 62
     1
100
AcDbLine
 10
359.340375
 20
147.552002
 30
0.0
 11
363.840375
 21
152.052002
 31
0.0
  0
LINE
  5
636
100
AcDbEntity
  8
LAY-9
  6
CONTINUOUS
 62
     1
100
AcDbLine
 10
134.721344
 20
127.552002
 30
0.0
 11
182.221338
 21
127.552002
 31
0.0
  0
LINE
  5
637
100
AcDbEntity
  8
LAY-9
  6
CONTINUOUS
 62
     1
100
AcDbLine
 10
207.221351
 20
127.552002
 30
0.0
 11
525.7
 21
127.552002
 31
0.0
  0
ARC
  5
638
100
AcDbEntity
  8
LAY-9
  6
CONTINUOUS
 62
     1
100
AcDbCircle
 10
194.721344
 20
244.052078
 30
0.0
 40
60.0
100
AcDbArc
 50
160.528779
 51
199.471221
  0
LINE
  5
639
100
AcDbEntity
  8
LAY-9
  6
CONTINUOUS
 62
     1
100
AcDbLine
 10
138.152802
 20
264.052078
 30
0.0
 11
530.760229
 21
264.052078
 31
0.0
  0
LINE
  5
63A
100
AcDbEntity
  8
LAY-9
  6
CONTINUOUS
 62
     1
100
AcDbLine
 10
138.152802
 20
224.052078
 30
0.0
 11
530.760229
 21
224.052078
 31
0.0
  0
POLYLINE
  5
63B
100
AcDbEntity
  8
LAY-9
  6
CONTINUOUS
 62
     1
100
AcDb2dPolyline
 66
     1
 10
0.0
 20
0.0
 30
0.0
 70
   128
  0
VERTEX
  5
63C
100
AcDbEntity
  8
LAY-9
  6
CONTINUOUS
 62
     1
100
AcDbVertex
100
AcDb2dVertex
 10
530.760229
 20
264.052078
 30
0.0
  0
VERTEX
  5
63D
100
AcDbEntity
  8
LAY-9
  6
CONTINUOUS
 62
     1
100
AcDbVertex
100
AcDb2dVertex
 10
530.827992
 20
263.896393
 30
0.0
  0
VERTEX
  5
63E
100
AcDbEntity
  8
LAY-9
  6
CONTINUOUS
 62
     1
100
AcDbVertex
100
AcDb2dVertex
 10
531.014094
 20
263.454746
 30
0.0
  0
VERTEX
  5
63F
100
AcDbEntity
  8
LAY-9
  6
CONTINUOUS
 62
     1
100
AcDbVertex
100
AcDb2dVertex
 10
531.292752
 20
262.765248
 30
0.0
  0
VERTEX
  5
640
100
AcDbEntity
  8
LAY-9
  6
CONTINUOUS
 62
     1
100
AcDbVertex
100
AcDb2dVertex
 10
531.638185
 20
261.86601
 30
0.0
  0
VERTEX
  5
641
100
AcDbEntity
  8
LAY-9
  6
CONTINUOUS
 62
     1
100
AcDbVertex
100
AcDb2dVertex
 10
532.024611
 20
260.795145
 30
0.0
  0
VERTEX
  5
642
100
AcDbEntity
  8
LAY-9
  6
CONTINUOUS
 62
     1
100
AcDbVertex
100
AcDb2dVertex
 10
532.426247
 20
259.590762
 30
0.0
  0
VERTEX
  5
643
100
AcDbEntity
  8
LAY-9
  6
CONTINUOUS
 62
     1
100
AcDbVertex
100
AcDb2dVertex
 10
532.817313
 20
258.290975
 30
0.0
  0
VERTEX
  5
644
100
AcDbEntity
  8
LAY-9
  6
CONTINUOUS
 62
     1
100
AcDbVertex
100
AcDb2dVertex
 10
533.172026
 20
256.933893
 30
0.0
  0
VERTEX
  5
645
100
AcDbEntity
  8
LAY-9
  6
CONTINUOUS
 62
     1
100
AcDbVertex
100
AcDb2dVertex
 10
533.464604
 20
255.557629
 30
0.0
  0
VERTEX
  5
646
100
AcDbEntity
  8
LAY-9
  6
CONTINUOUS
 62
     1
100
AcDbVertex
100
AcDb2dVertex
 10
533.669266
 20
254.200295
 30
0.0
  0
VERTEX
  5
647
100
AcDbEntity
  8
LAY-9
  6
CONTINUOUS
 62
     1
100
AcDbVertex
100
AcDb2dVertex
 10
533.760229
 20
252.9
 30
0.0
  0
VERTEX
  5
648
100
AcDbEntity
  8
LAY-9
  6
CONTINUOUS
 62
     1
100
AcDbVertex
100
AcDb2dVertex
 10
533.736357
 20
251.905848
 30
0.0
  0
VERTEX
  5
649
100
AcDbEntity
  8
LAY-9
  6
CONTINUOUS
 62
     1
100
AcDbVertex
100
AcDb2dVertex
 10
533.629395
 20
250.968668
 30
0.0
  0
VERTEX
  5
64A
100
AcDbEntity
  8
LAY-9
  6
CONTINUOUS
 62
     1
100
AcDbVertex
100
AcDb2dVertex
 10
533.448632
 20
250.082413
 30
0.0
  0
VERTEX
  5
64B
100
AcDbEntity
  8
LAY-9
  6
CONTINUOUS
 62
     1
100
AcDbVertex
100
AcDb2dVertex
 10
533.203355
 20
249.241035
 30
0.0
  0
VERTEX
  5
64C
100
AcDbEntity
  8
LAY-9
  6
CONTINUOUS
 62
     1
100
AcDbVertex
100
AcDb2dVertex
 10
532.902852
 20
248.438487
 30
0.0
  0
VERTEX
  5
64D
100
AcDbEntity
  8
LAY-9
  6
CONTINUOUS
 62
     1
100
AcDbVertex
100
AcDb2dVertex
 10
532.556412
 20
247.668723
 30
0.0
  0
VERTEX
  5
64E
100
AcDbEntity
  8
LAY-9
  6
CONTINUOUS
 62
     1
100
AcDbVertex
100
AcDb2dVertex
 10
532.173323
 20
246.925695
 30
0.0
  0
VERTEX
  5
64F
100
AcDbEntity
  8
LAY-9
  6
CONTINUOUS
 62
     1
100
AcDbVertex
100
AcDb2dVertex
 10
531.762871
 20
246.203355
 30
0.0
  0
VERTEX
  5
650
100
AcDbEntity
  8
LAY-9
  6
CONTINUOUS
 62
     1
100
AcDbVertex
100
AcDb2dVertex
 10
531.334347
 20
245.495658
 30
0.0
  0
VERTEX
  5
651
100
AcDbEntity
  8
LAY-9
  6
CONTINUOUS
 62
     1
100
AcDbVertex
100
AcDb2dVertex
 10
530.897037
 20
244.796555
 30
0.0
  0
VERTEX
  5
652
100
AcDbEntity
  8
LAY-9
  6
CONTINUOUS
 62
     1
100
AcDbVertex
100
AcDb2dVertex
 10
530.460229
 20
244.1
 30
0.0
  0
VERTEX
  5
653
100
AcDbEntity
  8
LAY-9
  6
CONTINUOUS
 62
     1
100
AcDbVertex
100
AcDb2dVertex
 10
530.054279
 20
243.435957
 30
0.0
  0
VERTEX
  5
654
100
AcDbEntity
  8
LAY-9
  6
CONTINUOUS
 62
     1
100
AcDbVertex
100
AcDb2dVertex
 10
529.662967
 20
242.764116
 30
0.0
  0
VERTEX
  5
655
100
AcDbEntity
  8
LAY-9
  6
CONTINUOUS
 62
     1
100
AcDbVertex
100
AcDb2dVertex
 10
529.292112
 20
242.079831
 30
0.0
  0
VERTEX
  5
656
100
AcDbEntity
  8
LAY-9
  6
CONTINUOUS
 62
     1
100
AcDbVertex
100
AcDb2dVertex
 10
528.947535
 20
241.378456
 30
0.0
  0
VERTEX
  5
657
100
AcDbEntity
  8
LAY-9
  6
CONTINUOUS
 62
     1
100
AcDbVertex
100
AcDb2dVertex
 10
528.635057
 20
240.655344
 30
0.0
  0
VERTEX
  5
658
100
AcDbEntity
  8
LAY-9
  6
CONTINUOUS
 62
     1
100
AcDbVertex
100
AcDb2dVertex
 10
528.360499
 20
239.905849
 30
0.0
  0
VERTEX
  5
659
100
AcDbEntity
  8
LAY-9
  6
CONTINUOUS
 62
     1
100
AcDbVertex
100
AcDb2dVertex
 10
528.129682
 20
239.125324
 30
0.0
  0
VERTEX
  5
65A
100
AcDbEntity
  8
LAY-9
  6
CONTINUOUS
 62
     1
100
AcDbVertex
100
AcDb2dVertex
 10
527.948425
 20
238.309123
 30
0.0
  0
VERTEX
  5
65B
100
AcDbEntity
  8
LAY-9
  6
CONTINUOUS
 62
     1
100
AcDbVertex
100
AcDb2dVertex
 10
527.82255
 20
237.452599
 30
0.0
  0
VERTEX
  5
65C
100
AcDbEntity
  8
LAY-9
  6
CONTINUOUS
 62
     1
100
AcDbVertex
100
AcDb2dVertex
 10
527.757878
 20
236.551107
 30
0.0
  0
VERTEX
  5
65D
100
AcDbEntity
  8
LAY-9
  6
CONTINUOUS
 62
     1
100
AcDbVertex
100
AcDb2dVertex
 10
527.760229
 20
235.6
 30
0.0
  0
VERTEX
  5
65E
100
AcDbEntity
  8
LAY-9
  6
CONTINUOUS
 62
     1
100
AcDbVertex
100
AcDb2dVertex
 10
527.871897
 20
234.250333
 30
0.0
  0
VERTEX
  5
65F
100
AcDbEntity
  8
LAY-9
  6
CONTINUOUS
 62
     1
100
AcDbVertex
100
AcDb2dVertex
 10
528.089395
 20
232.842824
 30
0.0
  0
VERTEX
  5
660
100
AcDbEntity
  8
LAY-9
  6
CONTINUOUS
 62
     1
100
AcDbVertex
100
AcDb2dVertex
 10
528.388185
 20
231.416744
 30
0.0
  0
VERTEX
  5
661
100
AcDbEntity
  8
LAY-9
  6
CONTINUOUS
 62
     1
100
AcDbVertex
100
AcDb2dVertex
 10
528.743726
 20
230.011364
 30
0.0
  0
VERTEX
  5
662
100
AcDbEntity
  8
LAY-9
  6
CONTINUOUS
 62
     1
100
AcDbVertex
100
AcDb2dVertex
 10
529.131479
 20
228.665955
 30
0.0
  0
VERTEX
  5
663
100
AcDbEntity
  8
LAY-9
  6
CONTINUOUS
 62
     1
100
AcDbVertex
100
AcDb2dVertex
 10
529.526904
 20
227.419789
 30
0.0
  0
VERTEX
  5
664
100
AcDbEntity
  8
LAY-9
  6
CONTINUOUS
 62
     1
100
AcDbVertex
100
AcDb2dVertex
 10
529.905462
 20
226.312136
 30
0.0
  0
VERTEX
  5
665
100
AcDbEntity
  8
LAY-9
  6
CONTINUOUS
 62
     1
100
AcDbVertex
100
AcDb2dVertex
 10
530.242613
 20
225.382267
 30
0.0
  0
VERTEX
  5
666
100
AcDbEntity
  8
LAY-9
  6
CONTINUOUS
 62
     1
100
AcDbVertex
100
AcDb2dVertex
 10
530.513818
 20
224.669454
 30
0.0
  0
VERTEX
  5
667
100
AcDbEntity
  8
LAY-9
  6
CONTINUOUS
 62
     1
100
AcDbVertex
100
AcDb2dVertex
 10
530.694536
 20
224.212967
 30
0.0
  0
VERTEX
  5
668
100
AcDbEntity
  8
LAY-9
  6
CONTINUOUS
 62
     1
100
AcDbVertex
100
AcDb2dVertex
 10
530.760229
 20
224.052078
 30
0.0
  0
SEQEND
  5
669
100
AcDbEntity
  8
LAY-9
  6
CONTINUOUS
 62
     1
  0
LINE
  5
66A
100
AcDbEntity
  8
LAY-9
  6
CONTINUOUS
 62
     1
100
AcDbLine
 10
645.378461
 20
358.052032
 30
0.0
 11
677.578461
 21
358.052032
 31
0.0
  0
LINE
  5
66B
100
AcDbEntity
  8
LAY-9
  6
CONTINUOUS
 62
     1
100
AcDbLine
 10
645.378461
 20
353.552063
 30
0.0
 11
677.578461
 21
353.552063
 31
0.0
  0
LINE
  5
66C
100
AcDbEntity
  8
LAY-9
  6
CONTINUOUS
 62
     1
100
AcDbLine
 10
641.478461
 20
406.6
 30
0.0
 11
641.478461
 21
333.552005
 31
0.0
  0
LINE
  5
66D
100
AcDbEntity
  8
LAY-9
  6
CONTINUOUS
 62
     1
100
AcDbLine
 10
643.078461
 20
406.6
 30
0.0
 11
643.078461
 21
333.552005
 31
0.0
  0
LINE
  5
66E
100
AcDbEntity
  8
LAY-9
  6
CONTINUOUS
 62
     1
100
AcDbLine
 10
645.378461
 20
358.052032
 30
0.0
 11
645.378461
 21
335.352005
 31
0.0
  0
LINE
  5
66F
100
AcDbEntity
  8
LAY-9
  6
CONTINUOUS
 62
     1
100
AcDbLine
 10
681.478461
 20
406.6
 30
0.0
 11
681.478461
 21
333.552005
 31
0.0
  0
LINE
  5
670
100
AcDbEntity
  8
LAY-9
  6
CONTINUOUS
 62
     1
100
AcDbLine
 10
679.878461
 20
406.6
 30
0.0
 11
679.878461
 21
333.552005
 31
0.0
  0
LINE
  5
671
100
AcDbEntity
  8
LAY-9
  6
CONTINUOUS
 62
     1
100
AcDbLine
 10
677.578461
 20
358.052032
 30
0.0
 11
677.578461
 21
335.352005
 31
0.0
  0
LINE
  5
672
100
AcDbEntity
  8
LAY-9
  6
CONTINUOUS
 62
     1
100
AcDbLine
 10
681.478461
 20
333.552005
 30
0.0
 11
679.878461
 21
333.552005
 31
0.0
  0
LINE
  5
673
100
AcDbEntity
  8
LAY-9
  6
CONTINUOUS
 62
     1
100
AcDbLine
 10
641.478461
 20
333.552005
 30
0.0
 11
643.078461
 21
333.552005
 31
0.0
  0
LINE
  5
674
100
AcDbEntity
  8
LAY-9
  6
CONTINUOUS
 62
     1
100
AcDbLine
 10
645.378461
 20
360.352032
 30
0.0
 11
677.578461
 21
360.352032
 31
0.0
  0
LINE
  5
675
100
AcDbEntity
  8
LAY-9
  6
CONTINUOUS
 62
     1
100
AcDbLine
 10
645.378461
 20
335.352005
 30
0.0
 11
643.078461
 21
335.352005
 31
0.0
  0
LINE
  5
676
100
AcDbEntity
  8
LAY-9
  6
CONTINUOUS
 62
     1
100
AcDbLine
 10
679.878461
 20
335.352005
 30
0.0
 11
677.578461
 21
335.352005
 31
0.0
  0
ARC
  5
677
100
AcDbEntity
  8
LAY-9
  6
CONTINUOUS
 62
     1
100
AcDbCircle
 10
645.378461
 20
358.052032
 30
0.0
 40
2.3
100
AcDbArc
 50
90.0
 51
180.0
  0
ARC
  5
678
100
AcDbEntity
  8
LAY-9
  6
CONTINUOUS
 62
     1
100
AcDbCircle
 10
677.578461
 20
358.052032
 30
0.0
 40
2.3
100
AcDbArc
 50
0.0
 51
90.0
  0
LINE
  5
679
100
AcDbEntity
  8
LAY-9
  6
CONTINUOUS
 62
     1
100
AcDbLine
 10
679.978339
 20
489.009814
 30
0.0
 11
710.3
 21
489.009814
 31
0.0
  0
LINE
  5
67A
100
AcDbEntity
  8
LAY-9
  6
CONTINUOUS
 62
     1
100
AcDbLine
 10
642.978339
 20
489.009784
 30
0.0
 11
618.4
 21
489.009784
 31
0.0
  0
LINE
  5
67B
100
AcDbEntity
  8
LAY-9
  6
CONTINUOUS
 62
     1
100
AcDbLine
 10
645.378461
 20
482.109811
 30
0.0
 11
645.378461
 21
464.409811
 31
0.0
  0
LINE
  5
67C
100
AcDbEntity
  8
LAY-9
  6
CONTINUOUS
 62
     1
100
AcDbLine
 10
677.578461
 20
482.109811
 30
0.0
 11
677.578461
 21
464.409811
 31
0.0
  0
ARC
  5
67D
100
AcDbEntity
  8
LAY-9
  6
CONTINUOUS
 62
     1
100
AcDbCircle
 10
643.078461
 20
484.409811
 30
0.0
 40
1.6
100
AcDbArc
 50
90.0
 51
180.0
  0
ARC
  5
67E
100
AcDbEntity
  8
LAY-9
  6
CONTINUOUS
 62
     1
100
AcDbCircle
 10
679.878461
 20
484.409811
 30
0.0
 40
1.6
100
AcDbArc
 50
0.0
 51
90.0
  0
LINE
  5
67F
100
AcDbEntity
  8
LAY-9
  6
CONTINUOUS
 62
     1
100
AcDbLine
 10
645.378461
 20
464.409811
 30
0.0
 11
643.078461
 21
464.409811
 31
0.0
  0
LINE
  5
680
100
AcDbEntity
  8
LAY-9
  6
CONTINUOUS
 62
     1
100
AcDbLine
 10
677.578461
 20
464.409811
 30
0.0
 11
679.878461
 21
464.409811
 31
0.0
  0
ARC
  5
681
100
AcDbEntity
  8
LAY-9
  6
CONTINUOUS
 62
     1
100
AcDbCircle
 10
645.378461
 20
482.109811
 30
0.0
 40
2.3
100
AcDbArc
 50
90.0
 51
180.0
  0
ARC
  5
682
100
AcDbEntity
  8
LAY-9
  6
CONTINUOUS
 62
     1
100
AcDbCircle
 10
677.578461
 20
482.109811
 30
0.0
 40
2.3
100
AcDbArc
 50
0.0
 51
90.0
  0
LINE
  5
683
100
AcDbEntity
  8
LAY-9
  6
CONTINUOUS
 62
     1
100
AcDbLine
 10
643.078461
 20
484.409811
 30
0.0
 11
645.478339
 21
484.409811
 31
0.0
  0
LINE
  5
684
100
AcDbEntity
  8
LAY-9
  6
CONTINUOUS
 62
     1
100
AcDbLine
 10
677.478339
 20
484.409811
 30
0.0
 11
679.878461
 21
484.409811
 31
0.0
  0
LINE
  5
685
100
AcDbEntity
  8
LAY-9
  6
CONTINUOUS
 62
     1
100
AcDbLine
 10
645.378461
 20
482.109811
 30
0.0
 11
645.478339
 21
482.109811
 31
0.0
  0
LINE
  5
686
100
AcDbEntity
  8
LAY-9
  6
CONTINUOUS
 62
     1
100
AcDbLine
 10
677.478339
 20
482.109811
 30
0.0
 11
677.578461
 21
482.109811
 31
0.0
  0
LINE
  5
687
100
AcDbEntity
  8
LAY-9
  6
CONTINUOUS
 62
     1
100
AcDbLine
 10
641.478461
 20
484.409811
 30
0.0
 11
641.478461
 21
411.6
 31
0.0
  0
LINE
  5
688
100
AcDbEntity
  8
LAY-9
  6
CONTINUOUS
 62
     1
100
AcDbLine
 10
681.478461
 20
484.409811
 30
0.0
 11
681.478461
 21
411.6
 31
0.0
  0
LINE
  5
689
100
AcDbEntity
  8
LAY-9
  6
CONTINUOUS
 62
     1
100
AcDbLine
 10
679.878461
 20
484.409811
 30
0.0
 11
679.878461
 21
411.6
 31
0.0
  0
LINE
  5
68A
100
AcDbEntity
  8
LAY-9
  6
CONTINUOUS
 62
     1
100
AcDbLine
 10
643.078461
 20
484.409811
 30
0.0
 11
643.078461
 21
411.6
 31
0.0
  0
LINE
  5
68B
100
AcDbEntity
  8
LAY-9
  6
CONTINUOUS
 62
     1
100
AcDbLine
 10
136.321344
 20
415.209814
 30
0.0
 11
136.321344
 21
370.0
 31
0.0
  0
LINE
  5
68C
100
AcDbEntity
  8
LAY-9
  6
CONTINUOUS
 62
     1
100
AcDbLine
 10
134.721344
 20
416.809814
 30
0.0
 11
134.721344
 21
370.0
 31
0.0
  0
LINE
  5
68D
100
AcDbEntity
  8
LAY-9
  6
CONTINUOUS
 62
     1
100
AcDbLine
 10
131.721344
 20
419.809814
 30
0.0
 11
131.721344
 21
370.0
 31
0.0
  0
ARC
  5
68E
100
AcDbEntity
  8
LAY-9
  6
CONTINUOUS
 62
     1
100
AcDbCircle
 10
194.721344
 20
327.15741
 30
0.0
 40
60.0
100
AcDbArc
 50
160.528779
 51
199.471221
  0
LINE
  5
68F
100
AcDbEntity
  8
LAY-9
  6
CONTINUOUS
 62
     1
100
AcDbLine
 10
138.152802
 20
347.15741
 30
0.0
 11
405.760229
 21
347.15741
 31
0.0
  0
LINE
  5
690
100
AcDbEntity
  8
LAY-9
  6
CONTINUOUS
 62
     1
100
AcDbLine
 10
138.152802
 20
307.15741
 30
0.0
 11
405.760229
 21
307.15741
 31
0.0
  0
POLYLINE
  5
691
100
AcDbEntity
  8
LAY-9
  6
CONTINUOUS
 62
     1
100
AcDb2dPolyline
 66
     1
 10
0.0
 20
0.0
 30
0.0
 70
   128
  0
VERTEX
  5
692
100
AcDbEntity
  8
LAY-9
  6
CONTINUOUS
 62
     1
100
AcDbVertex
100
AcDb2dVertex
 10
405.760229
 20
347.15741
 30
0.0
  0
VERTEX
  5
693
100
AcDbEntity
  8
LAY-9
  6
CONTINUOUS
 62
     1
100
AcDbVertex
100
AcDb2dVertex
 10
405.827992
 20
347.001725
 30
0.0
  0
VERTEX
  5
694
100
AcDbEntity
  8
LAY-9
  6
CONTINUOUS
 62
     1
100
AcDbVertex
100
AcDb2dVertex
 10
406.014094
 20
346.560078
 30
0.0
  0
VERTEX
  5
695
100
AcDbEntity
  8
LAY-9
  6
CONTINUOUS
 62
     1
100
AcDbVertex
100
AcDb2dVertex
 10
406.292752
 20
345.87058
 30
0.0
  0
VERTEX
  5
696
100
AcDbEntity
  8
LAY-9
  6
CONTINUOUS
 62
     1
100
AcDbVertex
100
AcDb2dVertex
 10
406.638185
 20
344.971342
 30
0.0
  0
VERTEX
  5
697
100
AcDbEntity
  8
LAY-9
  6
CONTINUOUS
 62
     1
100
AcDbVertex
100
AcDb2dVertex
 10
407.024611
 20
343.900477
 30
0.0
  0
VERTEX
  5
698
100
AcDbEntity
  8
LAY-9
  6
CONTINUOUS
 62
     1
100
AcDbVertex
100
AcDb2dVertex
 10
407.426247
 20
342.696094
 30
0.0
  0
VERTEX
  5
699
100
AcDbEntity
  8
LAY-9
  6
CONTINUOUS
 62
     1
100
AcDbVertex
100
AcDb2dVertex
 10
407.817313
 20
341.396307
 30
0.0
  0
VERTEX
  5
69A
100
AcDbEntity
  8
LAY-9
  6
CONTINUOUS
 62
     1
100
AcDbVertex
100
AcDb2dVertex
 10
408.172026
 20
340.039225
 30
0.0
  0
VERTEX
  5
69B
100
AcDbEntity
  8
LAY-9
  6
CONTINUOUS
 62
     1
100
AcDbVertex
100
AcDb2dVertex
 10
408.464604
 20
338.662961
 30
0.0
  0
VERTEX
  5
69C
100
AcDbEntity
  8
LAY-9
  6
CONTINUOUS
 62
     1
100
AcDbVertex
100
AcDb2dVertex
 10
408.669266
 20
337.305627
 30
0.0
  0
VERTEX
  5
69D
100
AcDbEntity
  8
LAY-9
  6
CONTINUOUS
 62
     1
100
AcDbVertex
100
AcDb2dVertex
 10
408.760229
 20
336.005332
 30
0.0
  0
VERTEX
  5
69E
100
AcDbEntity
  8
LAY-9
  6
CONTINUOUS
 62
     1
100
AcDbVertex
100
AcDb2dVertex
 10
408.736357
 20
335.01118
 30
0.0
  0
VERTEX
  5
69F
100
AcDbEntity
  8
LAY-9
  6
CONTINUOUS
 62
     1
100
AcDbVertex
100
AcDb2dVertex
 10
408.629395
 20
334.074
 30
0.0
  0
VERTEX
  5
6A0
100
AcDbEntity
  8
LAY-9
  6
CONTINUOUS
 62
     1
100
AcDbVertex
100
AcDb2dVertex
 10
408.448632
 20
333.187745
 30
0.0
  0
VERTEX
  5
6A1
100
AcDbEntity
  8
LAY-9
  6
CONTINUOUS
 62
     1
100
AcDbVertex
100
AcDb2dVertex
 10
408.203355
 20
332.346367
 30
0.0
  0
VERTEX
  5
6A2
100
AcDbEntity
  8
LAY-9
  6
CONTINUOUS
 62
     1
100
AcDbVertex
100
AcDb2dVertex
 10
407.902852
 20
331.543819
 30
0.0
  0
VERTEX
  5
6A3
100
AcDbEntity
  8
LAY-9
  6
CONTINUOUS
 62
     1
100
AcDbVertex
100
AcDb2dVertex
 10
407.556412
 20
330.774055
 30
0.0
  0
VERTEX
  5
6A4
100
AcDbEntity
  8
LAY-9
  6
CONTINUOUS
 62
     1
100
AcDbVertex
100
AcDb2dVertex
 10
407.173323
 20
330.031027
 30
0.0
  0
VERTEX
  5
6A5
100
AcDbEntity
  8
LAY-9
  6
CONTINUOUS
 62
     1
100
AcDbVertex
100
AcDb2dVertex
 10
406.762871
 20
329.308687
 30
0.0
  0
VERTEX
  5
6A6
100
AcDbEntity
  8
LAY-9
  6
CONTINUOUS
 62
     1
100
AcDbVertex
100
AcDb2dVertex
 10
406.334347
 20
328.60099
 30
0.0
  0
VERTEX
  5
6A7
100
AcDbEntity
  8
LAY-9
  6
CONTINUOUS
 62
     1
100
AcDbVertex
100
AcDb2dVertex
 10
405.897037
 20
327.901887
 30
0.0
  0
VERTEX
  5
6A8
100
AcDbEntity
  8
LAY-9
  6
CONTINUOUS
 62
     1
100
AcDbVertex
100
AcDb2dVertex
 10
405.460229
 20
327.205332
 30
0.0
  0
VERTEX
  5
6A9
100
AcDbEntity
  8
LAY-9
  6
CONTINUOUS
 62
     1
100
AcDbVertex
100
AcDb2dVertex
 10
405.054279
 20
326.541289
 30
0.0
  0
VERTEX
  5
6AA
100
AcDbEntity
  8
LAY-9
  6
CONTINUOUS
 62
     1
100
AcDbVertex
100
AcDb2dVertex
 10
404.662967
 20
325.869448
 30
0.0
  0
VERTEX
  5
6AB
100
AcDbEntity
  8
LAY-9
  6
CONTINUOUS
 62
     1
100
AcDbVertex
100
AcDb2dVertex
 10
404.292112
 20
325.185163
 30
0.0
  0
VERTEX
  5
6AC
100
AcDbEntity
  8
LAY-9
  6
CONTINUOUS
 62
     1
100
AcDbVertex
100
AcDb2dVertex
 10
403.947535
 20
324.483788
 30
0.0
  0
VERTEX
  5
6AD
100
AcDbEntity
  8
LAY-9
  6
CONTINUOUS
 62
     1
100
AcDbVertex
100
AcDb2dVertex
 10
403.635057
 20
323.760676
 30
0.0
  0
VERTEX
  5
6AE
100
AcDbEntity
  8
LAY-9
  6
CONTINUOUS
 62
     1
100
AcDbVertex
100
AcDb2dVertex
 10
403.360499
 20
323.011181
 30
0.0
  0
VERTEX
  5
6AF
100
AcDbEntity
  8
LAY-9
  6
CONTINUOUS
 62
     1
100
AcDbVertex
100
AcDb2dVertex
 10
403.129682
 20
322.230656
 30
0.0
  0
VERTEX
  5
6B0
100
AcDbEntity
  8
LAY-9
  6
CONTINUOUS
 62
     1
100
AcDbVertex
100
AcDb2dVertex
 10
402.948425
 20
321.414455
 30
0.0
  0
VERTEX
  5
6B1
100
AcDbEntity
  8
LAY-9
  6
CONTINUOUS
 62
     1
100
AcDbVertex
100
AcDb2dVertex
 10
402.82255
 20
320.557931
 30
0.0
  0
VERTEX
  5
6B2
100
AcDbEntity
  8
LAY-9
  6
CONTINUOUS
 62
     1
100
AcDbVertex
100
AcDb2dVertex
 10
402.757878
 20
319.656439
 30
0.0
  0
VERTEX
  5
6B3
100
AcDbEntity
  8
LAY-9
  6
CONTINUOUS
 62
     1
100
AcDbVertex
100
AcDb2dVertex
 10
402.760229
 20
318.705332
 30
0.0
  0
VERTEX
  5
6B4
100
AcDbEntity
  8
LAY-9
  6
CONTINUOUS
 62
     1
100
AcDbVertex
100
AcDb2dVertex
 10
402.871897
 20
317.355665
 30
0.0
  0
VERTEX
  5
6B5
100
AcDbEntity
  8
LAY-9
  6
CONTINUOUS
 62
     1
100
AcDbVertex
100
AcDb2dVertex
 10
403.089395
 20
315.948156
 30
0.0
  0
VERTEX
  5
6B6
100
AcDbEntity
  8
LAY-9
  6
CONTINUOUS
 62
     1
100
AcDbVertex
100
AcDb2dVertex
 10
403.388185
 20
314.522076
 30
0.0
  0
VERTEX
  5
6B7
100
AcDbEntity
  8
LAY-9
  6
CONTINUOUS
 62
     1
100
AcDbVertex
100
AcDb2dVertex
 10
403.743726
 20
313.116696
 30
0.0
  0
VERTEX
  5
6B8
100
AcDbEntity
  8
LAY-9
  6
CONTINUOUS
 62
     1
100
AcDbVertex
100
AcDb2dVertex
 10
404.131479
 20
311.771287
 30
0.0
  0
VERTEX
  5
6B9
100
AcDbEntity
  8
LAY-9
  6
CONTINUOUS
 62
     1
100
AcDbVertex
100
AcDb2dVertex
 10
404.526904
 20
310.525121
 30
0.0
  0
VERTEX
  5
6BA
100
AcDbEntity
  8
LAY-9
  6
CONTINUOUS
 62
     1
100
AcDbVertex
100
AcDb2dVertex
 10
404.905462
 20
309.417468
 30
0.0
  0
VERTEX
  5
6BB
100
AcDbEntity
  8
LAY-9
  6
CONTINUOUS
 62
     1
100
AcDbVertex
100
AcDb2dVertex
 10
405.242613
 20
308.487599
 30
0.0
  0
VERTEX
  5
6BC
100
AcDbEntity
  8
LAY-9
  6
CONTINUOUS
 62
     1
100
AcDbVertex
100
AcDb2dVertex
 10
405.513818
 20
307.774786
 30
0.0
  0
VERTEX
  5
6BD
100
AcDbEntity
  8
LAY-9
  6
CONTINUOUS
 62
     1
100
AcDbVertex
100
AcDb2dVertex
 10
405.694536
 20
307.318299
 30
0.0
  0
VERTEX
  5
6BE
100
AcDbEntity
  8
LAY-9
  6
CONTINUOUS
 62
     1
100
AcDbVertex
100
AcDb2dVertex
 10
405.760229
 20
307.15741
 30
0.0
  0
SEQEND
  5
6BF
100
AcDbEntity
  8
LAY-9
  6
CONTINUOUS
 62
     1
  0
LINE
  5
6C0
100
AcDbEntity
  8
LAY-9
  6
DIVIDE
 62
     1
100
AcDbLine
 10
636.5
 20
411.6
 30
0.0
 11
686.3
 21
411.6
 31
0.0
  0
LINE
  5
6C1
100
AcDbEntity
  8
LAY-9
  6
DIVIDE
 62
     1
100
AcDbLine
 10
636.5
 20
406.6
 30
0.0
 11
686.3
 21
406.6
 31
0.0
  0
LINE
  5
6C2
100
AcDbEntity
  8
LAY-9
  6
CONTINUOUS
 62
     1
100
AcDbLine
 10
381.511948
 20
147.552002
 30
0.0
 11
386.011948
 21
152.052002
 31
0.0
  0
LINE
  5
6C3
100
AcDbEntity
  8
LAY-9
  6
CONTINUOUS
 62
     1
100
AcDbLine
 10
384.340375
 20
147.552002
 30
0.0
 11
388.840375
 21
152.052002
 31
0.0
  0
LINE
  5
6C4
100
AcDbEntity
  8
LAY-9
  6
CONTINUOUS
 62
     1
100
AcDbLine
 10
652.799969
 20
358.052032
 30
0.0
 11
648.3
 21
353.552063
 31
0.0
  0
LINE
  5
6C5
100
AcDbEntity
  8
LAY-9
  6
CONTINUOUS
 62
     1
100
AcDbLine
 10
655.628396
 20
358.052032
 30
0.0
 11
651.128427
 21
353.552063
 31
0.0
  0
LINE
  5
6C6
100
AcDbEntity
  8
LAY-9
  6
CONTINUOUS
 62
     1
100
AcDbLine
 10
673.6
 20
358.052032
 30
0.0
 11
669.100031
 21
353.552063
 31
0.0
  0
LINE
  5
6C7
100
AcDbEntity
  8
LAY-9
  6
CONTINUOUS
 62
     1
100
AcDbLine
 10
670.771573
 20
358.052032
 30
0.0
 11
666.271604
 21
353.552063
 31
0.0
  0
POLYLINE
  5
6C8
100
AcDbEntity
  8
LAY-9
  6
CONTINUOUS
 62
     1
100
AcDb2dPolyline
 66
     1
 10
0.0
 20
0.0
 30
0.0
 70
   128
  0
VERTEX
  5
6C9
100
AcDbEntity
  8
LAY-9
  6
CONTINUOUS
 62
     1
100
AcDbVertex
100
AcDb2dVertex
 10
525.7
 20
127.552002
 30
0.0
  0
VERTEX
  5
6CA
100
AcDbEntity
  8
LAY-9
  6
CONTINUOUS
 62
     1
100
AcDbVertex
100
AcDb2dVertex
 10
525.837884
 20
127.757255
 30
0.0
  0
VERTEX
  5
6CB
100
AcDbEntity
  8
LAY-9
  6
CONTINUOUS
 62
     1
100
AcDbVertex
100
AcDb2dVertex
 10
526.211589
 20
128.334708
 30
0.0
  0
VERTEX
  5
6CC
100
AcDbEntity
  8
LAY-9
  6
CONTINUOUS
 62
     1
100
AcDbVertex
100
AcDb2dVertex
 10
526.761194
 20
129.226902
 30
0.0
  0
VERTEX
  5
6CD
100
AcDbEntity
  8
LAY-9
  6
CONTINUOUS
 62
     1
100
AcDbVertex
100
AcDb2dVertex
 10
527.42678
 20
130.376377
 30
0.0
  0
VERTEX
  5
6CE
100
AcDbEntity
  8
LAY-9
  6
CONTINUOUS
 62
     1
100
AcDbVertex
100
AcDb2dVertex
 10
528.148425
 20
131.725674
 30
0.0
  0
VERTEX
  5
6CF
100
AcDbEntity
  8
LAY-9
  6
CONTINUOUS
 62
     1
100
AcDbVertex
100
AcDb2dVertex
 10
528.866209
 20
133.217334
 30
0.0
  0
VERTEX
  5
6D0
100
AcDbEntity
  8
LAY-9
  6
CONTINUOUS
 62
     1
100
AcDbVertex
100
AcDb2dVertex
 10
529.520212
 20
134.793897
 30
0.0
  0
VERTEX
  5
6D1
100
AcDbEntity
  8
LAY-9
  6
CONTINUOUS
 62
     1
100
AcDbVertex
100
AcDb2dVertex
 10
530.050513
 20
136.397905
 30
0.0
  0
VERTEX
  5
6D2
100
AcDbEntity
  8
LAY-9
  6
CONTINUOUS
 62
     1
100
AcDbVertex
100
AcDb2dVertex
 10
530.397192
 20
137.971897
 30
0.0
  0
VERTEX
  5
6D3
100
AcDbEntity
  8
LAY-9
  6
CONTINUOUS
 62
     1
100
AcDbVertex
100
AcDb2dVertex
 10
530.500327
 20
139.458416
 30
0.0
  0
VERTEX
  5
6D4
100
AcDbEntity
  8
LAY-9
  6
CONTINUOUS
 62
     1
100
AcDbVertex
100
AcDb2dVertex
 10
530.3
 20
140.8
 30
0.0
  0
VERTEX
  5
6D5
100
AcDbEntity
  8
LAY-9
  6
CONTINUOUS
 62
     1
100
AcDbVertex
100
AcDb2dVertex
 10
530.021774
 20
141.503364
 30
0.0
  0
VERTEX
  5
6D6
100
AcDbEntity
  8
LAY-9
  6
CONTINUOUS
 62
     1
100
AcDbVertex
100
AcDb2dVertex
 10
529.641259
 20
142.149581
 30
0.0
  0
VERTEX
  5
6D7
100
AcDbEntity
  8
LAY-9
  6
CONTINUOUS
 62
     1
100
AcDbVertex
100
AcDb2dVertex
 10
529.182255
 20
142.751729
 30
0.0
  0
VERTEX
  5
6D8
100
AcDbEntity
  8
LAY-9
  6
CONTINUOUS
 62
     1
100
AcDbVertex
100
AcDb2dVertex
 10
528.668561
 20
143.322888
 30
0.0
  0
VERTEX
  5
6D9
100
AcDbEntity
  8
LAY-9
  6
CONTINUOUS
 62
     1
100
AcDbVertex
100
AcDb2dVertex
 10
528.123978
 20
143.876138
 30
0.0
  0
VERTEX
  5
6DA
100
AcDbEntity
  8
LAY-9
  6
CONTINUOUS
 62
     1
100
AcDbVertex
100
AcDb2dVertex
 10
527.572304
 20
144.424558
 30
0.0
  0
VERTEX
  5
6DB
100
AcDbEntity
  8
LAY-9
  6
CONTINUOUS
 62
     1
100
AcDbVertex
100
AcDb2dVertex
 10
527.037341
 20
144.981229
 30
0.0
  0
VERTEX
  5
6DC
100
AcDbEntity
  8
LAY-9
  6
CONTINUOUS
 62
     1
100
AcDbVertex
100
AcDb2dVertex
 10
526.542887
 20
145.559229
 30
0.0
  0
VERTEX
  5
6DD
100
AcDbEntity
  8
LAY-9
  6
CONTINUOUS
 62
     1
100
AcDbVertex
100
AcDb2dVertex
 10
526.112743
 20
146.171638
 30
0.0
  0
VERTEX
  5
6DE
100
AcDbEntity
  8
LAY-9
  6
CONTINUOUS
 62
     1
100
AcDbVertex
100
AcDb2dVertex
 10
525.770709
 20
146.831536
 30
0.0
  0
VERTEX
  5
6DF
100
AcDbEntity
  8
LAY-9
  6
CONTINUOUS
 62
     1
100
AcDbVertex
100
AcDb2dVertex
 10
525.540584
 20
147.552002
 30
0.0
  0
VERTEX
  5
6E0
100
AcDbEntity
  8
LAY-9
  6
CONTINUOUS
 62
     1
100
AcDbVertex
100
AcDb2dVertex
 10
525.435087
 20
148.750797
 30
0.0
  0
VERTEX
  5
6E1
100
AcDbEntity
  8
LAY-9
  6
CONTINUOUS
 62
     1
100
AcDbVertex
100
AcDb2dVertex
 10
525.580185
 20
150.064769
 30
0.0
  0
VERTEX
  5
6E2
100
AcDbEntity
  8
LAY-9
  6
CONTINUOUS
 62
     1
100
AcDbVertex
100
AcDb2dVertex
 10
525.925195
 20
151.445595
 30
0.0
  0
VERTEX
  5
6E3
100
AcDbEntity
  8
LAY-9
  6
CONTINUOUS
 62
     1
100
AcDbVertex
100
AcDb2dVertex
 10
526.419432
 20
152.844949
 30
0.0
  0
VERTEX
  5
6E4
100
AcDbEntity
  8
LAY-9
  6
CONTINUOUS
 62
     1
100
AcDbVertex
100
AcDb2dVertex
 10
527.012213
 20
154.214507
 30
0.0
  0
VERTEX
  5
6E5
100
AcDbEntity
  8
LAY-9
  6
CONTINUOUS
 62
     1
100
AcDbVertex
100
AcDb2dVertex
 10
527.652853
 20
155.505946
 30
0.0
  0
VERTEX
  5
6E6
100
AcDbEntity
  8
LAY-9
  6
CONTINUOUS
 62
     1
100
AcDbVertex
100
AcDb2dVertex
 10
528.290669
 20
156.670941
 30
0.0
  0
VERTEX
  5
6E7
100
AcDbEntity
  8
LAY-9
  6
CONTINUOUS
 62
     1
100
AcDbVertex
100
AcDb2dVertex
 10
528.874975
 20
157.661168
 30
0.0
  0
VERTEX
  5
6E8
100
AcDbEntity
  8
LAY-9
  6
CONTINUOUS
 62
     1
100
AcDbVertex
100
AcDb2dVertex
 10
529.355088
 20
158.428303
 30
0.0
  0
VERTEX
  5
6E9
100
AcDbEntity
  8
LAY-9
  6
CONTINUOUS
 62
     1
100
AcDbVertex
100
AcDb2dVertex
 10
529.680325
 20
158.924022
 30
0.0
  0
VERTEX
  5
6EA
100
AcDbEntity
  8
LAY-9
  6
CONTINUOUS
 62
     1
100
AcDbVertex
100
AcDb2dVertex
 10
529.8
 20
159.1
 30
0.0
  0
SEQEND
  5
6EB
100
AcDbEntity
  8
LAY-9
  6
CONTINUOUS
 62
     1
  0
LINE
  5
6EC
100
AcDbEntity
  8
LAY-9
  6
CONTINUOUS
 62
     1
100
AcDbLine
 10
406.511948
 20
147.552002
 30
0.0
 11
411.011948
 21
152.052002
 31
0.0
  0
LINE
  5
6ED
100
AcDbEntity
  8
LAY-9
  6
CONTINUOUS
 62
     1
100
AcDbLine
 10
409.340375
 20
147.552002
 30
0.0
 11
413.840375
 21
152.052002
 31
0.0
  0
LINE
  5
6EE
100
AcDbEntity
  8
LAY-9
  6
CONTINUOUS
 62
     1
100
AcDbLine
 10
431.511948
 20
147.552002
 30
0.0
 11
436.011948
 21
152.052002
 31
0.0
  0
LINE
  5
6EF
100
AcDbEntity
  8
LAY-9
  6
CONTINUOUS
 62
     1
100
AcDbLine
 10
434.340375
 20
147.552002
 30
0.0
 11
438.840375
 21
152.052002
 31
0.0
  0
LINE
  5
6F0
100
AcDbEntity
  8
LAY-9
  6
CONTINUOUS
 62
     1
100
AcDbLine
 10
451.511948
 20
147.552002
 30
0.0
 11
456.011948
 21
152.052002
 31
0.0
  0
LINE
  5
6F1
100
AcDbEntity
  8
LAY-9
  6
CONTINUOUS
 62
     1
100
AcDbLine
 10
454.340375
 20
147.552002
 30
0.0
 11
458.840375
 21
152.052002
 31
0.0
  0
LINE
  5
6F2
100
AcDbEntity
  8
LAY-9
  6
CONTINUOUS
 62
     1
100
AcDbLine
 10
481.511948
 20
147.552002
 30
0.0
 11
486.011948
 21
152.052002
 31
0.0
  0
LINE
  5
6F3
100
AcDbEntity
  8
LAY-9
  6
CONTINUOUS
 62
     1
100
AcDbLine
 10
484.340375
 20
147.552002
 30
0.0
 11
488.840375
 21
152.052002
 31
0.0
  0
LINE
  5
6F4
100
AcDbEntity
  8
LAY-9
  6
CONTINUOUS
 62
     1
100
AcDbLine
 10
506.511948
 20
147.552002
 30
0.0
 11
511.011948
 21
152.052002
 31
0.0
  0
LINE
  5
6F5
100
AcDbEntity
  8
LAY-9
  6
CONTINUOUS
 62
     1
100
AcDbLine
 10
509.340375
 20
147.552002
 30
0.0
 11
513.840375
 21
152.052002
 31
0.0
  0
LINE
  5
6F6
100
AcDbEntity
  8
LAY-9
  6
CONTINUOUS
 62
     1
100
AcDbLine
 10
367.7
 20
419.809814
 30
0.0
 11
391.0
 21
419.809814
 31
0.0
  0
LINE
  5
6F7
100
AcDbEntity
  8
LAY-9
  6
CONTINUOUS
 62
     1
100
AcDbLine
 10
367.7
 20
416.809814
 30
0.0
 11
390.0
 21
416.809814
 31
0.0
  0
LINE
  5
6F8
100
AcDbEntity
  8
LAY-9
  6
CONTINUOUS
 62
     1
100
AcDbLine
 10
131.721344
 20
419.809814
 30
0.0
 11
153.75
 21
419.809814
 31
0.0
  0
LINE
  5
6F9
100
AcDbEntity
  8
LAY-9
  6
CONTINUOUS
 62
     1
100
AcDbLine
 10
134.721344
 20
416.809814
 30
0.0
 11
178.721329
 21
416.809814
 31
0.0
  0
LINE
  5
6FA
100
AcDbEntity
  8
LAY-9
  6
CONTINUOUS
 62
     1
100
AcDbLine
 10
643.078461
 20
486.009811
 30
0.0
 11
645.478339
 21
486.009811
 31
0.0
  0
LINE
  5
6FB
100
AcDbEntity
  8
LAY-9
  6
CONTINUOUS
 62
     1
100
AcDbLine
 10
678.8
 20
486.009811
 30
0.0
 11
679.878461
 21
486.009811
 31
0.0
  0
LINE
  5
6FC
100
AcDbEntity
  8
LAY-9
  6
CONTINUOUS
 62
     1
100
AcDbLine
 10
131.721344
 20
181.599939
 30
0.0
 11
131.721344
 21
95.052063
 31
0.0
  0
LINE
  5
6FD
100
AcDbEntity
  8
LAY-9
  6
CONTINUOUS
 62
     1
100
AcDbLine
 10
174.721344
 20
99.552063
 30
0.0
 11
131.721344
 21
99.552063
 31
0.0
  0
POLYLINE
  5
6FE
100
AcDbEntity
  8
LAY-9
  6
CONTINUOUS
 62
     1
100
AcDb2dPolyline
 66
     1
 10
0.0
 20
0.0
 30
0.0
 70
   128
  0
VERTEX
  5
6FF
100
AcDbEntity
  8
LAY-9
  6
CONTINUOUS
 62
     1
100
AcDbVertex
100
AcDb2dVertex
 10
524.6
 20
90.004065
 30
0.0
  0
VERTEX
  5
700
100
AcDbEntity
  8
LAY-9
  6
CONTINUOUS
 62
     1
100
AcDbVertex
100
AcDb2dVertex
 10
524.737884
 20
90.209318
 30
0.0
  0
VERTEX
  5
701
100
AcDbEntity
  8
LAY-9
  6
CONTINUOUS
 62
     1
100
AcDbVertex
100
AcDb2dVertex
 10
525.111589
 20
90.786771
 30
0.0
  0
VERTEX
  5
702
100
AcDbEntity
  8
LAY-9
  6
CONTINUOUS
 62
     1
100
AcDbVertex
100
AcDb2dVertex
 10
525.661194
 20
91.678965
 30
0.0
  0
VERTEX
  5
703
100
AcDbEntity
  8
LAY-9
  6
CONTINUOUS
 62
     1
100
AcDbVertex
100
AcDb2dVertex
 10
526.32678
 20
92.82844
 30
0.0
  0
VERTEX
  5
704
100
AcDbEntity
  8
LAY-9
  6
CONTINUOUS
 62
     1
100
AcDbVertex
100
AcDb2dVertex
 10
527.048425
 20
94.177737
 30
0.0
  0
VERTEX
  5
705
100
AcDbEntity
  8
LAY-9
  6
CONTINUOUS
 62
     1
100
AcDbVertex
100
AcDb2dVertex
 10
527.766209
 20
95.669397
 30
0.0
  0
VERTEX
  5
706
100
AcDbEntity
  8
LAY-9
  6
CONTINUOUS
 62
     1
100
AcDbVertex
100
AcDb2dVertex
 10
528.420212
 20
97.24596
 30
0.0
  0
VERTEX
  5
707
100
AcDbEntity
  8
LAY-9
  6
CONTINUOUS
 62
     1
100
AcDbVertex
100
AcDb2dVertex
 10
528.950513
 20
98.849968
 30
0.0
  0
VERTEX
  5
708
100
AcDbEntity
  8
LAY-9
  6
CONTINUOUS
 62
     1
100
AcDbVertex
100
AcDb2dVertex
 10
529.297192
 20
100.42396
 30
0.0
  0
VERTEX
  5
709
100
AcDbEntity
  8
LAY-9
  6
CONTINUOUS
 62
     1
100
AcDbVertex
100
AcDb2dVertex
 10
529.400327
 20
101.910479
 30
0.0
  0
VERTEX
  5
70A
100
AcDbEntity
  8
LAY-9
  6
CONTINUOUS
 62
     1
100
AcDbVertex
100
AcDb2dVertex
 10
529.2
 20
103.252063
 30
0.0
  0
VERTEX
  5
70B
100
AcDbEntity
  8
LAY-9
  6
CONTINUOUS
 62
     1
100
AcDbVertex
100
AcDb2dVertex
 10
528.921774
 20
103.955427
 30
0.0
  0
VERTEX
  5
70C
100
AcDbEntity
  8
LAY-9
  6
CONTINUOUS
 62
     1
100
AcDbVertex
100
AcDb2dVertex
 10
528.541259
 20
104.601644
 30
0.0
  0
VERTEX
  5
70D
100
AcDbEntity
  8
LAY-9
  6
CONTINUOUS
 62
     1
100
AcDbVertex
100
AcDb2dVertex
 10
528.082255
 20
105.203792
 30
0.0
  0
VERTEX
  5
70E
100
AcDbEntity
  8
LAY-9
  6
CONTINUOUS
 62
     1
100
AcDbVertex
100
AcDb2dVertex
 10
527.568561
 20
105.774951
 30
0.0
  0
VERTEX
  5
70F
100
AcDbEntity
  8
LAY-9
  6
CONTINUOUS
 62
     1
100
AcDbVertex
100
AcDb2dVertex
 10
527.023978
 20
106.328201
 30
0.0
  0
VERTEX
  5
710
100
AcDbEntity
  8
LAY-9
  6
CONTINUOUS
 62
     1
100
AcDbVertex
100
AcDb2dVertex
 10
526.472304
 20
106.876621
 30
0.0
  0
VERTEX
  5
711
100
AcDbEntity
  8
LAY-9
  6
CONTINUOUS
 62
     1
100
AcDbVertex
100
AcDb2dVertex
 10
525.937341
 20
107.433292
 30
0.0
  0
VERTEX
  5
712
100
AcDbEntity
  8
LAY-9
  6
CONTINUOUS
 62
     1
100
AcDbVertex
100
AcDb2dVertex
 10
525.442887
 20
108.011292
 30
0.0
  0
VERTEX
  5
713
100
AcDbEntity
  8
LAY-9
  6
CONTINUOUS
 62
     1
100
AcDbVertex
100
AcDb2dVertex
 10
525.012743
 20
108.623701
 30
0.0
  0
VERTEX
  5
714
100
AcDbEntity
  8
LAY-9
  6
CONTINUOUS
 62
     1
100
AcDbVertex
100
AcDb2dVertex
 10
524.670709
 20
109.283599
 30
0.0
  0
VERTEX
  5
715
100
AcDbEntity
  8
LAY-9
  6
CONTINUOUS
 62
     1
100
AcDbVertex
100
AcDb2dVertex
 10
524.440584
 20
110.004065
 30
0.0
  0
VERTEX
  5
716
100
AcDbEntity
  8
LAY-9
  6
CONTINUOUS
 62
     1
100
AcDbVertex
100
AcDb2dVertex
 10
524.335087
 20
111.20286
 30
0.0
  0
VERTEX
  5
717
100
AcDbEntity
  8
LAY-9
  6
CONTINUOUS
 62
     1
100
AcDbVertex
100
AcDb2dVertex
 10
524.480185
 20
112.516832
 30
0.0
  0
VERTEX
  5
718
100
AcDbEntity
  8
LAY-9
  6
CONTINUOUS
 62
     1
100
AcDbVertex
100
AcDb2dVertex
 10
524.825195
 20
113.897658
 30
0.0
  0
VERTEX
  5
719
100
AcDbEntity
  8
LAY-9
  6
CONTINUOUS
 62
     1
100
AcDbVertex
100
AcDb2dVertex
 10
525.319432
 20
115.297012
 30
0.0
  0
VERTEX
  5
71A
100
AcDbEntity
  8
LAY-9
  6
CONTINUOUS
 62
     1
100
AcDbVertex
100
AcDb2dVertex
 10
525.912213
 20
116.66657
 30
0.0
  0
VERTEX
  5
71B
100
AcDbEntity
  8
LAY-9
  6
CONTINUOUS
 62
     1
100
AcDbVertex
100
AcDb2dVertex
 10
526.552853
 20
117.958009
 30
0.0
  0
VERTEX
  5
71C
100
AcDbEntity
  8
LAY-9
  6
CONTINUOUS
 62
     1
100
AcDbVertex
100
AcDb2dVertex
 10
527.190669
 20
119.123004
 30
0.0
  0
VERTEX
  5
71D
100
AcDbEntity
  8
LAY-9
  6
CONTINUOUS
 62
     1
100
AcDbVertex
100
AcDb2dVertex
 10
527.774975
 20
120.113231
 30
0.0
  0
VERTEX
  5
71E
100
AcDbEntity
  8
LAY-9
  6
CONTINUOUS
 62
     1
100
AcDbVertex
100
AcDb2dVertex
 10
528.255088
 20
120.880366
 30
0.0
  0
VERTEX
  5
71F
100
AcDbEntity
  8
LAY-9
  6
CONTINUOUS
 62
     1
100
AcDbVertex
100
AcDb2dVertex
 10
528.580325
 20
121.376085
 30
0.0
  0
VERTEX
  5
720
100
AcDbEntity
  8
LAY-9
  6
CONTINUOUS
 62
     1
100
AcDbVertex
100
AcDb2dVertex
 10
528.7
 20
121.552063
 30
0.0
  0
SEQEND
  5
721
100
AcDbEntity
  8
LAY-9
  6
CONTINUOUS
 62
     1
  0
LINE
  5
722
100
AcDbEntity
  8
LAY-9
  6
CONTINUOUS
 62
     1
100
AcDbLine
 10
244.721344
 20
99.552063
 30
0.0
 11
529.105152
 21
99.552063
 31
0.0
  0
LINE
  5
723
100
AcDbEntity
  8
LAY-9
  6
CONTINUOUS
 62
     1
100
AcDbLine
 10
505.971573
 20
95.052063
 30
0.0
 11
510.471573
 21
99.552063
 31
0.0
  0
LINE
  5
724
100
AcDbEntity
  8
LAY-9
  6
CONTINUOUS
 62
     1
100
AcDbLine
 10
508.8
 20
95.052063
 30
0.0
 11
513.3
 21
99.552063
 31
0.0
  0
LINE
  5
725
100
AcDbEntity
  8
LAY-9
  6
CONTINUOUS
 62
     1
100
AcDbLine
 10
479.571573
 20
95.052063
 30
0.0
 11
484.071573
 21
99.552063
 31
0.0
  0
LINE
  5
726
100
AcDbEntity
  8
LAY-9
  6
CONTINUOUS
 62
     1
100
AcDbLine
 10
482.4
 20
95.052063
 30
0.0
 11
486.9
 21
99.552063
 31
0.0
  0
LINE
  5
727
100
AcDbEntity
  8
LAY-9
  6
CONTINUOUS
 62
     1
100
AcDbLine
 10
451.371573
 20
95.052063
 30
0.0
 11
455.871573
 21
99.552063
 31
0.0
  0
LINE
  5
728
100
AcDbEntity
  8
LAY-9
  6
CONTINUOUS
 62
     1
100
AcDbLine
 10
454.2
 20
95.052063
 30
0.0
 11
458.7
 21
99.552063
 31
0.0
  0
LINE
  5
729
100
AcDbEntity
  8
LAY-9
  6
CONTINUOUS
 62
     1
100
AcDbLine
 10
431.371573
 20
95.052063
 30
0.0
 11
435.871573
 21
99.552063
 31
0.0
  0
LINE
  5
72A
100
AcDbEntity
  8
LAY-9
  6
CONTINUOUS
 62
     1
100
AcDbLine
 10
434.2
 20
95.052063
 30
0.0
 11
438.7
 21
99.552063
 31
0.0
  0
LINE
  5
72B
100
AcDbEntity
  8
LAY-9
  6
CONTINUOUS
 62
     1
100
AcDbLine
 10
406.671573
 20
95.052063
 30
0.0
 11
411.171573
 21
99.552063
 31
0.0
  0
LINE
  5
72C
100
AcDbEntity
  8
LAY-9
  6
CONTINUOUS
 62
     1
100
AcDbLine
 10
409.5
 20
95.052063
 30
0.0
 11
414.0
 21
99.552063
 31
0.0
  0
LINE
  5
72D
100
AcDbEntity
  8
LAY-9
  6
CONTINUOUS
 62
     1
100
AcDbLine
 10
381.471573
 20
95.052063
 30
0.0
 11
385.971573
 21
99.552063
 31
0.0
  0
LINE
  5
72E
100
AcDbEntity
  8
LAY-9
  6
CONTINUOUS
 62
     1
100
AcDbLine
 10
384.3
 20
95.052063
 30
0.0
 11
388.8
 21
99.552063
 31
0.0
  0
LINE
  5
72F
100
AcDbEntity
  8
LAY-9
  6
CONTINUOUS
 62
     1
100
AcDbLine
 10
357.171573
 20
95.052063
 30
0.0
 11
361.671573
 21
99.552063
 31
0.0
  0
LINE
  5
730
100
AcDbEntity
  8
LAY-9
  6
CONTINUOUS
 62
     1
100
AcDbLine
 10
360.0
 20
95.052063
 30
0.0
 11
364.5
 21
99.552063
 31
0.0
  0
LINE
  5
731
100
AcDbEntity
  8
LAY-9
  6
CONTINUOUS
 62
     1
100
AcDbLine
 10
328.171573
 20
95.052063
 30
0.0
 11
332.671573
 21
99.552063
 31
0.0
  0
LINE
  5
732
100
AcDbEntity
  8
LAY-9
  6
CONTINUOUS
 62
     1
100
AcDbLine
 10
331.0
 20
95.052063
 30
0.0
 11
335.5
 21
99.552063
 31
0.0
  0
LINE
  5
733
100
AcDbEntity
  8
LAY-9
  6
CONTINUOUS
 62
     1
100
AcDbLine
 10
298.771573
 20
95.052063
 30
0.0
 11
303.271573
 21
99.552063
 31
0.0
  0
LINE
  5
734
100
AcDbEntity
  8
LAY-9
  6
CONTINUOUS
 62
     1
100
AcDbLine
 10
301.6
 20
95.052063
 30
0.0
 11
306.1
 21
99.552063
 31
0.0
  0
LINE
  5
735
100
AcDbEntity
  8
LAY-9
  6
CONTINUOUS
 62
     1
100
AcDbLine
 10
271.871573
 20
95.052063
 30
0.0
 11
276.371573
 21
99.552063
 31
0.0
  0
LINE
  5
736
100
AcDbEntity
  8
LAY-9
  6
CONTINUOUS
 62
     1
100
AcDbLine
 10
274.7
 20
95.052063
 30
0.0
 11
279.2
 21
99.552063
 31
0.0
  0
LINE
  5
737
100
AcDbEntity
  8
LAY-9
  6
CONTINUOUS
 62
     1
100
AcDbLine
 10
158.271573
 20
95.052063
 30
0.0
 11
162.771573
 21
99.552063
 31
0.0
  0
LINE
  5
738
100
AcDbEntity
  8
LAY-9
  6
CONTINUOUS
 62
     1
100
AcDbLine
 10
161.1
 20
95.052063
 30
0.0
 11
165.6
 21
99.552063
 31
0.0
  0
LINE
  5
739
100
AcDbEntity
  8
LAY-9
  6
CONTINUOUS
 62
     1
100
AcDbLine
 10
183.471573
 20
95.052063
 30
0.0
 11
187.971573
 21
99.552063
 31
0.0
  0
LINE
  5
73A
100
AcDbEntity
  8
LAY-9
  6
CONTINUOUS
 62
     1
100
AcDbLine
 10
186.3
 20
95.052063
 30
0.0
 11
190.8
 21
99.552063
 31
0.0
  0
LINE
  5
73B
100
AcDbEntity
  8
LAY-9
  6
CONTINUOUS
 62
     1
100
AcDbLine
 10
132.671573
 20
95.052063
 30
0.0
 11
137.171573
 21
99.552063
 31
0.0
  0
LINE
  5
73C
100
AcDbEntity
  8
LAY-9
  6
CONTINUOUS
 62
     1
100
AcDbLine
 10
135.5
 20
95.052063
 30
0.0
 11
140.0
 21
99.552063
 31
0.0
  0
LINE
  5
73D
100
AcDbEntity
  8
LAY-9
  6
CONTINUOUS
 62
     1
100
AcDbLine
 10
131.721344
 20
95.052063
 30
0.0
 11
527.469149
 21
95.052063
 31
0.0
  0
LINE
  5
73E
100
AcDbEntity
  8
LAY-9
  6
CONTINUOUS
 62
     1
100
AcDbLine
 10
681.478461
 20
325.952074
 30
0.0
 11
682.878461
 21
325.952074
 31
0.0
  0
ARC
  5
73F
100
AcDbEntity
  8
LAY-9
  6
CONTINUOUS
 62
     1
100
AcDbCircle
 10
682.878461
 20
325.952074
 30
0.0
 40
1.6
100
AcDbArc
 50
0.0
 51
90.0
  0
LINE
  5
740
100
AcDbEntity
  8
LAY-9
  6
CONTINUOUS
 62
     1
100
AcDbLine
 10
684.478461
 20
324.552074
 30
0.0
 11
743.328656
 21
324.552074
 31
0.0
  0
POLYLINE
  5
741
100
AcDbEntity
  8
LAY-9
  6
CONTINUOUS
 62
     1
100
AcDb2dPolyline
 66
     1
 10
0.0
 20
0.0
 30
0.0
 70
   128
  0
VERTEX
  5
742
100
AcDbEntity
  8
LAY-9
  6
CONTINUOUS
 62
     1
100
AcDbVertex
100
AcDb2dVertex
 10
743.328656
 20
324.552074
 30
0.0
  0
VERTEX
  5
743
100
AcDbEntity
  8
LAY-9
  6
CONTINUOUS
 62
     1
100
AcDbVertex
100
AcDb2dVertex
 10
743.360444
 20
324.439071
 30
0.0
  0
VERTEX
  5
744
100
AcDbEntity
  8
LAY-9
  6
CONTINUOUS
 62
     1
100
AcDbVertex
100
AcDb2dVertex
 10
743.448052
 20
324.118312
 30
0.0
  0
VERTEX
  5
745
100
AcDbEntity
  8
LAY-9
  6
CONTINUOUS
 62
     1
100
AcDbVertex
100
AcDb2dVertex
 10
743.579845
 20
323.617178
 30
0.0
  0
VERTEX
  5
746
100
AcDbEntity
  8
LAY-9
  6
CONTINUOUS
 62
     1
100
AcDbVertex
100
AcDb2dVertex
 10
743.744188
 20
322.963046
 30
0.0
  0
VERTEX
  5
747
100
AcDbEntity
  8
LAY-9
  6
CONTINUOUS
 62
     1
100
AcDbVertex
100
AcDb2dVertex
 10
743.929447
 20
322.183295
 30
0.0
  0
VERTEX
  5
748
100
AcDbEntity
  8
LAY-9
  6
CONTINUOUS
 62
     1
100
AcDbVertex
100
AcDb2dVertex
 10
744.123985
 20
321.305305
 30
0.0
  0
VERTEX
  5
749
100
AcDbEntity
  8
LAY-9
  6
CONTINUOUS
 62
     1
100
AcDbVertex
100
AcDb2dVertex
 10
744.316168
 20
320.356453
 30
0.0
  0
VERTEX
  5
74A
100
AcDbEntity
  8
LAY-9
  6
CONTINUOUS
 62
     1
100
AcDbVertex
100
AcDb2dVertex
 10
744.494362
 20
319.364119
 30
0.0
  0
VERTEX
  5
74B
100
AcDbEntity
  8
LAY-9
  6
CONTINUOUS
 62
     1
100
AcDbVertex
100
AcDb2dVertex
 10
744.646931
 20
318.355682
 30
0.0
  0
VERTEX
  5
74C
100
AcDbEntity
  8
LAY-9
  6
CONTINUOUS
 62
     1
100
AcDbVertex
100
AcDb2dVertex
 10
744.762241
 20
317.35852
 30
0.0
  0
VERTEX
  5
74D
100
AcDbEntity
  8
LAY-9
  6
CONTINUOUS
 62
     1
100
AcDbVertex
100
AcDb2dVertex
 10
744.828656
 20
316.400011
 30
0.0
  0
VERTEX
  5
74E
100
AcDbEntity
  8
LAY-9
  6
CONTINUOUS
 62
     1
100
AcDbVertex
100
AcDb2dVertex
 10
744.84011
 20
315.672256
 30
0.0
  0
VERTEX
  5
74F
100
AcDbEntity
  8
LAY-9
  6
CONTINUOUS
 62
     1
100
AcDbVertex
100
AcDb2dVertex
 10
744.814769
 20
314.983419
 30
0.0
  0
VERTEX
  5
750
100
AcDbEntity
  8
LAY-9
  6
CONTINUOUS
 62
     1
100
AcDbVertex
100
AcDb2dVertex
 10
744.755046
 20
314.32965
 30
0.0
  0
VERTEX
  5
751
100
AcDbEntity
  8
LAY-9
  6
CONTINUOUS
 62
     1
100
AcDbVertex
100
AcDb2dVertex
 10
744.663348
 20
313.707101
 30
0.0
  0
VERTEX
  5
752
100
AcDbEntity
  8
LAY-9
  6
CONTINUOUS
 62
     1
100
AcDbVertex
100
AcDb2dVertex
 10
744.542087
 20
313.111921
 30
0.0
  0
VERTEX
  5
753
100
AcDbEntity
  8
LAY-9
  6
CONTINUOUS
 62
     1
100
AcDbVertex
100
AcDb2dVertex
 10
744.393672
 20
312.540261
 30
0.0
  0
VERTEX
  5
754
100
AcDbEntity
  8
LAY-9
  6
CONTINUOUS
 62
     1
100
AcDbVertex
100
AcDb2dVertex
 10
744.220515
 20
311.988271
 30
0.0
  0
VERTEX
  5
755
100
AcDbEntity
  8
LAY-9
  6
CONTINUOUS
 62
     1
100
AcDbVertex
100
AcDb2dVertex
 10
744.025024
 20
311.4521
 30
0.0
  0
VERTEX
  5
756
100
AcDbEntity
  8
LAY-9
  6
CONTINUOUS
 62
     1
100
AcDbVertex
100
AcDb2dVertex
 10
743.809611
 20
310.9279
 30
0.0
  0
VERTEX
  5
757
100
AcDbEntity
  8
LAY-9
  6
CONTINUOUS
 62
     1
100
AcDbVertex
100
AcDb2dVertex
 10
743.576685
 20
310.411821
 30
0.0
  0
VERTEX
  5
758
100
AcDbEntity
  8
LAY-9
  6
CONTINUOUS
 62
     1
100
AcDbVertex
100
AcDb2dVertex
 10
743.328656
 20
309.900011
 30
0.0
  0
VERTEX
  5
759
100
AcDbEntity
  8
LAY-9
  6
CONTINUOUS
 62
     1
100
AcDbVertex
100
AcDb2dVertex
 10
743.054454
 20
309.360778
 30
0.0
  0
VERTEX
  5
75A
100
AcDbEntity
  8
LAY-9
  6
CONTINUOUS
 62
     1
100
AcDbVertex
100
AcDb2dVertex
 10
742.775196
 20
308.817949
 30
0.0
  0
VERTEX
  5
75B
100
AcDbEntity
  8
LAY-9
  6
CONTINUOUS
 62
     1
100
AcDbVertex
100
AcDb2dVertex
 10
742.499938
 20
308.267459
 30
0.0
  0
VERTEX
  5
75C
100
AcDbEntity
  8
LAY-9
  6
CONTINUOUS
 62
     1
100
AcDbVertex
100
AcDb2dVertex
 10
742.237737
 20
307.705243
 30
0.0
  0
VERTEX
  5
75D
100
AcDbEntity
  8
LAY-9
  6
CONTINUOUS
 62
     1
100
AcDbVertex
100
AcDb2dVertex
 10
741.997649
 20
307.127238
 30
0.0
  0
VERTEX
  5
75E
100
AcDbEntity
  8
LAY-9
  6
CONTINUOUS
 62
     1
100
AcDbVertex
100
AcDb2dVertex
 10
741.78873
 20
306.529378
 30
0.0
  0
VERTEX
  5
75F
100
AcDbEntity
  8
LAY-9
  6
CONTINUOUS
 62
     1
100
AcDbVertex
100
AcDb2dVertex
 10
741.620037
 20
305.9076
 30
0.0
  0
VERTEX
  5
760
100
AcDbEntity
  8
LAY-9
  6
CONTINUOUS
 62
     1
100
AcDbVertex
100
AcDb2dVertex
 10
741.500627
 20
305.257838
 30
0.0
  0
VERTEX
  5
761
100
AcDbEntity
  8
LAY-9
  6
CONTINUOUS
 62
     1
100
AcDbVertex
100
AcDb2dVertex
 10
741.439556
 20
304.576029
 30
0.0
  0
VERTEX
  5
762
100
AcDbEntity
  8
LAY-9
  6
CONTINUOUS
 62
     1
100
AcDbVertex
100
AcDb2dVertex
 10
741.44588
 20
303.858109
 30
0.0
  0
VERTEX
  5
763
100
AcDbEntity
  8
LAY-9
  6
CONTINUOUS
 62
     1
100
AcDbVertex
100
AcDb2dVertex
 10
741.528656
 20
303.100011
 30
0.0
  0
VERTEX
  5
764
100
AcDbEntity
  8
LAY-9
  6
CONTINUOUS
 62
     1
100
AcDbVertex
100
AcDb2dVertex
 10
741.681428
 20
302.346704
 30
0.0
  0
VERTEX
  5
765
100
AcDbEntity
  8
LAY-9
  6
CONTINUOUS
 62
     1
100
AcDbVertex
100
AcDb2dVertex
 10
741.894757
 20
301.57324
 30
0.0
  0
VERTEX
  5
766
100
AcDbEntity
  8
LAY-9
  6
CONTINUOUS
 62
     1
100
AcDbVertex
100
AcDb2dVertex
 10
742.15282
 20
300.798983
 30
0.0
  0
VERTEX
  5
767
100
AcDbEntity
  8
LAY-9
  6
CONTINUOUS
 62
     1
100
AcDbVertex
100
AcDb2dVertex
 10
742.439791
 20
300.043297
 30
0.0
  0
VERTEX
  5
768
100
AcDbEntity
  8
LAY-9
  6
CONTINUOUS
 62
     1
100
AcDbVertex
100
AcDb2dVertex
 10
742.739843
 20
299.325546
 30
0.0
  0
VERTEX
  5
769
100
AcDbEntity
  8
LAY-9
  6
CONTINUOUS
 62
     1
100
AcDbVertex
100
AcDb2dVertex
 10
743.037152
 20
298.665091
 30
0.0
  0
VERTEX
  5
76A
100
AcDbEntity
  8
LAY-9
  6
CONTINUOUS
 62
     1
100
AcDbVertex
100
AcDb2dVertex
 10
743.315892
 20
298.081299
 30
0.0
  0
VERTEX
  5
76B
100
AcDbEntity
  8
LAY-9
  6
CONTINUOUS
 62
     1
100
AcDbVertex
100
AcDb2dVertex
 10
743.560238
 20
297.593531
 30
0.0
  0
VERTEX
  5
76C
100
AcDbEntity
  8
LAY-9
  6
CONTINUOUS
 62
     1
100
AcDbVertex
100
AcDb2dVertex
 10
743.754364
 20
297.221151
 30
0.0
  0
VERTEX
  5
76D
100
AcDbEntity
  8
LAY-9
  6
CONTINUOUS
 62
     1
100
AcDbVertex
100
AcDb2dVertex
 10
743.882446
 20
296.983524
 30
0.0
  0
VERTEX
  5
76E
100
AcDbEntity
  8
LAY-9
  6
CONTINUOUS
 62
     1
100
AcDbVertex
100
AcDb2dVertex
 10
743.928656
 20
296.900011
 30
0.0
  0
SEQEND
  5
76F
100
AcDbEntity
  8
LAY-9
  6
CONTINUOUS
 62
     1
  0
LINE
  5
770
100
AcDbEntity
  8
LAY-9
  6
CONTINUOUS
 62
     1
100
AcDbLine
 10
684.478461
 20
325.952074
 30
0.0
 11
684.478461
 21
297.552074
 31
0.0
  0
LINE
  5
771
100
AcDbEntity
  8
LAY-9
  6
CONTINUOUS
 62
     1
100
AcDbLine
 10
682.878461
 20
325.952074
 30
0.0
 11
682.878461
 21
297.552074
 31
0.0
  0
LINE
  5
772
100
AcDbEntity
  8
LAY-9
  6
CONTINUOUS
 62
     1
100
AcDbLine
 10
684.478461
 20
297.552074
 30
0.0
 11
682.878461
 21
297.552074
 31
0.0
  0
LINE
  5
773
100
AcDbEntity
  8
LAY-9
  6
CONTINUOUS
 62
     1
100
AcDbLine
 10
640.078461
 20
325.952074
 30
0.0
 11
640.078461
 21
297.552074
 31
0.0
  0
LINE
  5
774
100
AcDbEntity
  8
LAY-9
  6
CONTINUOUS
 62
     1
100
AcDbLine
 10
638.478461
 20
325.952074
 30
0.0
 11
638.478461
 21
297.552074
 31
0.0
  0
LINE
  5
775
100
AcDbEntity
  8
LAY-9
  6
CONTINUOUS
 62
     1
100
AcDbLine
 10
638.478461
 20
297.552074
 30
0.0
 11
640.078461
 21
297.552074
 31
0.0
  0
ARC
  5
776
100
AcDbEntity
  8
LAY-9
  6
CONTINUOUS
 62
     1
100
AcDbCircle
 10
640.078461
 20
325.952074
 30
0.0
 40
1.6
100
AcDbArc
 50
90.0
 51
180.0
  0
LINE
  5
777
100
AcDbEntity
  8
LAY-9
  6
CONTINUOUS
 62
     1
100
AcDbLine
 10
641.478461
 20
325.952074
 30
0.0
 11
640.078461
 21
325.952074
 31
0.0
  0
LINE
  5
778
100
AcDbEntity
  8
LAY-9
  6
CONTINUOUS
 62
     1
100
AcDbLine
 10
640.078461
 20
301.051885
 30
0.0
 11
682.878461
 21
301.051885
 31
0.0
  0
LINE
  5
779
100
AcDbEntity
  8
LAY-9
  6
CONTINUOUS
 62
     1
100
AcDbLine
 10
674.628427
 20
305.551885
 30
0.0
 11
670.128458
 21
301.051916
 31
0.0
  0
LINE
  5
77A
100
AcDbEntity
  8
LAY-9
  6
CONTINUOUS
 62
     1
100
AcDbLine
 10
671.8
 20
305.551885
 30
0.0
 11
667.300031
 21
301.051916
 31
0.0
  0
LINE
  5
77B
100
AcDbEntity
  8
LAY-9
  6
CONTINUOUS
 62
     1
100
AcDbLine
 10
653.128427
 20
305.551885
 30
0.0
 11
648.628458
 21
301.051916
 31
0.0
  0
LINE
  5
77C
100
AcDbEntity
  8
LAY-9
  6
CONTINUOUS
 62
     1
100
AcDbLine
 10
650.3
 20
305.551885
 30
0.0
 11
645.800031
 21
301.051916
 31
0.0
  0
LINE
  5
77D
100
AcDbEntity
  8
LAY-9
  6
CONTINUOUS
 62
     1
100
AcDbLine
 10
638.478461
 20
324.552074
 30
0.0
 11
579.628266
 21
324.552074
 31
0.0
  0
POLYLINE
  5
77E
100
AcDbEntity
  8
LAY-9
  6
CONTINUOUS
 62
     1
100
AcDb2dPolyline
 66
     1
 10
0.0
 20
0.0
 30
0.0
 70
   128
  0
VERTEX
  5
77F
100
AcDbEntity
  8
LAY-9
  6
CONTINUOUS
 62
     1
100
AcDbVertex
100
AcDb2dVertex
 10
579.628266
 20
324.552074
 30
0.0
  0
VERTEX
  5
780
100
AcDbEntity
  8
LAY-9
  6
CONTINUOUS
 62
     1
100
AcDbVertex
100
AcDb2dVertex
 10
579.596478
 20
324.439071
 30
0.0
  0
VERTEX
  5
781
100
AcDbEntity
  8
LAY-9
  6
CONTINUOUS
 62
     1
100
AcDbVertex
100
AcDb2dVertex
 10
579.50887
 20
324.118312
 30
0.0
  0
VERTEX
  5
782
100
AcDbEntity
  8
LAY-9
  6
CONTINUOUS
 62
     1
100
AcDbVertex
100
AcDb2dVertex
 10
579.377077
 20
323.617178
 30
0.0
  0
VERTEX
  5
783
100
AcDbEntity
  8
LAY-9
  6
CONTINUOUS
 62
     1
100
AcDbVertex
100
AcDb2dVertex
 10
579.212734
 20
322.963046
 30
0.0
  0
VERTEX
  5
784
100
AcDbEntity
  8
LAY-9
  6
CONTINUOUS
 62
     1
100
AcDbVertex
100
AcDb2dVertex
 10
579.027475
 20
322.183295
 30
0.0
  0
VERTEX
  5
785
100
AcDbEntity
  8
LAY-9
  6
CONTINUOUS
 62
     1
100
AcDbVertex
100
AcDb2dVertex
 10
578.832937
 20
321.305305
 30
0.0
  0
VERTEX
  5
786
100
AcDbEntity
  8
LAY-9
  6
CONTINUOUS
 62
     1
100
AcDbVertex
100
AcDb2dVertex
 10
578.640754
 20
320.356453
 30
0.0
  0
VERTEX
  5
787
100
AcDbEntity
  8
LAY-9
  6
CONTINUOUS
 62
     1
100
AcDbVertex
100
AcDb2dVertex
 10
578.46256
 20
319.364119
 30
0.0
  0
VERTEX
  5
788
100
AcDbEntity
  8
LAY-9
  6
CONTINUOUS
 62
     1
100
AcDbVertex
100
AcDb2dVertex
 10
578.309991
 20
318.355682
 30
0.0
  0
VERTEX
  5
789
100
AcDbEntity
  8
LAY-9
  6
CONTINUOUS
 62
     1
100
AcDbVertex
100
AcDb2dVertex
 10
578.194681
 20
317.35852
 30
0.0
  0
VERTEX
  5
78A
100
AcDbEntity
  8
LAY-9
  6
CONTINUOUS
 62
     1
100
AcDbVertex
100
AcDb2dVertex
 10
578.128266
 20
316.400011
 30
0.0
  0
VERTEX
  5
78B
100
AcDbEntity
  8
LAY-9
  6
CONTINUOUS
 62
     1
100
AcDbVertex
100
AcDb2dVertex
 10
578.116812
 20
315.672256
 30
0.0
  0
VERTEX
  5
78C
100
AcDbEntity
  8
LAY-9
  6
CONTINUOUS
 62
     1
100
AcDbVertex
100
AcDb2dVertex
 10
578.142153
 20
314.983419
 30
0.0
  0
VERTEX
  5
78D
100
AcDbEntity
  8
LAY-9
  6
CONTINUOUS
 62
     1
100
AcDbVertex
100
AcDb2dVertex
 10
578.201876
 20
314.32965
 30
0.0
  0
VERTEX
  5
78E
100
AcDbEntity
  8
LAY-9
  6
CONTINUOUS
 62
     1
100
AcDbVertex
100
AcDb2dVertex
 10
578.293574
 20
313.707101
 30
0.0
  0
VERTEX
  5
78F
100
AcDbEntity
  8
LAY-9
  6
CONTINUOUS
 62
     1
100
AcDbVertex
100
AcDb2dVertex
 10
578.414835
 20
313.111921
 30
0.0
  0
VERTEX
  5
790
100
AcDbEntity
  8
LAY-9
  6
CONTINUOUS
 62
     1
100
AcDbVertex
100
AcDb2dVertex
 10
578.56325
 20
312.540261
 30
0.0
  0
VERTEX
  5
791
100
AcDbEntity
  8
LAY-9
  6
CONTINUOUS
 62
     1
100
AcDbVertex
100
AcDb2dVertex
 10
578.736407
 20
311.988271
 30
0.0
  0
VERTEX
  5
792
100
AcDbEntity
  8
LAY-9
  6
CONTINUOUS
 62
     1
100
AcDbVertex
100
AcDb2dVertex
 10
578.931898
 20
311.4521
 30
0.0
  0
VERTEX
  5
793
100
AcDbEntity
  8
LAY-9
  6
CONTINUOUS
 62
     1
100
AcDbVertex
100
AcDb2dVertex
 10
579.147311
 20
310.9279
 30
0.0
  0
VERTEX
  5
794
100
AcDbEntity
  8
LAY-9
  6
CONTINUOUS
 62
     1
100
AcDbVertex
100
AcDb2dVertex
 10
579.380237
 20
310.411821
 30
0.0
  0
VERTEX
  5
795
100
AcDbEntity
  8
LAY-9
  6
CONTINUOUS
 62
     1
100
AcDbVertex
100
AcDb2dVertex
 10
579.628266
 20
309.900011
 30
0.0
  0
VERTEX
  5
796
100
AcDbEntity
  8
LAY-9
  6
CONTINUOUS
 62
     1
100
AcDbVertex
100
AcDb2dVertex
 10
579.902468
 20
309.360778
 30
0.0
  0
VERTEX
  5
797
100
AcDbEntity
  8
LAY-9
  6
CONTINUOUS
 62
     1
100
AcDbVertex
100
AcDb2dVertex
 10
580.181726
 20
308.817949
 30
0.0
  0
VERTEX
  5
798
100
AcDbEntity
  8
LAY-9
  6
CONTINUOUS
 62
     1
100
AcDbVertex
100
AcDb2dVertex
 10
580.456984
 20
308.267459
 30
0.0
  0
VERTEX
  5
799
100
AcDbEntity
  8
LAY-9
  6
CONTINUOUS
 62
     1
100
AcDbVertex
100
AcDb2dVertex
 10
580.719185
 20
307.705243
 30
0.0
  0
VERTEX
  5
79A
100
AcDbEntity
  8
LAY-9
  6
CONTINUOUS
 62
     1
100
AcDbVertex
100
AcDb2dVertex
 10
580.959273
 20
307.127238
 30
0.0
  0
VERTEX
  5
79B
100
AcDbEntity
  8
LAY-9
  6
CONTINUOUS
 62
     1
100
AcDbVertex
100
AcDb2dVertex
 10
581.168192
 20
306.529378
 30
0.0
  0
VERTEX
  5
79C
100
AcDbEntity
  8
LAY-9
  6
CONTINUOUS
 62
     1
100
AcDbVertex
100
AcDb2dVertex
 10
581.336885
 20
305.9076
 30
0.0
  0
VERTEX
  5
79D
100
AcDbEntity
  8
LAY-9
  6
CONTINUOUS
 62
     1
100
AcDbVertex
100
AcDb2dVertex
 10
581.456295
 20
305.257838
 30
0.0
  0
VERTEX
  5
79E
100
AcDbEntity
  8
LAY-9
  6
CONTINUOUS
 62
     1
100
AcDbVertex
100
AcDb2dVertex
 10
581.517366
 20
304.576029
 30
0.0
  0
VERTEX
  5
79F
100
AcDbEntity
  8
LAY-9
  6
CONTINUOUS
 62
     1
100
AcDbVertex
100
AcDb2dVertex
 10
581.511042
 20
303.858109
 30
0.0
  0
VERTEX
  5
7A0
100
AcDbEntity
  8
LAY-9
  6
CONTINUOUS
 62
     1
100
AcDbVertex
100
AcDb2dVertex
 10
581.428266
 20
303.100011
 30
0.0
  0
VERTEX
  5
7A1
100
AcDbEntity
  8
LAY-9
  6
CONTINUOUS
 62
     1
100
AcDbVertex
100
AcDb2dVertex
 10
581.275494
 20
302.346704
 30
0.0
  0
VERTEX
  5
7A2
100
AcDbEntity
  8
LAY-9
  6
CONTINUOUS
 62
     1
100
AcDbVertex
100
AcDb2dVertex
 10
581.062165
 20
301.57324
 30
0.0
  0
VERTEX
  5
7A3
100
AcDbEntity
  8
LAY-9
  6
CONTINUOUS
 62
     1
100
AcDbVertex
100
AcDb2dVertex
 10
580.804102
 20
300.798983
 30
0.0
  0
VERTEX
  5
7A4
100
AcDbEntity
  8
LAY-9
  6
CONTINUOUS
 62
     1
100
AcDbVertex
100
AcDb2dVertex
 10
580.517131
 20
300.043297
 30
0.0
  0
VERTEX
  5
7A5
100
AcDbEntity
  8
LAY-9
  6
CONTINUOUS
 62
     1
100
AcDbVertex
100
AcDb2dVertex
 10
580.217079
 20
299.325546
 30
0.0
  0
VERTEX
  5
7A6
100
AcDbEntity
  8
LAY-9
  6
CONTINUOUS
 62
     1
100
AcDbVertex
100
AcDb2dVertex
 10
579.91977
 20
298.665091
 30
0.0
  0
VERTEX
  5
7A7
100
AcDbEntity
  8
LAY-9
  6
CONTINUOUS
 62
     1
100
AcDbVertex
100
AcDb2dVertex
 10
579.64103
 20
298.081299
 30
0.0
  0
VERTEX
  5
7A8
100
AcDbEntity
  8
LAY-9
  6
CONTINUOUS
 62
     1
100
AcDbVertex
100
AcDb2dVertex
 10
579.396684
 20
297.593531
 30
0.0
  0
VERTEX
  5
7A9
100
AcDbEntity
  8
LAY-9
  6
CONTINUOUS
 62
     1
100
AcDbVertex
100
AcDb2dVertex
 10
579.202558
 20
297.221151
 30
0.0
  0
VERTEX
  5
7AA
100
AcDbEntity
  8
LAY-9
  6
CONTINUOUS
 62
     1
100
AcDbVertex
100
AcDb2dVertex
 10
579.074476
 20
296.983524
 30
0.0
  0
VERTEX
  5
7AB
100
AcDbEntity
  8
LAY-9
  6
CONTINUOUS
 62
     1
100
AcDbVertex
100
AcDb2dVertex
 10
579.028266
 20
296.900011
 30
0.0
  0
SEQEND
  5
7AC
100
AcDbEntity
  8
LAY-9
  6
CONTINUOUS
 62
     1
  0
LINE
  5
7AD
100
AcDbEntity
  8
LAY-10
  6
CONTINUOUS
 62
     5
100
AcDbLine
 10
15.0
 20
15.0
 30
0.0
 11
826.0
 21
15.0
 31
0.0
  0
LINE
  5
7AE
100
AcDbEntity
  8
LAY-10
  6
CONTINUOUS
 62
     5
100
AcDbLine
 10
826.0
 20
15.0
 30
0.0
 11
826.0
 21
579.0
 31
0.0
  0
LINE
  5
7AF
100
AcDbEntity
  8
LAY-10
  6
CONTINUOUS
 62
     5
100
AcDbLine
 10
15.0
 20
15.0
 30
0.0
 11
15.0
 21
579.0
 31
0.0
  0
LINE
  5
7B0
100
AcDbEntity
  8
LAY-10
  6
CONTINUOUS
 62
     5
100
AcDbLine
 10
15.0
 20
579.0
 30
0.0
 11
826.0
 21
579.0
 31
0.0
  0
LINE
  5
7B1
100
AcDbEntity
  8
LAY-10
  6
CONTINUOUS
 62
     5
100
AcDbLine
 10
15.0
 20
40.0
 30
0.0
 11
826.0
 21
40.0
 31
0.0
  0
LINE
  5
7B2
100
AcDbEntity
  8
LAY-10
  6
CONTINUOUS
 62
     1
100
AcDbLine
 10
224.0
 20
40.0
 30
0.0
 11
224.0
 21
15.0
 31
0.0
  0
LINE
  5
7B3
100
AcDbEntity
  8
LAY-10
  6
CONTINUOUS
 62
     1
100
AcDbLine
 10
249.5
 20
40.0
 30
0.0
 11
249.5
 21
15.0
 31
0.0
  0
LINE
  5
7B4
100
AcDbEntity
  8
LAY-10
  6
CONTINUOUS
 62
     1
100
AcDbLine
 10
275.0
 20
40.0
 30
0.0
 11
275.0
 21
15.0
 31
0.0
  0
LINE
  5
7B5
100
AcDbEntity
  8
LAY-10
  6
CONTINUOUS
 62
     1
100
AcDbLine
 10
300.5
 20
40.0
 30
0.0
 11
300.5
 21
15.0
 31
0.0
  0
LINE
  5
7B6
100
AcDbEntity
  8
LAY-10
  6
CONTINUOUS
 62
     1
100
AcDbLine
 10
326.0
 20
40.0
 30
0.0
 11
326.0
 21
15.0
 31
0.0
  0
LINE
  5
7B7
100
AcDbEntity
  8
LAY-10
  6
CONTINUOUS
 62
     1
100
AcDbLine
 10
377.0
 20
40.0
 30
0.0
 11
377.0
 21
15.0
 31
0.0
  0
LINE
  5
7B8
100
AcDbEntity
  8
LAY-10
  6
CONTINUOUS
 62
     1
100
AcDbLine
 10
738.0
 20
40.0
 30
0.0
 11
738.0
 21
15.0
 31
0.0
  0
LINE
  5
7B9
100
AcDbEntity
  8
LAY-10
  6
CONTINUOUS
 62
     1
100
AcDbLine
 10
224.0
 20
32.0
 30
0.0
 11
377.0
 21
32.0
 31
0.0
  0
TEXT
  5
7BA
100
AcDbEntity
  8
LAY-10
  6
CONTINUOUS
 62
     4
100
AcDbText
 10
227.5
 20
33.0
 30
0.0
 40
6.0
  1
検　  図
 41
0.57856
  7
EXCADSTD
 72
     5
 11
246.700001
 21
33.0
 31
0.0
100
AcDbText
  0
TEXT
  5
7BB
100
AcDbEntity
  8
LAY-10
  6
CONTINUOUS
 62
     4
100
AcDbText
 10
253.2
 20
33.0
 30
0.0
 40
6.0
  1
担　　当
 41
0.672
  7
EXCADSTD
 72
     5
 11
272.400001
 21
33.0
 31
0.0
100
AcDbText
  0
TEXT
  5
7BC
100
AcDbEntity
  8
LAY-10
  6
CONTINUOUS
 62
     4
100
AcDbText
 10
278.4
 20
33.0
 30
0.0
 40
6.0
  1
製　　図
 41
0.672
  7
EXCADSTD
 72
     5
 11
297.600001
 21
33.0
 31
0.0
100
AcDbText
  0
TEXT
  5
7BD
100
AcDbEntity
  8
LAY-10
  6
CONTINUOUS
 62
     4
100
AcDbText
 10
303.9
 20
33.0
 30
0.0
 40
6.0
  1
尺　　度
 41
0.672
  7
EXCADSTD
 72
     5
 11
323.100001
 21
33.0
 31
0.0
100
AcDbText
  0
TEXT
  5
7BE
100
AcDbEntity
  8
LAY-10
  6
CONTINUOUS
 62
     4
100
AcDbText
 10
339.5
 20
33.0
 30
0.0
 40
6.0
  1
作成年月日
 41
0.672
  7
EXCADSTD
 72
     5
 11
363.500001
 21
33.0
 31
0.0
100
AcDbText
  0
TEXT
  5
7BF
100
AcDbEntity
  8
LAY-10
  6
CONTINUOUS
 62
   134
100
AcDbText
 10
42.98
 20
20.91
 30
0.0
 40
13.0
  1
日本ドアーチエック製造株式会社
 41
0.653908
  7
EXCADSTD
 72
     5
 11
194.779994
 21
20.91
 31
0.0
100
AcDbText
  0
LINE
  5
7C0
100
AcDbEntity
  8
LAY-10
  6
CONTINUOUS
 62
     1
100
AcDbLine
 10
841.0
 20
0.0
 30
0.0
 11
841.0
 21
2.0
 31
0.0
  0
LINE
  5
7C1
100
AcDbEntity
  8
LAY-10
  6
CONTINUOUS
 62
     1
100
AcDbLine
 10
841.0
 20
592.0
 30
0.0
 11
841.0
 21
594.0
 31
0.0
  0
LINE
  5
7C2
100
AcDbEntity
  8
LAY-10
  6
CONTINUOUS
 62
     1
100
AcDbLine
 10
841.0
 20
594.0
 30
0.0
 11
839.0
 21
594.0
 31
0.0
  0
LINE
  5
7C3
100
AcDbEntity
  8
LAY-10
  6
CONTINUOUS
 62
     1
100
AcDbLine
 10
2.0
 20
594.0
 30
0.0
 11
0.0
 21
594.0
 31
0.0
  0
LINE
  5
7C4
100
AcDbEntity
  8
LAY-10
  6
CONTINUOUS
 62
     1
100
AcDbLine
 10
0.0
 20
594.0
 30
0.0
 11
0.0
 21
592.0
 31
0.0
  0
LINE
  5
7C5
100
AcDbEntity
  8
LAY-10
  6
CONTINUOUS
 62
     1
100
AcDbLine
 10
0.0
 20
2.0
 30
0.0
 11
0.0
 21
0.0
 31
0.0
  0
LINE
  5
7C6
100
AcDbEntity
  8
LAY-10
  6
CONTINUOUS
 62
     1
100
AcDbLine
 10
0.0
 20
0.0
 30
0.0
 11
2.0
 21
0.0
 31
0.0
  0
LINE
  5
7C7
100
AcDbEntity
  8
LAY-10
  6
CONTINUOUS
 62
     1
100
AcDbLine
 10
839.0
 20
0.0
 30
0.0
 11
841.0
 21
0.0
 31
0.0
  0
TEXT
  5
7C8
100
AcDbEntity
  8
LAY-10
  6
CONTINUOUS
 62
     4
100
AcDbText
 10
383.0
 20
33.0
 30
0.0
 40
6.0
  1
図 面 名
 41
0.57856
  7
EXCADSTD
 72
     5
 11
402.200001
 21
33.0
 31
0.0
100
AcDbText
  0
TEXT
  5
7C9
100
AcDbEntity
  8
LAY-10
  6
CONTINUOUS
 62
     4
100
AcDbText
 10
744.0
 20
33.0
 30
0.0
 40
6.0
  1
図面番号
 41
0.672
  7
EXCADSTD
 72
     5
 11
763.200001
 21
33.0
 31
0.0
100
AcDbText
  0
TEXT
  5
7CA
100
AcDbEntity
  8
LAY-10
  6
CONTINUOUS
 62
     2
100
AcDbText
 10
306.5
 20
20.2
 30
0.0
 40
6.0
  1
１／１
 41
0.672
  7
EXCADSTD
 72
     5
 11
320.900001
 21
20.2
 31
0.0
100
AcDbText
  0
TEXT
  5
7CB
100
AcDbEntity
  8
LAY-10
  6
CONTINUOUS
 62
     2
100
AcDbText
 10
406.828367
 20
19.274519
 30
0.0
 40
10.0
  1
ピボットヒンジ　Ｃ－２(沓摺格納型 )　納まり図
 41
0.653429
  7
EXCADSTD
 72
     5
 11
582.828367
 21
19.274519
 31
0.0
100
AcDbText
  0
ENDSEC
  0
SECTION
  2
OBJECTS
  0
DICTIONARY
  5
19
100
AcDbDictionary
  3
ACAD_GROUP
350
1A
  3
ACAD_MLINESTYLE
350
1B
  0
DICTIONARY
  5
1A
102
{ACAD_REACTORS
330
19
102
}
100
AcDbDictionary
  0
DICTIONARY
  5
1B
102
{ACAD_REACTORS
330
19
102
}
100
AcDbDictionary
  3
STANDARD
350
1C
  0
MLINESTYLE
  5
1C
102
{ACAD_REACTORS
330
1B
102
}
100
AcDbMlineStyle
  2
Standard
 70
     0
  3

 62
     0
 51
90.0
 52
90.0
 71
     2
 49
0.5
 62
   256
  6
ByLayer
 49
-0.5
 62
   256
  6
ByLayer
  0
ENDSEC
  0
EOF
