  0
SECTION
  2
HEADER
  9
$ACADVER
  1
AC1014
  9
$ACADMAINTVER
 70
     0
  9
$DWGCODEPAGE
  3
ANSI_932
  9
$INSBASE
 10
0.0
 20
0.0
 30
0.0
  9
$EXTMIN
 10
0.0
 20
0.0
 30
0.0
  9
$EXTMAX
 10
841.0
 20
594.0
 30
0.0
  9
$LIMMIN
 10
0.0
 20
0.0
  9
$LIMMAX
 10
841.0
 20
594.0
  9
$ORTHOMODE
 70
     0
  9
$REGENMODE
 70
     1
  9
$FILLMODE
 70
     1
  9
$QTEXTMODE
 70
     0
  9
$MIRRTEXT
 70
     1
  9
$DRAGMODE
 70
     2
  9
$LTSCALE
 40
1.0
  9
$OSMODE
 70
     0
  9
$ATTMODE
 70
     1
  9
$TEXTSIZE
 40
0.2
  9
$TRACEWID
 40
0.05
  9
$TEXTSTYLE
  7
STANDARD
  9
$CLAYER
  8
LAY-1
  9
$CELTYPE
  6
CONTINUOUS
  9
$CECOLOR
 62
   256
  9
$CELTSCALE
 40
1.0
  9
$DELOBJ
 70
     1
  9
$DISPSILH
 70
     0
  9
$DIMSCALE
 40
1.0
  9
$DIMASZ
 40
0.18
  9
$DIMEXO
 40
0.0625
  9
$DIMDLI
 40
0.38
  9
$DIMRND
 40
0.0
  9
$DIMDLE
 40
0.0
  9
$DIMEXE
 40
0.18
  9
$DIMTP
 40
0.0
  9
$DIMTM
 40
0.0
  9
$DIMTXT
 40
0.18
  9
$DIMCEN
 40
0.09
  9
$DIMTSZ
 40
0.0
  9
$DIMTOL
 70
     0
  9
$DIMLIM
 70
     0
  9
$DIMTIH
 70
     1
  9
$DIMTOH
 70
     1
  9
$DIMSE1
 70
     0
  9
$DIMSE2
 70
     0
  9
$DIMTAD
 70
     0
  9
$DIMZIN
 70
     0
  9
$DIMBLK
  1

  9
$DIMASO
 70
     1
  9
$DIMSHO
 70
     1
  9
$DIMPOST
  1

  9
$DIMAPOST
  1

  9
$DIMALT
 70
     0
  9
$DIMALTD
 70
     2
  9
$DIMALTF
 40
25.4
  9
$DIMLFAC
 40
1.0
  9
$DIMTOFL
 70
     0
  9
$DIMTVP
 40
0.0
  9
$DIMTIX
 70
     0
  9
$DIMSOXD
 70
     0
  9
$DIMSAH
 70
     0
  9
$DIMBLK1
  1

  9
$DIMBLK2
  1

  9
$DIMSTYLE
  2
STANDARD
  9
$DIMCLRD
 70
     0
  9
$DIMCLRE
 70
     0
  9
$DIMCLRT
 70
     0
  9
$DIMTFAC
 40
1.0
  9
$DIMGAP
 40
0.09
  9
$DIMJUST
 70
     0
  9
$DIMSD1
 70
     0
  9
$DIMSD2
 70
     0
  9
$DIMTOLJ
 70
     1
  9
$DIMTZIN
 70
     0
  9
$DIMALTZ
 70
     0
  9
$DIMALTTZ
 70
     0
  9
$DIMFIT
 70
     3
  9
$DIMUPT
 70
     0
  9
$DIMUNIT
 70
     2
  9
$DIMDEC
 70
     4
  9
$DIMTDEC
 70
     4
  9
$DIMALTU
 70
     2
  9
$DIMALTTD
 70
     2
  9
$DIMTXSTY
  7
STANDARD
  9
$DIMAUNIT
 70
     0
  9
$LUNITS
 70
     2
  9
$LUPREC
 70
     4
  9
$SKETCHINC
 40
0.1
  9
$FILLETRAD
 40
0.0
  9
$AUNITS
 70
     0
  9
$AUPREC
 70
     0
  9
$MENU
  1
acad
  9
$ELEVATION
 40
0.0
  9
$PELEVATION
 40
0.0
  9
$THICKNESS
 40
0.0
  9
$LIMCHECK
 70
     0
  9
$BLIPMODE
 70
     1
  9
$CHAMFERA
 40
0.0
  9
$CHAMFERB
 40
0.0
  9
$CHAMFERC
 40
0.0
  9
$CHAMFERD
 40
0.0
  9
$SKPOLY
 70
     0
  9
$TDCREATE
 40
2454542.031614062
  9
$TDUPDATE
 40
2454542.031614062
  9
$TDINDWG
 40
0.0000000000
  9
$TDUSRTIMER
 40
0.0000000000
  9
$USRTIMER
 70
     1
  9
$ANGBASE
 50
0.0
  9
$ANGDIR
 70
     0
  9
$PDMODE
 70
     0
  9
$PDSIZE
 40
0.0
  9
$PLINEWID
 40
0.0
  9
$COORDS
 70
     1
  9
$SPLFRAME
 70
     0
  9
$SPLINETYPE
 70
     6
  9
$SPLINESEGS
 70
     8
  9
$ATTDIA
 70
     0
  9
$ATTREQ
 70
     1
  9
$HANDLING
 70
     1
  9
$HANDSEED
  5
791
  9
$SURFTAB1
 70
     6
  9
$SURFTAB2
 70
     6
  9
$SURFTYPE
 70
     6
  9
$SURFU
 70
     6
  9
$SURFV
 70
     6
  9
$UCSNAME
  2

  9
$UCSORG
 10
0.0
 20
0.0
 30
0.0
  9
$UCSXDIR
 10
1.0
 20
0.0
 30
0.0
  9
$UCSYDIR
 10
0.0
 20
1.0
 30
0.0
  9
$PUCSNAME
  2

  9
$PUCSORG
 10
0.0
 20
0.0
 30
0.0
  9
$PUCSXDIR
 10
1.0
 20
0.0
 30
0.0
  9
$PUCSYDIR
 10
0.0
 20
1.0
 30
0.0
  9
$USERI1
 70
     0
  9
$USERI2
 70
     0
  9
$USERI3
 70
     0
  9
$USERI4
 70
     0
  9
$USERI5
 70
     0
  9
$USERR1
 40
0.0
  9
$USERR2
 40
0.0
  9
$USERR3
 40
0.0
  9
$USERR4
 40
0.0
  9
$USERR5
 40
0.0
  9
$WORLDVIEW
 70
     1
  9
$SHADEDGE
 70
     3
  9
$SHADEDIF
 70
    70
  9
$TILEMODE
 70
     1
  9
$MAXACTVP
 70
    16
  9
$PINSBASE
 10
0.0
 20
0.0
 30
0.0
  9
$PLIMCHECK
 70
     0
  9
$PEXTMIN
 10
1.000000E+20
 20
1.000000E+20
 30
1.000000E+20
  9
$PEXTMAX
 10
-1.000000E+20
 20
-1.000000E+20
 30
-1.000000E+20
  9
$PLIMMIN
 10
0.0
 20
0.0
  9
$PLIMMAX
 10
12.0
 20
9.0
  9
$UNITMODE
 70
     0
  9
$VISRETAIN
 70
     0
  9
$PLINEGEN
 70
     1
  9
$PSLTSCALE
 70
     0
  9
$TREEDEPTH
 70
  3020
  9
$PICKSTYLE
 70
     1
  9
$CMLSTYLE
  2
Standard
  9
$CMLJUST
 70
     0
  9
$CMLSCALE
 40
1.0
  9
$PROXYGRAPHICS
 70
     0
  9
$MEASUREMENT
 70
     0
  0
ENDSEC
  0
SECTION
  2
CLASSES
  0
CLASS
  1
LWPOLYLINE
  2
AcDbPolyline
  3
"AutoCAD"
 90
        0
280
     0
281
     1
  0
CLASS
  1
IMAGE
  2
AcDbRasterImage
  3
ISM
 90
      127
280
     0
281
     1
  0
CLASS
  1
OLE2FRAME
  2
AcDbOle2Frame
  3
""
 90
        0
280
     0
281
     1
  0
CLASS
  1
HATCH
  2
AcDbHatch
  3
"ACAD_SEDONA"
 90
        0
280
     0
281
     1
  0
CLASS
  1
DICTIONARYVAR
  2
AcDbDictionaryVar
  3
"AutoCAD"
 90
        0
280
     0
281
     0
  0
CLASS
  1
RASTERVARIABLES
  2
AcDbRasterVariables
  3
ISM
 90
        0
280
     0
281
     0
  0
CLASS
  1
IMAGEDEF
  2
AcDbRasterImageDef
  3
ISM
 90
        0
280
     0
281
     0
  0
CLASS
  1
IMAGEDEF_REACTOR
  2
AcDbRasterImageDefReactor
  3
ISM
 90
        1
280
     0
281
     0
  0
CLASS
  1
IDBUFFER
  2
AcDbIdBuffer
  3
"Acad"
 90
        0
280
     0
281
     0
  0
CLASS
  1
SPATIAL_FILTER
  2
AcDbSpatialFilter
  3
"Acad"
 90
        0
280
     0
281
     0
  0
CLASS
  1
XRECORD
  2
AcDbXrecord
  3
"<Built In>"
 90
        0
280
     0
281
     0
  0
CLASS
  1
SORTENTSTABLE
  2
AcDbSortentsTable
  3
"AutoCAD"
 90
        0
280
     0
281
     0
  0
CLASS
  1
LAYER_INDEX
  2
AcDbLayerIndex
  3
"Acad"
 90
        0
280
     0
281
     0
  0
CLASS
  1
SPATIAL_INDEX
  2
AcDbSpatialIndex
  3
"Acad"
 90
        0
280
     0
281
     0
  0
CLASS
  1
OBJECT_PTR
  2
CAseDLPNTableRecord
  3
"ASE-LPNTableRecord"
 90
        1
280
     0
281
     0
  0
CLASS
  1
LAYOUT
  2
AcDbLayout
  3
"AutoCAD 2000"
 90
        0
280
     0
281
     0
  0
CLASS
  1
PLOTSETTINGS
  2
AcDbPlotSettings
  3
"AutoCAD 2000"
 90
        0
280
     0
281
     0
  0
CLASS
  1
ACDBDICTIONARYWDFLT
  2
AcDbDictionaryWithDefault
  3
"AutoCAD 2000"
 90
        0
280
     0
281
     0
  0
CLASS
  1
ACDBPLACEHOLDER
  2
AcDbPlaceHolder
  3
"AutoCAD 2000"
 90
        0
280
     0
281
     0
  0
CLASS
  1
VBA_PROJECT
  2
AcDbVbaProject
  3
"acadvba"
 90
        0
280
     0
281
     0
  0
CLASS
  1
WIPEOUT
  2
AcDbWipeout
  3
WipeOut|AutoCAD Express Tool|expresstools@autodesk.com
 90
      127
280
     0
281
     1
  0
CLASS
  1
WIPEOUTVARIABLES
  2
AcDbWipeoutVariables
  3
WipeOut|AutoCAD Express Tool|expresstools@autodesk.com
 90
        0
280
     0
281
     0
  0
CLASS
  1
RTEXT
  2
RText
  3
RText|AutoCAD Express Tool|expresstools@autodesk.com
 90
        0
280
     0
281
     1
  0
CLASS
  1
ARCALIGNEDTEXT
  2
AcDbArcAlignedText
  3
ATEXT|AutoCAD Express Tool|expresstools@autodesk.com
 90
        0
280
     0
281
     1
  0
ENDSEC
  0
SECTION
  2
TABLES
  0
TABLE
  2
VPORT
  5
7
100
AcDbSymbolTable
 70
     1
  0
VPORT
  5
15
100
AcDbSymbolTableRecord
100
AcDbViewportTableRecord
  2
*ACTIVE
 70
     0
 10
0.0
 20
0.0
 11
1.0
 21
1.0
 12
420.5
 22
297.0
 13
0.0
 23
0.0
 14
1.0
 24
1.0
 15
0.0
 25
0.0
 16
0.0
 26
0.0
 36
1.0
 17
0.0
 27
0.0
 37
0.0
 40
594.0
 41
1.722533
 42
50.0
 43
0.0
 44
0.0
 50
0.0
 51
0.0
 71
     0
 72
   100
 73
     1
 74
     1
 75
     0
 76
     0
 77
     0
 78
     0
  0
ENDTAB
  0
TABLE
  2
LTYPE
  5
4
100
AcDbSymbolTable
 70
     9
  0
LTYPE
  5
11
100
AcDbSymbolTableRecord
100
AcDbLinetypeTableRecord
  2
BYBLOCK
 70
    64
  3

 72
    65
 73
     0
 40
0.0
  0
LTYPE
  5
12
100
AcDbSymbolTableRecord
100
AcDbLinetypeTableRecord
  2
BYLAYER
 70
    64
  3

 72
    65
 73
     0
 40
0.0
  0
LTYPE
  5
13
100
AcDbSymbolTableRecord
100
AcDbLinetypeTableRecord
  2
CONTINUOUS
 70
    64
  3
実線
 72
    65
 73
     0
 40
0.0
  0
LTYPE
  5
1D
100
AcDbSymbolTableRecord
100
AcDbLinetypeTableRecord
  2
DASHED
 70
    64
  3
Dashed __ __ __ __ __ __ __ __ __ __ __ __ __ _
 72
    65
 73
     2
 40
19.05
 49
12.7
 74
     0
 49
-6.35
 74
     0
  0
LTYPE
  5
1E
100
AcDbSymbolTableRecord
100
AcDbLinetypeTableRecord
  2
DASHED2
 70
    64
  3
Dashed (.5x) _ _ _ _ _ _ _ _ _ _ _ _ _ _ _ _ _ 
 72
    65
 73
     2
 40
9.525
 49
6.35
 74
     0
 49
-3.175
 74
     0
  0
LTYPE
  5
1F
100
AcDbSymbolTableRecord
100
AcDbLinetypeTableRecord
  2
DASHDOT
 70
    64
  3
Dash dot __ . __ . __ . __ . __ . __ . __ . __
 72
    65
 73
     4
 40
25.4
 49
12.7
 74
     0
 49
-6.35
 74
     0
 49
0.0
 74
     0
 49
-6.35
 74
     0
  0
LTYPE
  5
20
100
AcDbSymbolTableRecord
100
AcDbLinetypeTableRecord
  2
DIVIDE
 70
    64
  3
Divide ____ . . ____ . . ____ . . ____ . . ____
 72
    65
 73
     6
 40
31.75
 49
12.7
 74
     0
 49
-6.35
 74
     0
 49
0.0
 74
     0
 49
-6.35
 74
     0
 49
0.0
 74
     0
 49
-6.35
 74
     0
  0
LTYPE
  5
21
100
AcDbSymbolTableRecord
100
AcDbLinetypeTableRecord
  2
ACAD_ISO06W100
 70
    64
  3
ISO long-dash triple-dot ____ ... ____ ... ____
 72
    65
 73
     8
 40
36.0
 49
24.0
 74
     0
 49
-3.0
 74
     0
 49
0.0
 74
     0
 49
-3.0
 74
     0
 49
0.0
 74
     0
 49
-3.0
 74
     0
 49
0.0
 74
     0
 49
-3.0
 74
     0
  0
LTYPE
  5
22
100
AcDbSymbolTableRecord
100
AcDbLinetypeTableRecord
  2
ACAD_ISO15W100
 70
    64
  3
ISO double-dash triple-dot __ __ . . . __ __ . .
 72
    65
 73
    10
 40
39.0
 49
12.0
 74
     0
 49
-3.0
 74
     0
 49
12.0
 74
     0
 49
-3.0
 74
     0
 49
0.0
 74
     0
 49
-3.0
 74
     0
 49
0.0
 74
     0
 49
-3.0
 74
     0
 49
0.0
 74
     0
 49
-3.0
 74
     0
  0
ENDTAB
  0
TABLE
  2
LAYER
  5
2
100
AcDbSymbolTable
 70
     6
  0
LAYER
  5
14
100
AcDbSymbolTableRecord
100
AcDbLayerTableRecord
  2
0
 70
     0
 62
     7
  6
CONTINUOUS
  0
LAYER
  5
25
100
AcDbSymbolTableRecord
100
AcDbLayerTableRecord
  2
LAY-1
 70
    64
 62
     3
  6
CONTINUOUS
  0
LAYER
  5
26
100
AcDbSymbolTableRecord
100
AcDbLayerTableRecord
  2
LAY-5
 70
    64
 62
     1
  6
DASHDOT
  0
LAYER
  5
27
100
AcDbSymbolTableRecord
100
AcDbLayerTableRecord
  2
LAY-6
 70
    64
 62
     2
  6
CONTINUOUS
  0
LAYER
  5
28
100
AcDbSymbolTableRecord
100
AcDbLayerTableRecord
  2
LAY-9
 70
    64
 62
     1
  6
CONTINUOUS
  0
LAYER
  5
29
100
AcDbSymbolTableRecord
100
AcDbLayerTableRecord
  2
LAY-10
 70
    64
 62
     5
  6
CONTINUOUS
  0
ENDTAB
  0
TABLE
  2
STYLE
  5
3
100
AcDbSymbolTable
 70
     3
  0
STYLE
  5
17
100
AcDbSymbolTableRecord
100
AcDbTextStyleTableRecord
  2
STANDARD
 70
     0
 40
0.0
 41
1.0
 50
0.0
 71
     0
 42
0.0
  3
monotxt
  4
extfont
  0
STYLE
  5
23
100
AcDbSymbolTableRecord
100
AcDbTextStyleTableRecord
  2
EXCADSTD
 70
    64
 40
0.0
 41
1.0
 50
0.0
 71
     0
 42
0.2
  3
monotxt
  4
extfont
  0
STYLE
  5
24
100
AcDbSymbolTableRecord
100
AcDbTextStyleTableRecord
  2
EXCADVERT
 70
    68
 40
0.0
 41
1.0
 50
0.0
 71
     0
 42
0.286885
  3
monotxt
  4
extfont
  0
ENDTAB
  0
TABLE
  2
VIEW
  5
5
100
AcDbSymbolTable
 70
     0
  0
ENDTAB
  0
TABLE
  2
UCS
  5
6
100
AcDbSymbolTable
 70
     0
  0
ENDTAB
  0
TABLE
  2
APPID
  5
8
100
AcDbSymbolTable
 70
     1
  0
APPID
  5
16
100
AcDbSymbolTableRecord
100
AcDbRegAppTableRecord
  2
ACAD
 70
     0
  0
ENDTAB
  0
TABLE
  2
DIMSTYLE
  5
9
100
AcDbSymbolTable
 70
     1
  0
DIMSTYLE
105
18
100
AcDbSymbolTableRecord
100
AcDbDimStyleTableRecord
  2
STANDARD
 70
     0
  3

  4

  5

  6

  7

 40
1.0
 41
0.18
 42
0.0625
 43
0.38
 44
0.18
 45
0.0
 46
0.0
 47
0.0
 48
0.0
 71
     0
 72
     0
 73
     1
 74
     1
 75
     0
 76
     0
 77
     0
 78
     0
140
0.18
141
0.09
142
0.0
143
25.4
144
1.0
145
0.0
146
1.0
147
0.09
170
     0
171
     2
172
     1
173
     0
174
     0
175
     0
176
     0
177
     0
178
     0
270
     2
271
     4
272
     4
273
     2
274
     2
275
     0
280
     0
281
     0
282
     0
283
     1
284
     0
285
     0
286
     0
287
     3
288
     0
340
17
  0
ENDTAB
  0
TABLE
  2
BLOCK_RECORD
  5
1
100
AcDbSymbolTable
 70
    19
  0
BLOCK_RECORD
  5
A
100
AcDbSymbolTableRecord
100
AcDbBlockTableRecord
  2
*MODEL_SPACE
  0
BLOCK_RECORD
  5
B
100
AcDbSymbolTableRecord
100
AcDbBlockTableRecord
  2
*PAPER_SPACE
  0
BLOCK_RECORD
  5
2A
100
AcDbSymbolTableRecord
100
AcDbBlockTableRecord
  2
_EX_NORM
  0
BLOCK_RECORD
  5
2B
100
AcDbSymbolTableRecord
100
AcDbBlockTableRecord
  2
_EX_BNORM
  0
BLOCK_RECORD
  5
2C
100
AcDbSymbolTableRecord
100
AcDbBlockTableRecord
  2
_EX_BCIR
  0
BLOCK_RECORD
  5
2D
100
AcDbSymbolTableRecord
100
AcDbBlockTableRecord
  2
_EX_RCIVIL
  0
BLOCK_RECORD
  5
2E
100
AcDbSymbolTableRecord
100
AcDbBlockTableRecord
  2
_EX_SLANT
  0
BLOCK_RECORD
  5
2F
100
AcDbSymbolTableRecord
100
AcDbBlockTableRecord
  2
_EX_NONE
  0
BLOCK_RECORD
  5
30
100
AcDbSymbolTableRecord
100
AcDbBlockTableRecord
  2
_EX_CIVIL
  0
BLOCK_RECORD
  5
31
100
AcDbSymbolTableRecord
100
AcDbBlockTableRecord
  2
_EX_WCIR
  0
BLOCK_RECORD
  5
32
100
AcDbSymbolTableRecord
100
AcDbBlockTableRecord
  2
_EX_WCIR2
  0
BLOCK_RECORD
  5
33
100
AcDbSymbolTableRecord
100
AcDbBlockTableRecord
  2
_EX_WNORM
  0
BLOCK_RECORD
  5
34
100
AcDbSymbolTableRecord
100
AcDbBlockTableRecord
  2
_EX_NNORM
  0
BLOCK_RECORD
  5
35
100
AcDbSymbolTableRecord
100
AcDbBlockTableRecord
  2
_EX_BBOX
  0
BLOCK_RECORD
  5
36
100
AcDbSymbolTableRecord
100
AcDbBlockTableRecord
  2
_EX_WBOX
  0
BLOCK_RECORD
  5
37
100
AcDbSymbolTableRecord
100
AcDbBlockTableRecord
  2
_EX_INTEGRAL
  0
BLOCK_RECORD
  5
38
100
AcDbSymbolTableRecord
100
AcDbBlockTableRecord
  2
SYM-1
  0
BLOCK_RECORD
  5
39
100
AcDbSymbolTableRecord
100
AcDbBlockTableRecord
  2
SYM-2
  0
BLOCK_RECORD
  5
3A
100
AcDbSymbolTableRecord
100
AcDbBlockTableRecord
  2
SYM-3
  0
BLOCK_RECORD
  5
3B
100
AcDbSymbolTableRecord
100
AcDbBlockTableRecord
  2
SYM-4
  0
BLOCK_RECORD
  5
3C
100
AcDbSymbolTableRecord
100
AcDbBlockTableRecord
  2
SYM-5
  0
ENDTAB
  0
ENDSEC
  0
SECTION
  2
BLOCKS
  0
BLOCK
  5
D
100
AcDbEntity
  8
0
100
AcDbBlockBegin
  2
*MODEL_SPACE
 70
     0
 10
0.0
 20
0.0
 30
0.0
  3
*MODEL_SPACE
  1

  0
ENDBLK
  5
E
100
AcDbEntity
  8
0
100
AcDbBlockEnd
  0
BLOCK
  5
F
100
AcDbEntity
 67
     1
  8
0
100
AcDbBlockBegin
  2
*PAPER_SPACE
 70
     0
 10
0.0
 20
0.0
 30
0.0
  3
*PAPER_SPACE
  1

  0
ENDBLK
  5
10
100
AcDbEntity
 67
     1
  8
0
100
AcDbBlockEnd
  0
BLOCK
  5
3D
100
AcDbEntity
  8
0
100
AcDbBlockBegin
  2
_EX_NORM
 70
     0
 10
0.0
 20
0.0
 30
0.0
  3
_EX_NORM
  1

  0
LINE
  5
3E
100
AcDbEntity
  8
0
  6
CONTINUOUS
 62
     0
100
AcDbLine
 10
0.0
 20
0.0
 30
0.0
 11
-1.0
 21
0.0
 31
0.0
  0
LINE
  5
3F
100
AcDbEntity
  8
0
  6
CONTINUOUS
 62
     0
100
AcDbLine
 10
0.0
 20
0.0
 30
0.0
 11
-1.0
 21
0.166667
 31
0.0
  0
LINE
  5
40
100
AcDbEntity
  8
0
  6
CONTINUOUS
 62
     0
100
AcDbLine
 10
0.0
 20
0.0
 30
0.0
 11
-1.0
 21
-0.166667
 31
0.0
  0
ENDBLK
  5
41
100
AcDbEntity
  8
0
100
AcDbBlockEnd
  0
BLOCK
  5
42
100
AcDbEntity
  8
0
100
AcDbBlockBegin
  2
_EX_BNORM
 70
     0
 10
0.0
 20
0.0
 30
0.0
  3
_EX_BNORM
  1

  0
LINE
  5
43
100
AcDbEntity
  8
0
  6
CONTINUOUS
 62
     0
100
AcDbLine
 10
0.0
 20
0.0
 30
0.0
 11
-1.0
 21
0.0
 31
0.0
  0
LINE
  5
44
100
AcDbEntity
  8
0
  6
CONTINUOUS
 62
     0
100
AcDbLine
 10
0.0
 20
0.0
 30
0.0
 11
-1.0
 21
0.166667
 31
0.0
  0
LINE
  5
45
100
AcDbEntity
  8
0
  6
CONTINUOUS
 62
     0
100
AcDbLine
 10
0.0
 20
0.0
 30
0.0
 11
-1.0
 21
-0.166667
 31
0.0
  0
LINE
  5
46
100
AcDbEntity
  8
0
  6
CONTINUOUS
 62
     0
100
AcDbLine
 10
0.0
 20
0.0
 30
0.0
 11
-1.0
 21
0.083333
 31
0.0
  0
LINE
  5
47
100
AcDbEntity
  8
0
  6
CONTINUOUS
 62
     0
100
AcDbLine
 10
0.0
 20
0.0
 30
0.0
 11
-1.0
 21
-0.083333
 31
0.0
  0
LINE
  5
48
100
AcDbEntity
  8
0
  6
CONTINUOUS
 62
     0
100
AcDbLine
 10
-1.0
 20
0.166667
 30
0.0
 11
-1.0
 21
-0.166667
 31
0.0
  0
ENDBLK
  5
49
100
AcDbEntity
  8
0
100
AcDbBlockEnd
  0
BLOCK
  5
4A
100
AcDbEntity
  8
0
100
AcDbBlockBegin
  2
_EX_BCIR
 70
     0
 10
0.0
 20
0.0
 30
0.0
  3
_EX_BCIR
  1

  0
LINE
  5
4B
100
AcDbEntity
  8
0
  6
CONTINUOUS
 62
     0
100
AcDbLine
 10
0.0
 20
0.0
 30
0.0
 11
-1.0
 21
0.0
 31
0.0
  0
CIRCLE
  5
4C
100
AcDbEntity
  8
0
  6
CONTINUOUS
 62
     0
100
AcDbCircle
 10
0.0
 20
0.0
 30
0.0
 40
0.5
  0
CIRCLE
  5
4D
100
AcDbEntity
  8
0
  6
CONTINUOUS
 62
     0
100
AcDbCircle
 10
0.0
 20
0.0
 30
0.0
 40
0.25
  0
ENDBLK
  5
4E
100
AcDbEntity
  8
0
100
AcDbBlockEnd
  0
BLOCK
  5
4F
100
AcDbEntity
  8
0
100
AcDbBlockBegin
  2
_EX_RCIVIL
 70
     0
 10
0.0
 20
0.0
 30
0.0
  3
_EX_RCIVIL
  1

  0
LINE
  5
50
100
AcDbEntity
  8
0
  6
CONTINUOUS
 62
     0
100
AcDbLine
 10
0.0
 20
0.0
 30
0.0
 11
-1.0
 21
0.0
 31
0.0
  0
LINE
  5
51
100
AcDbEntity
  8
0
  6
CONTINUOUS
 62
     0
100
AcDbLine
 10
-1.0
 20
-0.25
 30
0.0
 11
0.0
 21
-0.25
 31
0.0
  0
LINE
  5
52
100
AcDbEntity
  8
0
  6
CONTINUOUS
 62
     0
100
AcDbLine
 10
-1.0
 20
-0.125
 30
0.0
 11
0.0
 21
-0.125
 31
0.0
  0
ENDBLK
  5
53
100
AcDbEntity
  8
0
100
AcDbBlockEnd
  0
BLOCK
  5
54
100
AcDbEntity
  8
0
100
AcDbBlockBegin
  2
_EX_SLANT
 70
     0
 10
0.0
 20
0.0
 30
0.0
  3
_EX_SLANT
  1

  0
LINE
  5
55
100
AcDbEntity
  8
0
  6
CONTINUOUS
 62
     0
100
AcDbLine
 10
0.0
 20
0.0
 30
0.0
 11
-1.0
 21
0.0
 31
0.0
  0
LINE
  5
56
100
AcDbEntity
  8
0
  6
CONTINUOUS
 62
     0
100
AcDbLine
 10
0.707107
 20
0.707107
 30
0.0
 11
-0.707107
 21
-0.707107
 31
0.0
  0
ENDBLK
  5
57
100
AcDbEntity
  8
0
100
AcDbBlockEnd
  0
BLOCK
  5
58
100
AcDbEntity
  8
0
100
AcDbBlockBegin
  2
_EX_NONE
 70
     0
 10
0.0
 20
0.0
 30
0.0
  3
_EX_NONE
  1

  0
LINE
  5
59
100
AcDbEntity
  8
0
  6
CONTINUOUS
 62
     0
100
AcDbLine
 10
0.0
 20
0.0
 30
0.0
 11
-1.0
 21
0.0
 31
0.0
  0
ENDBLK
  5
5A
100
AcDbEntity
  8
0
100
AcDbBlockEnd
  0
BLOCK
  5
5B
100
AcDbEntity
  8
0
100
AcDbBlockBegin
  2
_EX_CIVIL
 70
     0
 10
0.0
 20
0.0
 30
0.0
  3
_EX_CIVIL
  1

  0
LINE
  5
5C
100
AcDbEntity
  8
0
  6
CONTINUOUS
 62
     0
100
AcDbLine
 10
0.0
 20
0.0
 30
0.0
 11
-1.0
 21
0.0
 31
0.0
  0
LINE
  5
5D
100
AcDbEntity
  8
0
  6
CONTINUOUS
 62
     0
100
AcDbLine
 10
-1.0
 20
0.25
 30
0.0
 11
0.0
 21
0.25
 31
0.0
  0
LINE
  5
5E
100
AcDbEntity
  8
0
  6
CONTINUOUS
 62
     0
100
AcDbLine
 10
-1.0
 20
0.125
 30
0.0
 11
0.0
 21
0.125
 31
0.0
  0
ENDBLK
  5
5F
100
AcDbEntity
  8
0
100
AcDbBlockEnd
  0
BLOCK
  5
60
100
AcDbEntity
  8
0
100
AcDbBlockBegin
  2
_EX_WCIR
 70
     0
 10
0.0
 20
0.0
 30
0.0
  3
_EX_WCIR
  1

  0
LINE
  5
61
100
AcDbEntity
  8
0
  6
CONTINUOUS
 62
     0
100
AcDbLine
 10
0.0
 20
0.0
 30
0.0
 11
-1.0
 21
0.0
 31
0.0
  0
CIRCLE
  5
62
100
AcDbEntity
  8
0
  6
CONTINUOUS
 62
     0
100
AcDbCircle
 10
0.0
 20
0.0
 30
0.0
 40
0.5
  0
ENDBLK
  5
63
100
AcDbEntity
  8
0
100
AcDbBlockEnd
  0
BLOCK
  5
64
100
AcDbEntity
  8
0
100
AcDbBlockBegin
  2
_EX_WCIR2
 70
     0
 10
0.0
 20
0.0
 30
0.0
  3
_EX_WCIR2
  1

  0
LINE
  5
65
100
AcDbEntity
  8
0
  6
CONTINUOUS
 62
     0
100
AcDbLine
 10
-0.5
 20
0.0
 30
0.0
 11
-1.0
 21
0.0
 31
0.0
  0
CIRCLE
  5
66
100
AcDbEntity
  8
0
  6
CONTINUOUS
 62
     0
100
AcDbCircle
 10
0.0
 20
0.0
 30
0.0
 40
0.5
  0
ENDBLK
  5
67
100
AcDbEntity
  8
0
100
AcDbBlockEnd
  0
BLOCK
  5
68
100
AcDbEntity
  8
0
100
AcDbBlockBegin
  2
_EX_WNORM
 70
     0
 10
0.0
 20
0.0
 30
0.0
  3
_EX_WNORM
  1

  0
LINE
  5
69
100
AcDbEntity
  8
0
  6
CONTINUOUS
 62
     0
100
AcDbLine
 10
-1.0
 20
0.0
 30
0.0
 11
-1.0
 21
0.0
 31
0.0
  0
LINE
  5
6A
100
AcDbEntity
  8
0
  6
CONTINUOUS
 62
     0
100
AcDbLine
 10
0.0
 20
0.0
 30
0.0
 11
-1.0
 21
0.166667
 31
0.0
  0
LINE
  5
6B
100
AcDbEntity
  8
0
  6
CONTINUOUS
 62
     0
100
AcDbLine
 10
0.0
 20
0.0
 30
0.0
 11
-1.0
 21
-0.166667
 31
0.0
  0
LINE
  5
6C
100
AcDbEntity
  8
0
  6
CONTINUOUS
 62
     0
100
AcDbLine
 10
-1.0
 20
0.166667
 30
0.0
 11
-1.0
 21
-0.166667
 31
0.0
  0
ENDBLK
  5
6D
100
AcDbEntity
  8
0
100
AcDbBlockEnd
  0
BLOCK
  5
6E
100
AcDbEntity
  8
0
100
AcDbBlockBegin
  2
_EX_NNORM
 70
     0
 10
0.0
 20
0.0
 30
0.0
  3
_EX_NNORM
  1

  0
LINE
  5
6F
100
AcDbEntity
  8
0
  6
CONTINUOUS
 62
     0
100
AcDbLine
 10
0.0
 20
0.0
 30
0.0
 11
-1.0
 21
0.0
 31
0.0
  0
LINE
  5
70
100
AcDbEntity
  8
0
  6
CONTINUOUS
 62
     0
100
AcDbLine
 10
0.0
 20
0.0
 30
0.0
 11
-1.0
 21
0.166667
 31
0.0
  0
LINE
  5
71
100
AcDbEntity
  8
0
  6
CONTINUOUS
 62
     0
100
AcDbLine
 10
0.0
 20
0.0
 30
0.0
 11
-1.0
 21
-0.166667
 31
0.0
  0
LINE
  5
72
100
AcDbEntity
  8
0
  6
CONTINUOUS
 62
     0
100
AcDbLine
 10
-1.0
 20
0.166667
 30
0.0
 11
-1.0
 21
-0.166667
 31
0.0
  0
ENDBLK
  5
73
100
AcDbEntity
  8
0
100
AcDbBlockEnd
  0
BLOCK
  5
74
100
AcDbEntity
  8
0
100
AcDbBlockBegin
  2
_EX_BBOX
 70
     0
 10
0.0
 20
0.0
 30
0.0
  3
_EX_BBOX
  1

  0
LINE
  5
75
100
AcDbEntity
  8
0
  6
CONTINUOUS
 62
     0
100
AcDbLine
 10
0.0
 20
0.0
 30
0.0
 11
-1.0
 21
0.0
 31
0.0
  0
LINE
  5
76
100
AcDbEntity
  8
0
  6
CONTINUOUS
 62
     0
100
AcDbLine
 10
-0.5
 20
0.5
 30
0.0
 11
0.5
 21
0.5
 31
0.0
  0
LINE
  5
77
100
AcDbEntity
  8
0
  6
CONTINUOUS
 62
     0
100
AcDbLine
 10
0.5
 20
0.5
 30
0.0
 11
0.5
 21
-0.5
 31
0.0
  0
LINE
  5
78
100
AcDbEntity
  8
0
  6
CONTINUOUS
 62
     0
100
AcDbLine
 10
0.5
 20
-0.5
 30
0.0
 11
-0.5
 21
-0.5
 31
0.0
  0
LINE
  5
79
100
AcDbEntity
  8
0
  6
CONTINUOUS
 62
     0
100
AcDbLine
 10
-0.5
 20
-0.5
 30
0.0
 11
-0.5
 21
0.5
 31
0.0
  0
LINE
  5
7A
100
AcDbEntity
  8
0
  6
CONTINUOUS
 62
     0
100
AcDbLine
 10
-0.25
 20
0.25
 30
0.0
 11
0.25
 21
0.25
 31
0.0
  0
LINE
  5
7B
100
AcDbEntity
  8
0
  6
CONTINUOUS
 62
     0
100
AcDbLine
 10
0.25
 20
0.25
 30
0.0
 11
0.25
 21
-0.25
 31
0.0
  0
LINE
  5
7C
100
AcDbEntity
  8
0
  6
CONTINUOUS
 62
     0
100
AcDbLine
 10
0.25
 20
-0.25
 30
0.0
 11
-0.25
 21
-0.25
 31
0.0
  0
LINE
  5
7D
100
AcDbEntity
  8
0
  6
CONTINUOUS
 62
     0
100
AcDbLine
 10
-0.25
 20
-0.25
 30
0.0
 11
-0.25
 21
0.25
 31
0.0
  0
ENDBLK
  5
7E
100
AcDbEntity
  8
0
100
AcDbBlockEnd
  0
BLOCK
  5
7F
100
AcDbEntity
  8
0
100
AcDbBlockBegin
  2
_EX_WBOX
 70
     0
 10
0.0
 20
0.0
 30
0.0
  3
_EX_WBOX
  1

  0
LINE
  5
80
100
AcDbEntity
  8
0
  6
CONTINUOUS
 62
     0
100
AcDbLine
 10
-0.5
 20
0.0
 30
0.0
 11
-1.0
 21
0.0
 31
0.0
  0
LINE
  5
81
100
AcDbEntity
  8
0
  6
CONTINUOUS
 62
     0
100
AcDbLine
 10
-0.5
 20
0.5
 30
0.0
 11
0.5
 21
0.5
 31
0.0
  0
LINE
  5
82
100
AcDbEntity
  8
0
  6
CONTINUOUS
 62
     0
100
AcDbLine
 10
0.5
 20
0.5
 30
0.0
 11
0.5
 21
-0.5
 31
0.0
  0
LINE
  5
83
100
AcDbEntity
  8
0
  6
CONTINUOUS
 62
     0
100
AcDbLine
 10
0.5
 20
-0.5
 30
0.0
 11
-0.5
 21
-0.5
 31
0.0
  0
LINE
  5
84
100
AcDbEntity
  8
0
  6
CONTINUOUS
 62
     0
100
AcDbLine
 10
-0.5
 20
-0.5
 30
0.0
 11
-0.5
 21
0.5
 31
0.0
  0
ENDBLK
  5
85
100
AcDbEntity
  8
0
100
AcDbBlockEnd
  0
BLOCK
  5
86
100
AcDbEntity
  8
0
100
AcDbBlockBegin
  2
_EX_INTEGRAL
 70
     0
 10
0.0
 20
0.0
 30
0.0
  3
_EX_INTEGRAL
  1

  0
LINE
  5
87
100
AcDbEntity
  8
0
  6
CONTINUOUS
 62
     0
100
AcDbLine
 10
0.0
 20
0.0
 30
0.0
 11
-1.0
 21
0.0
 31
0.0
  0
ARC
  5
88
100
AcDbEntity
  8
0
  6
CONTINUOUS
 62
     0
100
AcDbCircle
 10
0.542115
 20
0.164992
 30
0.0
 40
0.56667
100
AcDbArc
 50
73.07249
 51
196.927513
  0
ARC
  5
89
100
AcDbEntity
  8
0
  6
CONTINUOUS
 62
     0
100
AcDbCircle
 10
-0.542115
 20
-0.164992
 30
0.0
 40
0.56667
100
AcDbArc
 50
253.072487
 51
16.927513
  0
ENDBLK
  5
8A
100
AcDbEntity
  8
0
100
AcDbBlockEnd
  0
BLOCK
  5
8B
100
AcDbEntity
  8
0
100
AcDbBlockBegin
  2
SYM-1
 70
     0
 10
0.0
 20
0.0
 30
0.0
  3
SYM-1
  1

  0
TEXT
  5
8C
100
AcDbEntity
  8
0
  6
CONTINUOUS
 62
     2
100
AcDbText
 10
-1.59
 20
-2.59
 30
0.0
 40
5.0
  1
Ｐ
 41
0.672
  7
EXCADSTD
 72
     5
 11
1.61
 21
-2.59
 31
0.0
100
AcDbText
  0
TEXT
  5
8D
100
AcDbEntity
  8
0
  6
CONTINUOUS
 62
     2
100
AcDbText
 10
-0.69
 20
-2.49
 30
0.0
 40
5.0
  1
Ｌ
 41
0.672
  7
EXCADSTD
 72
     5
 11
2.51
 21
-2.49
 31
0.0
100
AcDbText
  0
ENDBLK
  5
8E
100
AcDbEntity
  8
0
100
AcDbBlockEnd
  0
BLOCK
  5
8F
100
AcDbEntity
  8
0
100
AcDbBlockBegin
  2
SYM-2
 70
     0
 10
0.0
 20
0.0
 30
0.0
  3
SYM-2
  1

  0
TEXT
  5
90
100
AcDbEntity
  8
0
  6
CONTINUOUS
 62
     2
100
AcDbText
 10
-2.828427
 20
-2.828427
 30
0.0
 40
5.656854
  1
３
 41
0.84
  7
EXCADSTD
 72
     5
 11
1.697056
 21
-2.828427
 31
0.0
100
AcDbText
  0
CIRCLE
  5
91
100
AcDbEntity
  8
0
  6
CONTINUOUS
 62
     1
100
AcDbCircle
 10
0.0
 20
0.0
 30
0.0
 40
4.0
  0
TEXT
  5
92
100
AcDbEntity
  8
0
  6
CONTINUOUS
 62
     2
100
AcDbText
 10
6.6
 20
-3.2
 30
0.0
 40
7.0
  1
ア　ー　ム
 41
0.672
  7
EXCADSTD
 72
     5
 11
34.6
 21
-3.2
 31
0.0
100
AcDbText
  0
LINE
  5
93
100
AcDbEntity
  8
0
  6
CONTINUOUS
 62
     1
100
AcDbLine
 10
4.0
 20
-3.7
 30
0.0
 11
34.9
 21
-3.7
 31
0.0
  0
ENDBLK
  5
94
100
AcDbEntity
  8
0
100
AcDbBlockEnd
  0
BLOCK
  5
95
100
AcDbEntity
  8
0
100
AcDbBlockBegin
  2
SYM-3
 70
     0
 10
0.0
 20
0.0
 30
0.0
  3
SYM-3
  1

  0
TEXT
  5
96
100
AcDbEntity
  8
0
  6
CONTINUOUS
 62
     2
100
AcDbText
 10
-2.828427
 20
-2.828427
 30
0.0
 40
5.656854
  1
２
 41
0.84
  7
EXCADSTD
 72
     5
 11
1.697056
 21
-2.828427
 31
0.0
100
AcDbText
  0
CIRCLE
  5
97
100
AcDbEntity
  8
0
  6
CONTINUOUS
 62
     1
100
AcDbCircle
 10
0.0
 20
0.0
 30
0.0
 40
4.0
  0
TEXT
  5
98
100
AcDbEntity
  8
0
  6
CONTINUOUS
 62
     2
100
AcDbText
 10
6.6
 20
-3.2
 30
0.0
 40
7.0
  1
トップピボット（ドア側）
 41
0.672
  7
EXCADSTD
 72
     5
 11
73.799999
 21
-3.2
 31
0.0
100
AcDbText
  0
LINE
  5
99
100
AcDbEntity
  8
0
  6
CONTINUOUS
 62
     1
100
AcDbLine
 10
4.0
 20
-3.7
 30
0.0
 11
71.0
 21
-3.7
 31
0.0
  0
ENDBLK
  5
9A
100
AcDbEntity
  8
0
100
AcDbBlockEnd
  0
BLOCK
  5
9B
100
AcDbEntity
  8
0
100
AcDbBlockBegin
  2
SYM-4
 70
     0
 10
0.0
 20
0.0
 30
0.0
  3
SYM-4
  1

  0
TEXT
  5
9C
100
AcDbEntity
  8
0
  6
CONTINUOUS
 62
     2
100
AcDbText
 10
-2.828427
 20
-2.828427
 30
0.0
 40
5.656854
  1
４
 41
0.84
  7
EXCADSTD
 72
     5
 11
1.697056
 21
-2.828427
 31
0.0
100
AcDbText
  0
CIRCLE
  5
9D
100
AcDbEntity
  8
0
  6
CONTINUOUS
 62
     1
100
AcDbCircle
 10
0.0
 20
0.0
 30
0.0
 40
4.0
  0
TEXT
  5
9E
100
AcDbEntity
  8
0
  6
CONTINUOUS
 62
     2
100
AcDbText
 10
6.6
 20
-3.2
 30
0.0
 40
7.0
  1
床面軸座
 41
0.672
  7
EXCADSTD
 72
     5
 11
29.0
 21
-3.2
 31
0.0
100
AcDbText
  0
LINE
  5
9F
100
AcDbEntity
  8
0
  6
CONTINUOUS
 62
     1
100
AcDbLine
 10
4.0
 20
-3.7
 30
0.0
 11
29.3
 21
-3.7
 31
0.0
  0
ENDBLK
  5
A0
100
AcDbEntity
  8
0
100
AcDbBlockEnd
  0
BLOCK
  5
A1
100
AcDbEntity
  8
0
100
AcDbBlockBegin
  2
SYM-5
 70
     0
 10
0.0
 20
0.0
 30
0.0
  3
SYM-5
  1

  0
TEXT
  5
A2
100
AcDbEntity
  8
0
  6
CONTINUOUS
 62
     2
100
AcDbText
 10
-2.828427
 20
-2.828427
 30
0.0
 40
5.656854
  1
１
 41
0.84
  7
EXCADSTD
 72
     5
 11
1.697056
 21
-2.828427
 31
0.0
100
AcDbText
  0
CIRCLE
  5
A3
100
AcDbEntity
  8
0
  6
CONTINUOUS
 62
     1
100
AcDbCircle
 10
0.0
 20
0.0
 30
0.0
 40
4.0
  0
TEXT
  5
A4
100
AcDbEntity
  8
0
  6
CONTINUOUS
 62
     2
100
AcDbText
 10
6.6
 20
-3.2
 30
0.0
 40
7.0
  1
トップピボット（上枠側）
 41
0.672
  7
EXCADSTD
 72
     5
 11
73.799999
 21
-3.2
 31
0.0
100
AcDbText
  0
LINE
  5
A5
100
AcDbEntity
  8
0
  6
CONTINUOUS
 62
     1
100
AcDbLine
 10
4.0
 20
-3.7
 30
0.0
 11
70.1
 21
-3.7
 31
0.0
  0
ENDBLK
  5
A6
100
AcDbEntity
  8
0
100
AcDbBlockEnd
  0
ENDSEC
  0
SECTION
  2
ENTITIES
  0
CIRCLE
  5
A7
100
AcDbEntity
  8
LAY-1
  6
CONTINUOUS
 62
     3
100
AcDbCircle
 10
175.7
 20
415.199969
 30
0.0
 40
3.5
  0
ARC
  5
A8
100
AcDbEntity
  8
LAY-1
  6
CONTINUOUS
 62
     3
100
AcDbCircle
 10
175.7
 20
415.199969
 30
0.0
 40
6.0
100
AcDbArc
 50
0.0
 51
180.00002
  0
ARC
  5
A9
100
AcDbEntity
  8
LAY-1
  6
CONTINUOUS
 62
     3
100
AcDbCircle
 10
196.7
 20
419.199969
 30
0.0
 40
6.0
100
AcDbArc
 50
305.685646
 51
234.314969
  0
LINE
  5
AA
100
AcDbEntity
  8
LAY-1
  6
CONTINUOUS
 62
     3
100
AcDbLine
 10
191.600025
 20
403.70003
 30
0.0
 11
191.600025
 21
409.70003
 31
0.0
  0
LINE
  5
AB
100
AcDbEntity
  8
LAY-1
  6
CONTINUOUS
 62
     3
100
AcDbLine
 10
201.799976
 20
403.70003
 30
0.0
 11
201.799976
 21
409.70003
 31
0.0
  0
LINE
  5
AC
100
AcDbEntity
  8
LAY-1
  6
CONTINUOUS
 62
     3
100
AcDbLine
 10
191.600025
 20
409.70003
 30
0.0
 11
201.799976
 21
409.70003
 31
0.0
  0
LINE
  5
AD
100
AcDbEntity
  8
LAY-1
  6
CONTINUOUS
 62
     1
100
AcDbLine
 10
192.2
 20
403.70003
 30
0.0
 11
192.2
 21
409.70003
 31
0.0
  0
LINE
  5
AE
100
AcDbEntity
  8
LAY-1
  6
CONTINUOUS
 62
     1
100
AcDbLine
 10
201.2
 20
403.70003
 30
0.0
 11
201.2
 21
409.70003
 31
0.0
  0
LINE
  5
AF
100
AcDbEntity
  8
LAY-1
  6
CONTINUOUS
 62
     3
100
AcDbLine
 10
193.2
 20
414.326586
 30
0.0
 11
193.2
 21
409.70003
 31
0.0
  0
LINE
  5
B0
100
AcDbEntity
  8
LAY-1
  6
CONTINUOUS
 62
     3
100
AcDbLine
 10
200.2
 20
414.326586
 30
0.0
 11
200.2
 21
409.70003
 31
0.0
  0
LINE
  5
B1
100
AcDbEntity
  8
LAY-1
  6
CONTINUOUS
 62
     3
100
AcDbLine
 10
193.2
 20
414.326556
 30
0.0
 11
200.2
 21
414.326556
 31
0.0
  0
LINE
  5
B2
100
AcDbEntity
  8
LAY-1
  6
CONTINUOUS
 62
     3
100
AcDbLine
 10
181.7
 20
415.199969
 30
0.0
 11
181.7
 21
403.70003
 31
0.0
  0
LINE
  5
B3
100
AcDbEntity
  8
LAY-1
  6
CONTINUOUS
 62
     3
100
AcDbLine
 10
169.7
 20
415.199969
 30
0.0
 11
169.7
 21
403.70003
 31
0.0
  0
ARC
  5
B4
100
AcDbEntity
  8
LAY-1
  6
CONTINUOUS
 62
     3
100
AcDbCircle
 10
196.7
 20
419.199969
 30
0.0
 40
11.0
100
AcDbArc
 50
333.214091
 51
359.999982
  0
ARC
  5
B5
100
AcDbEntity
  8
LAY-1
  6
CONTINUOUS
 62
     3
100
AcDbCircle
 10
195.7
 20
421.699969
 30
0.0
 40
12.0
100
AcDbArc
 50
0.0
 51
94.76361
  0
LINE
  5
B6
100
AcDbEntity
  8
LAY-1
  6
CONTINUOUS
 62
     3
100
AcDbLine
 10
207.7
 20
421.699969
 30
0.0
 11
207.7
 21
419.199969
 31
0.0
  0
ARC
  5
B7
100
AcDbEntity
  8
LAY-1
  6
CONTINUOUS
 62
     3
100
AcDbCircle
 10
204.306629
 20
415.596545
 30
0.0
 40
2.5
100
AcDbArc
 50
180.00002
 51
328.367269
  0
LINE
  5
B8
100
AcDbEntity
  8
LAY-1
  6
CONTINUOUS
 62
     3
100
AcDbLine
 10
192.7
 20
414.727832
 30
0.0
 11
192.7
 21
411.992022
 31
0.0
  0
LINE
  5
B9
100
AcDbEntity
  8
LAY-1
  6
CONTINUOUS
 62
     3
100
AcDbLine
 10
181.7
 20
408.611773
 30
0.0
 11
191.929004
 21
411.018603
 31
0.0
  0
ARC
  5
BA
100
AcDbEntity
  8
LAY-1
  6
CONTINUOUS
 62
     3
100
AcDbCircle
 10
191.7
 20
411.992022
 30
0.0
 40
1.0
100
AcDbArc
 50
283.240597
 51
359.999982
  0
LINE
  5
BB
100
AcDbEntity
  8
LAY-1
  6
CONTINUOUS
 62
     3
100
AcDbLine
 10
169.7
 20
407.023516
 30
0.0
 11
159.970569
 21
406.737292
 31
0.0
  0
ARC
  5
BC
100
AcDbEntity
  8
LAY-1
  6
CONTINUOUS
 62
     3
100
AcDbCircle
 10
150.456897
 20
405.457049
 30
0.0
 40
1.0
100
AcDbArc
 50
32.083058
 51
91.684649
  0
ARC
  5
BD
100
AcDbEntity
  8
LAY-1
  6
CONTINUOUS
 62
     3
100
AcDbCircle
 10
159.999988
 20
405.73775
 30
0.0
 40
1.0
100
AcDbArc
 50
91.684764
 51
180.00002
  0
LINE
  5
BE
100
AcDbEntity
  8
LAY-1
  6
CONTINUOUS
 62
     3
100
AcDbLine
 10
158.999988
 20
405.73775
 30
0.0
 11
158.999988
 21
403.699969
 31
0.0
  0
LINE
  5
BF
100
AcDbEntity
  8
LAY-1
  6
DASHED2
 62
     3
100
AcDbLine
 10
158.999988
 20
403.7
 30
0.0
 11
158.999988
 21
398.699969
 31
0.0
  0
LINE
  5
C0
100
AcDbEntity
  8
LAY-1
  6
CONTINUOUS
 62
     3
100
AcDbLine
 10
151.304187
 20
405.988208
 30
0.0
 11
152.738636
 21
403.699969
 31
0.0
  0
LINE
  5
C1
100
AcDbEntity
  8
LAY-1
  6
DASHED2
 62
     3
100
AcDbLine
 10
152.738636
 20
403.699969
 30
0.0
 11
156.206104
 21
398.168811
 31
0.0
  0
LINE
  5
C2
100
AcDbEntity
  8
LAY-1
  6
CONTINUOUS
 62
     3
100
AcDbLine
 10
236.7
 20
397.3
 30
0.0
 11
236.7
 21
396.500012
 31
0.0
  0
LINE
  5
C3
100
AcDbEntity
  8
LAY-1
  6
DASHED2
 62
     3
100
AcDbLine
 10
223.7
 20
396.499981
 30
0.0
 11
211.7
 21
396.499981
 31
0.0
  0
ARC
  5
C4
100
AcDbEntity
  8
LAY-1
  6
DASHED2
 62
     3
100
AcDbCircle
 10
157.053333
 20
398.299969
 30
0.0
 40
1.0
100
AcDbArc
 50
212.083135
 51
270.0
  0
ARC
  5
C5
100
AcDbEntity
  8
LAY-1
  6
DASHED2
 62
     3
100
AcDbCircle
 10
157.999988
 20
398.299969
 30
0.0
 40
1.0
100
AcDbArc
 50
270.0
 51
359.999982
  0
LINE
  5
C6
100
AcDbEntity
  8
LAY-1
  6
CONTINUOUS
 62
     3
100
AcDbLine
 10
49.7
 20
397.3
 30
0.0
 11
49.7
 21
396.500012
 31
0.0
  0
LINE
  5
C7
100
AcDbEntity
  8
LAY-1
  6
DASHED2
 62
     3
100
AcDbLine
 10
59.7
 20
397.3
 30
0.0
 11
71.7
 21
397.3
 31
0.0
  0
LINE
  5
C8
100
AcDbEntity
  8
LAY-1
  6
CONTINUOUS
 62
     3
100
AcDbLine
 10
236.7
 20
397.3
 30
0.0
 11
49.7
 21
397.3
 31
0.0
  0
LINE
  5
C9
100
AcDbEntity
  8
LAY-1
  6
CONTINUOUS
 62
     3
100
AcDbLine
 10
236.7
 20
396.500012
 30
0.0
 11
49.7
 21
396.500012
 31
0.0
  0
LINE
  5
CA
100
AcDbEntity
  8
LAY-1
  6
CONTINUOUS
 62
     3
100
AcDbLine
 10
109.7
 20
437.3
 30
0.0
 11
81.7
 21
437.3
 31
0.0
  0
LINE
  5
CB
100
AcDbEntity
  8
LAY-1
  6
CONTINUOUS
 62
     3
100
AcDbLine
 10
81.7
 20
437.3
 30
0.0
 11
81.7
 21
403.7
 31
0.0
  0
LINE
  5
CC
100
AcDbEntity
  8
LAY-1
  6
CONTINUOUS
 62
     3
100
AcDbLine
 10
109.7
 20
437.3
 30
0.0
 11
109.7
 21
403.7
 31
0.0
  0
LINE
  5
CD
100
AcDbEntity
  8
LAY-1
  6
CONTINUOUS
 62
     3
100
AcDbLine
 10
194.7
 20
433.7
 30
0.0
 11
109.7
 21
411.717211
 31
0.0
  0
LINE
  5
CE
100
AcDbEntity
  8
LAY-1
  6
CONTINUOUS
 62
     3
100
AcDbLine
 10
109.7
 20
405.258791
 30
0.0
 11
150.42754
 21
406.456622
 31
0.0
  0
LINE
  5
CF
100
AcDbEntity
  8
LAY-1
  6
CONTINUOUS
 62
     3
100
AcDbLine
 10
230.7
 20
397.3
 30
0.0
 11
230.7
 21
403.7
 31
0.0
  0
LINE
  5
D0
100
AcDbEntity
  8
LAY-1
  6
DASHED2
 62
     3
100
AcDbLine
 10
62.7
 20
400.8
 30
0.0
 11
68.7
 21
400.8
 31
0.0
  0
LINE
  5
D1
100
AcDbEntity
  8
LAY-1
  6
DASHED2
 62
     3
100
AcDbLine
 10
59.7
 20
397.3
 30
0.0
 11
59.7
 21
397.8
 31
0.0
  0
LINE
  5
D2
100
AcDbEntity
  8
LAY-1
  6
DASHED2
 62
     3
100
AcDbLine
 10
71.7
 20
397.3
 30
0.0
 11
71.7
 21
397.75
 31
0.0
  0
LINE
  5
D3
100
AcDbEntity
  8
LAY-1
  6
DASHED2
 62
     3
100
AcDbLine
 10
62.7
 20
400.8
 30
0.0
 11
59.7
 21
397.8
 31
0.0
  0
LINE
  5
D4
100
AcDbEntity
  8
LAY-1
  6
DASHED2
 62
     3
100
AcDbLine
 10
68.675
 20
400.775
 30
0.0
 11
71.7
 21
397.75
 31
0.0
  0
LINE
  5
D5
100
AcDbEntity
  8
LAY-1
  6
DASHED2
 62
     3
100
AcDbLine
 10
62.7
 20
408.2
 30
0.0
 11
62.7
 21
400.8
 31
0.0
  0
LINE
  5
D6
100
AcDbEntity
  8
LAY-1
  6
DASHED2
 62
     3
100
AcDbLine
 10
68.7
 20
408.2
 30
0.0
 11
68.7
 21
400.75
 31
0.0
  0
LINE
  5
D7
100
AcDbEntity
  8
LAY-1
  6
DASHED2
 62
     3
100
AcDbLine
 10
71.65
 20
397.8
 30
0.0
 11
59.7
 21
397.8
 31
0.0
  0
LINE
  5
D8
100
AcDbEntity
  8
LAY-1
  6
DASHED2
 62
     3
100
AcDbLine
 10
63.2
 20
408.2
 30
0.0
 11
63.2
 21
400.8
 31
0.0
  0
LINE
  5
D9
100
AcDbEntity
  8
LAY-1
  6
DASHED2
 62
     3
100
AcDbLine
 10
68.2
 20
408.2
 30
0.0
 11
68.2
 21
400.81
 31
0.0
  0
LINE
  5
DA
100
AcDbEntity
  8
LAY-1
  6
CONTINUOUS
 62
     3
100
AcDbLine
 10
68.7
 20
413.8
 30
0.0
 11
68.7
 21
408.11
 31
0.0
  0
LINE
  5
DB
100
AcDbEntity
  8
LAY-1
  6
CONTINUOUS
 62
     3
100
AcDbLine
 10
68.2
 20
413.8
 30
0.0
 11
68.2
 21
408.16
 31
0.0
  0
LINE
  5
DC
100
AcDbEntity
  8
LAY-1
  6
CONTINUOUS
 62
     3
100
AcDbLine
 10
62.7
 20
413.8
 30
0.0
 11
62.7
 21
408.16
 31
0.0
  0
LINE
  5
DD
100
AcDbEntity
  8
LAY-1
  6
CONTINUOUS
 62
     3
100
AcDbLine
 10
63.2
 20
413.8
 30
0.0
 11
63.2
 21
408.2
 31
0.0
  0
LINE
  5
DE
100
AcDbEntity
  8
LAY-1
  6
CONTINUOUS
 62
     3
100
AcDbLine
 10
62.7
 20
413.8
 30
0.0
 11
68.7
 21
413.8
 31
0.0
  0
LINE
  5
DF
100
AcDbEntity
  8
LAY-1
  6
DASHED2
 62
     3
100
AcDbLine
 10
217.69997
 20
399.899975
 30
0.0
 11
217.7
 21
399.899975
 31
0.0
  0
LINE
  5
E0
100
AcDbEntity
  8
LAY-1
  6
DASHED2
 62
     3
100
AcDbLine
 10
211.7
 20
396.500012
 30
0.0
 11
211.7
 21
396.499981
 31
0.0
  0
LINE
  5
E1
100
AcDbEntity
  8
LAY-1
  6
DASHED2
 62
     3
100
AcDbLine
 10
217.69997
 20
396.899975
 30
0.0
 11
217.7
 21
396.899975
 31
0.0
  0
LINE
  5
E2
100
AcDbEntity
  8
LAY-1
  6
DASHED2
 62
     3
100
AcDbLine
 10
223.7
 20
396.500012
 30
0.0
 11
223.7
 21
396.499981
 31
0.0
  0
LINE
  5
E3
100
AcDbEntity
  8
LAY-1
  6
DASHED2
 62
     3
100
AcDbLine
 10
211.7
 20
397.3
 30
0.0
 11
211.7
 21
397.8
 31
0.0
  0
LINE
  5
E4
100
AcDbEntity
  8
LAY-1
  6
DASHED2
 62
     3
100
AcDbLine
 10
223.7
 20
397.3
 30
0.0
 11
223.7
 21
397.8
 31
0.0
  0
LINE
  5
E5
100
AcDbEntity
  8
LAY-1
  6
DASHED2
 62
     3
100
AcDbLine
 10
214.69997
 20
400.8
 30
0.0
 11
220.69997
 21
400.8
 31
0.0
  0
LINE
  5
E6
100
AcDbEntity
  8
LAY-1
  6
DASHED2
 62
     3
100
AcDbLine
 10
211.7
 20
397.8
 30
0.0
 11
223.7
 21
397.8
 31
0.0
  0
LINE
  5
E7
100
AcDbEntity
  8
LAY-1
  6
DASHED2
 62
     3
100
AcDbLine
 10
214.699985
 20
400.799985
 30
0.0
 11
211.7
 21
397.8
 31
0.0
  0
LINE
  5
E8
100
AcDbEntity
  8
LAY-1
  6
DASHED2
 62
     3
100
AcDbLine
 10
220.699985
 20
400.800015
 30
0.0
 11
223.7
 21
397.8
 31
0.0
  0
LINE
  5
E9
100
AcDbEntity
  8
LAY-1
  6
CONTINUOUS
 62
     3
100
AcDbLine
 10
214.7
 20
413.8
 30
0.0
 11
214.7
 21
408.2
 31
0.0
  0
LINE
  5
EA
100
AcDbEntity
  8
LAY-1
  6
CONTINUOUS
 62
     3
100
AcDbLine
 10
220.2
 20
413.8
 30
0.0
 11
220.2
 21
408.2
 31
0.0
  0
LINE
  5
EB
100
AcDbEntity
  8
LAY-1
  6
CONTINUOUS
 62
     3
100
AcDbLine
 10
215.2
 20
413.8
 30
0.0
 11
215.2
 21
408.2
 31
0.0
  0
LINE
  5
EC
100
AcDbEntity
  8
LAY-1
  6
DASHED2
 62
     3
100
AcDbLine
 10
214.69997
 20
408.2
 30
0.0
 11
214.7
 21
408.2
 31
0.0
  0
LINE
  5
ED
100
AcDbEntity
  8
LAY-1
  6
DASHED2
 62
     3
100
AcDbLine
 10
220.69997
 20
408.2
 30
0.0
 11
220.7
 21
408.2
 31
0.0
  0
LINE
  5
EE
100
AcDbEntity
  8
LAY-1
  6
CONTINUOUS
 62
     3
100
AcDbLine
 10
214.7
 20
413.8
 30
0.0
 11
220.7
 21
413.8
 31
0.0
  0
LINE
  5
EF
100
AcDbEntity
  8
LAY-1
  6
CONTINUOUS
 62
     3
100
AcDbLine
 10
220.7
 20
413.8
 30
0.0
 11
220.7
 21
408.2
 31
0.0
  0
LINE
  5
F0
100
AcDbEntity
  8
LAY-1
  6
DASHED2
 62
     3
100
AcDbLine
 10
220.19997
 20
408.2
 30
0.0
 11
220.2
 21
408.2
 31
0.0
  0
LINE
  5
F1
100
AcDbEntity
  8
LAY-1
  6
DASHED2
 62
     3
100
AcDbLine
 10
215.19997
 20
408.2
 30
0.0
 11
215.2
 21
408.2
 31
0.0
  0
LINE
  5
F2
100
AcDbEntity
  8
LAY-1
  6
CONTINUOUS
 62
     3
100
AcDbLine
 10
55.7
 20
403.7
 30
0.0
 11
230.7
 21
403.7
 31
0.0
  0
LINE
  5
F3
100
AcDbEntity
  8
LAY-1
  6
CONTINUOUS
 62
     3
100
AcDbLine
 10
55.7
 20
397.4
 30
0.0
 11
55.7
 21
403.7
 31
0.0
  0
LINE
  5
F4
100
AcDbEntity
  8
LAY-1
  6
CONTINUOUS
 62
     3
100
AcDbLine
 10
230.7
 20
394.3
 30
0.0
 11
230.7
 21
387.9
 31
0.0
  0
ARC
  5
F5
100
AcDbEntity
  8
LAY-1
  6
CONTINUOUS
 62
     3
100
AcDbCircle
 10
79.771334
 20
386.9
 30
0.0
 40
1.0
100
AcDbArc
 50
4.236395
 51
90.0
  0
ARC
  5
F6
100
AcDbEntity
  8
LAY-1
  6
CONTINUOUS
 62
     3
100
AcDbCircle
 10
111.628666
 20
386.9
 30
0.0
 40
1.0
100
AcDbArc
 50
90.0
 51
175.763605
  0
LINE
  5
F7
100
AcDbEntity
  8
LAY-1
  6
CONTINUOUS
 62
     3
100
AcDbLine
 10
105.2
 20
396.500012
 30
0.0
 11
105.2
 21
394.3
 31
0.0
  0
LINE
  5
F8
100
AcDbEntity
  8
LAY-1
  6
CONTINUOUS
 62
     3
100
AcDbLine
 10
86.2
 20
396.500012
 30
0.0
 11
86.2
 21
394.3
 31
0.0
  0
LINE
  5
F9
100
AcDbEntity
  8
LAY-1
  6
CONTINUOUS
 62
     3
100
AcDbLine
 10
55.7
 20
394.3
 30
0.0
 11
230.7
 21
394.3
 31
0.0
  0
LINE
  5
FA
100
AcDbEntity
  8
LAY-1
  6
CONTINUOUS
 62
     3
100
AcDbLine
 10
55.7
 20
394.3
 30
0.0
 11
55.7
 21
387.9
 31
0.0
  0
LINE
  5
FB
100
AcDbEntity
  8
LAY-1
  6
DASHED2
 62
     3
100
AcDbLine
 10
59.7
 20
394.3
 30
0.0
 11
71.7
 21
394.3
 31
0.0
  0
LINE
  5
FC
100
AcDbEntity
  8
LAY-1
  6
DASHED2
 62
     3
100
AcDbLine
 10
62.7
 20
390.8
 30
0.0
 11
68.7
 21
390.8
 31
0.0
  0
LINE
  5
FD
100
AcDbEntity
  8
LAY-1
  6
DASHED2
 62
     3
100
AcDbLine
 10
59.7
 20
394.3
 30
0.0
 11
59.7
 21
393.8
 31
0.0
  0
LINE
  5
FE
100
AcDbEntity
  8
LAY-1
  6
DASHED2
 62
     3
100
AcDbLine
 10
71.7
 20
394.3
 30
0.0
 11
71.7
 21
393.85
 31
0.0
  0
LINE
  5
FF
100
AcDbEntity
  8
LAY-1
  6
DASHED2
 62
     3
100
AcDbLine
 10
62.7
 20
390.8
 30
0.0
 11
59.7
 21
393.8
 31
0.0
  0
LINE
  5
100
100
AcDbEntity
  8
LAY-1
  6
DASHED2
 62
     3
100
AcDbLine
 10
68.675
 20
390.825
 30
0.0
 11
71.7
 21
393.85
 31
0.0
  0
LINE
  5
101
100
AcDbEntity
  8
LAY-1
  6
DASHED2
 62
     3
100
AcDbLine
 10
62.7
 20
383.4
 30
0.0
 11
62.7
 21
390.8
 31
0.0
  0
LINE
  5
102
100
AcDbEntity
  8
LAY-1
  6
DASHED2
 62
     3
100
AcDbLine
 10
68.7
 20
383.4
 30
0.0
 11
68.7
 21
390.85
 31
0.0
  0
LINE
  5
103
100
AcDbEntity
  8
LAY-1
  6
DASHED2
 62
     3
100
AcDbLine
 10
71.65
 20
393.8
 30
0.0
 11
59.7
 21
393.8
 31
0.0
  0
LINE
  5
104
100
AcDbEntity
  8
LAY-1
  6
DASHED2
 62
     3
100
AcDbLine
 10
63.2
 20
383.4
 30
0.0
 11
63.2
 21
390.8
 31
0.0
  0
LINE
  5
105
100
AcDbEntity
  8
LAY-1
  6
DASHED2
 62
     3
100
AcDbLine
 10
68.2
 20
383.4
 30
0.0
 11
68.2
 21
390.79
 31
0.0
  0
LINE
  5
106
100
AcDbEntity
  8
LAY-1
  6
CONTINUOUS
 62
     3
100
AcDbLine
 10
68.7
 20
377.8
 30
0.0
 11
68.7
 21
383.49
 31
0.0
  0
LINE
  5
107
100
AcDbEntity
  8
LAY-1
  6
CONTINUOUS
 62
     3
100
AcDbLine
 10
68.2
 20
377.8
 30
0.0
 11
68.2
 21
383.44
 31
0.0
  0
LINE
  5
108
100
AcDbEntity
  8
LAY-1
  6
CONTINUOUS
 62
     3
100
AcDbLine
 10
62.7
 20
377.8
 30
0.0
 11
62.7
 21
383.44
 31
0.0
  0
LINE
  5
109
100
AcDbEntity
  8
LAY-1
  6
CONTINUOUS
 62
     3
100
AcDbLine
 10
63.2
 20
377.8
 30
0.0
 11
63.2
 21
383.4
 31
0.0
  0
LINE
  5
10A
100
AcDbEntity
  8
LAY-1
  6
CONTINUOUS
 62
     3
100
AcDbLine
 10
62.7
 20
377.8
 30
0.0
 11
68.7
 21
377.8
 31
0.0
  0
LINE
  5
10B
100
AcDbEntity
  8
LAY-1
  6
DASHDOT
 62
     1
100
AcDbLine
 10
217.7
 20
395.963178
 30
0.0
 11
217.7
 21
395.96
 31
0.0
  0
LINE
  5
10C
100
AcDbEntity
  8
LAY-1
  6
DASHDOT
 62
     1
100
AcDbLine
 10
65.7
 20
396.03681
 30
0.0
 11
65.7
 21
395.9
 31
0.0
  0
LINE
  5
10D
100
AcDbEntity
  8
LAY-1
  6
DASHDOT
 62
     1
100
AcDbLine
 10
65.7
 20
396.069037
 30
0.0
 11
65.7
 21
395.9
 31
0.0
  0
LINE
  5
10E
100
AcDbEntity
  8
LAY-1
  6
DASHED2
 62
     3
100
AcDbLine
 10
150.7
 20
403.7
 30
0.0
 11
150.7
 21
397.3
 31
0.0
  0
LINE
  5
10F
100
AcDbEntity
  8
LAY-1
  6
DASHED2
 62
     3
100
AcDbLine
 10
160.7
 20
403.7
 30
0.0
 11
160.7
 21
397.3
 31
0.0
  0
LINE
  5
110
100
AcDbEntity
  8
LAY-1
  6
DASHED2
 62
     3
100
AcDbLine
 10
119.7
 20
394.3
 30
0.0
 11
131.7
 21
394.3
 31
0.0
  0
LINE
  5
111
100
AcDbEntity
  8
LAY-1
  6
DASHED2
 62
     3
100
AcDbLine
 10
122.7
 20
390.8
 30
0.0
 11
128.7
 21
390.8
 31
0.0
  0
LINE
  5
112
100
AcDbEntity
  8
LAY-1
  6
DASHED2
 62
     3
100
AcDbLine
 10
119.7
 20
394.3
 30
0.0
 11
119.7
 21
393.8
 31
0.0
  0
LINE
  5
113
100
AcDbEntity
  8
LAY-1
  6
DASHED2
 62
     3
100
AcDbLine
 10
131.7
 20
394.3
 30
0.0
 11
131.7
 21
393.85
 31
0.0
  0
LINE
  5
114
100
AcDbEntity
  8
LAY-1
  6
DASHED2
 62
     3
100
AcDbLine
 10
122.7
 20
390.8
 30
0.0
 11
119.7
 21
393.8
 31
0.0
  0
LINE
  5
115
100
AcDbEntity
  8
LAY-1
  6
DASHED2
 62
     3
100
AcDbLine
 10
128.675
 20
390.825
 30
0.0
 11
131.7
 21
393.85
 31
0.0
  0
LINE
  5
116
100
AcDbEntity
  8
LAY-1
  6
DASHED2
 62
     3
100
AcDbLine
 10
122.7
 20
383.4
 30
0.0
 11
122.7
 21
390.8
 31
0.0
  0
LINE
  5
117
100
AcDbEntity
  8
LAY-1
  6
DASHED2
 62
     3
100
AcDbLine
 10
128.7
 20
383.4
 30
0.0
 11
128.7
 21
390.85
 31
0.0
  0
LINE
  5
118
100
AcDbEntity
  8
LAY-1
  6
DASHED2
 62
     3
100
AcDbLine
 10
131.65
 20
393.8
 30
0.0
 11
119.7
 21
393.8
 31
0.0
  0
LINE
  5
119
100
AcDbEntity
  8
LAY-1
  6
DASHED2
 62
     3
100
AcDbLine
 10
123.2
 20
383.4
 30
0.0
 11
123.2
 21
390.8
 31
0.0
  0
LINE
  5
11A
100
AcDbEntity
  8
LAY-1
  6
DASHED2
 62
     3
100
AcDbLine
 10
128.2
 20
383.4
 30
0.0
 11
128.2
 21
390.79
 31
0.0
  0
LINE
  5
11B
100
AcDbEntity
  8
LAY-1
  6
CONTINUOUS
 62
     3
100
AcDbLine
 10
128.7
 20
377.8
 30
0.0
 11
128.7
 21
383.49
 31
0.0
  0
LINE
  5
11C
100
AcDbEntity
  8
LAY-1
  6
CONTINUOUS
 62
     3
100
AcDbLine
 10
128.2
 20
377.8
 30
0.0
 11
128.2
 21
383.44
 31
0.0
  0
LINE
  5
11D
100
AcDbEntity
  8
LAY-1
  6
CONTINUOUS
 62
     3
100
AcDbLine
 10
122.7
 20
377.8
 30
0.0
 11
122.7
 21
383.44
 31
0.0
  0
LINE
  5
11E
100
AcDbEntity
  8
LAY-1
  6
CONTINUOUS
 62
     3
100
AcDbLine
 10
123.2
 20
377.8
 30
0.0
 11
123.2
 21
383.4
 31
0.0
  0
LINE
  5
11F
100
AcDbEntity
  8
LAY-1
  6
CONTINUOUS
 62
     3
100
AcDbLine
 10
122.7
 20
377.8
 30
0.0
 11
128.7
 21
377.8
 31
0.0
  0
LINE
  5
120
100
AcDbEntity
  8
LAY-1
  6
DASHED2
 62
     3
100
AcDbLine
 10
211.7
 20
394.3
 30
0.0
 11
223.7
 21
394.3
 31
0.0
  0
LINE
  5
121
100
AcDbEntity
  8
LAY-1
  6
DASHED2
 62
     3
100
AcDbLine
 10
214.7
 20
390.8
 30
0.0
 11
220.7
 21
390.8
 31
0.0
  0
LINE
  5
122
100
AcDbEntity
  8
LAY-1
  6
DASHED2
 62
     3
100
AcDbLine
 10
211.7
 20
394.3
 30
0.0
 11
211.7
 21
393.8
 31
0.0
  0
LINE
  5
123
100
AcDbEntity
  8
LAY-1
  6
DASHED2
 62
     3
100
AcDbLine
 10
223.7
 20
394.3
 30
0.0
 11
223.7
 21
393.85
 31
0.0
  0
LINE
  5
124
100
AcDbEntity
  8
LAY-1
  6
DASHED2
 62
     3
100
AcDbLine
 10
214.7
 20
390.8
 30
0.0
 11
211.7
 21
393.8
 31
0.0
  0
LINE
  5
125
100
AcDbEntity
  8
LAY-1
  6
DASHED2
 62
     3
100
AcDbLine
 10
220.675
 20
390.825
 30
0.0
 11
223.7
 21
393.85
 31
0.0
  0
LINE
  5
126
100
AcDbEntity
  8
LAY-1
  6
DASHED2
 62
     3
100
AcDbLine
 10
214.7
 20
383.4
 30
0.0
 11
214.7
 21
390.8
 31
0.0
  0
LINE
  5
127
100
AcDbEntity
  8
LAY-1
  6
DASHED2
 62
     3
100
AcDbLine
 10
220.7
 20
383.4
 30
0.0
 11
220.7
 21
390.85
 31
0.0
  0
LINE
  5
128
100
AcDbEntity
  8
LAY-1
  6
DASHED2
 62
     3
100
AcDbLine
 10
223.65
 20
393.8
 30
0.0
 11
211.7
 21
393.8
 31
0.0
  0
LINE
  5
129
100
AcDbEntity
  8
LAY-1
  6
DASHED2
 62
     3
100
AcDbLine
 10
215.2
 20
383.4
 30
0.0
 11
215.2
 21
390.8
 31
0.0
  0
LINE
  5
12A
100
AcDbEntity
  8
LAY-1
  6
DASHED2
 62
     3
100
AcDbLine
 10
220.2
 20
383.4
 30
0.0
 11
220.2
 21
390.79
 31
0.0
  0
LINE
  5
12B
100
AcDbEntity
  8
LAY-1
  6
CONTINUOUS
 62
     3
100
AcDbLine
 10
220.7
 20
377.8
 30
0.0
 11
220.7
 21
383.49
 31
0.0
  0
LINE
  5
12C
100
AcDbEntity
  8
LAY-1
  6
CONTINUOUS
 62
     3
100
AcDbLine
 10
220.2
 20
377.8
 30
0.0
 11
220.2
 21
383.44
 31
0.0
  0
LINE
  5
12D
100
AcDbEntity
  8
LAY-1
  6
CONTINUOUS
 62
     3
100
AcDbLine
 10
214.7
 20
377.8
 30
0.0
 11
214.7
 21
383.44
 31
0.0
  0
LINE
  5
12E
100
AcDbEntity
  8
LAY-1
  6
CONTINUOUS
 62
     3
100
AcDbLine
 10
215.2
 20
377.8
 30
0.0
 11
215.2
 21
383.4
 31
0.0
  0
LINE
  5
12F
100
AcDbEntity
  8
LAY-1
  6
CONTINUOUS
 62
     3
100
AcDbLine
 10
214.7
 20
377.8
 30
0.0
 11
220.7
 21
377.8
 31
0.0
  0
LINE
  5
130
100
AcDbEntity
  8
LAY-1
  6
DASHDOT
 62
     1
100
AcDbLine
 10
217.7
 20
396.03681
 30
0.0
 11
217.7
 21
395.9
 31
0.0
  0
LINE
  5
131
100
AcDbEntity
  8
LAY-1
  6
DASHDOT
 62
     1
100
AcDbLine
 10
217.7
 20
396.069037
 30
0.0
 11
217.7
 21
395.9
 31
0.0
  0
LINE
  5
132
100
AcDbEntity
  8
LAY-1
  6
DASHED2
 62
     3
100
AcDbLine
 10
214.69997
 20
408.2
 30
0.0
 11
214.69997
 21
400.8
 31
0.0
  0
LINE
  5
133
100
AcDbEntity
  8
LAY-1
  6
DASHED2
 62
     3
100
AcDbLine
 10
215.19997
 20
408.2
 30
0.0
 11
215.19997
 21
400.8
 31
0.0
  0
LINE
  5
134
100
AcDbEntity
  8
LAY-1
  6
DASHED2
 62
     3
100
AcDbLine
 10
220.19997
 20
408.2
 30
0.0
 11
220.19997
 21
400.8
 31
0.0
  0
LINE
  5
135
100
AcDbEntity
  8
LAY-1
  6
DASHED2
 62
     3
100
AcDbLine
 10
220.69997
 20
408.2
 30
0.0
 11
220.69997
 21
400.77
 31
0.0
  0
LINE
  5
136
100
AcDbEntity
  8
LAY-1
  6
CONTINUOUS
 62
     3
100
AcDbLine
 10
568.6
 20
384.3
 30
0.0
 11
568.6
 21
418.3
 31
0.0
  0
CIRCLE
  5
137
100
AcDbEntity
  8
LAY-1
  6
CONTINUOUS
 62
     3
100
AcDbCircle
 10
433.6
 20
401.3
 30
0.0
 40
12.7
  0
CIRCLE
  5
138
100
AcDbEntity
  8
LAY-1
  6
CONTINUOUS
 62
     3
100
AcDbCircle
 10
433.6
 20
401.3
 30
0.0
 40
9.5
  0
CIRCLE
  5
139
100
AcDbEntity
  8
LAY-1
  6
CONTINUOUS
 62
     3
100
AcDbCircle
 10
555.6
 20
411.30003
 30
0.0
 40
3.35
  0
CIRCLE
  5
13A
100
AcDbEntity
  8
LAY-1
  6
CONTINUOUS
 62
     3
100
AcDbCircle
 10
555.6
 20
411.30003
 30
0.0
 40
6.0
  0
CIRCLE
  5
13B
100
AcDbEntity
  8
LAY-1
  6
CONTINUOUS
 62
     3
100
AcDbCircle
 10
555.6
 20
391.29997
 30
0.0
 40
3.35
  0
CIRCLE
  5
13C
100
AcDbEntity
  8
LAY-1
  6
CONTINUOUS
 62
     3
100
AcDbCircle
 10
555.6
 20
391.29997
 30
0.0
 40
6.0
  0
LINE
  5
13D
100
AcDbEntity
  8
LAY-1
  6
CONTINUOUS
 62
     3
100
AcDbLine
 10
393.6
 20
418.3
 30
0.0
 11
568.6
 21
418.3
 31
0.0
  0
LINE
  5
13E
100
AcDbEntity
  8
LAY-1
  6
CONTINUOUS
 62
     3
100
AcDbLine
 10
393.6
 20
384.3
 30
0.0
 11
393.6
 21
418.3
 31
0.0
  0
LINE
  5
13F
100
AcDbEntity
  8
LAY-1
  6
CONTINUOUS
 62
     3
100
AcDbLine
 10
393.6
 20
384.3
 30
0.0
 11
568.6
 21
384.3
 31
0.0
  0
CIRCLE
  5
140
100
AcDbEntity
  8
LAY-1
  6
CONTINUOUS
 62
     3
100
AcDbCircle
 10
403.6
 20
411.30003
 30
0.0
 40
3.35
  0
CIRCLE
  5
141
100
AcDbEntity
  8
LAY-1
  6
CONTINUOUS
 62
     3
100
AcDbCircle
 10
403.6
 20
411.30003
 30
0.0
 40
6.0
  0
CIRCLE
  5
142
100
AcDbEntity
  8
LAY-1
  6
CONTINUOUS
 62
     3
100
AcDbCircle
 10
403.6
 20
391.29997
 30
0.0
 40
3.35
  0
CIRCLE
  5
143
100
AcDbEntity
  8
LAY-1
  6
CONTINUOUS
 62
     3
100
AcDbCircle
 10
403.6
 20
391.29997
 30
0.0
 40
6.0
  0
CIRCLE
  5
144
100
AcDbEntity
  8
LAY-1
  6
CONTINUOUS
 62
     3
100
AcDbCircle
 10
463.6
 20
401.29997
 30
0.0
 40
3.35
  0
CIRCLE
  5
145
100
AcDbEntity
  8
LAY-1
  6
CONTINUOUS
 62
     3
100
AcDbCircle
 10
463.6
 20
401.29997
 30
0.0
 40
6.0
  0
ARC
  5
146
100
AcDbEntity
  8
LAY-1
  6
CONTINUOUS
 62
     3
100
AcDbCircle
 10
410.513207
 20
275.3
 30
0.0
 40
3.0
100
AcDbArc
 50
90.0
 51
148.767071
  0
ARC
  5
147
100
AcDbEntity
  8
LAY-1
  6
CONTINUOUS
 62
     3
100
AcDbCircle
 10
433.6
 20
261.3
 30
0.0
 40
30.0
100
AcDbArc
 50
148.767071
 51
211.232929
  0
ARC
  5
148
100
AcDbEntity
  8
LAY-1
  6
CONTINUOUS
 62
     3
100
AcDbCircle
 10
410.513207
 20
247.3
 30
0.0
 40
3.0
100
AcDbArc
 50
211.232929
 51
270.0
  0
ARC
  5
149
100
AcDbEntity
  8
LAY-1
  6
DASHED2
 62
     3
100
AcDbCircle
 10
460.6
 20
275.3
 30
0.0
 40
3.0
100
AcDbArc
 50
0.0
 51
90.0
  0
ARC
  5
14A
100
AcDbEntity
  8
LAY-1
  6
DASHED2
 62
     3
100
AcDbCircle
 10
460.6
 20
247.3
 30
0.0
 40
3.0
100
AcDbArc
 50
270.0
 51
0.0
  0
LINE
  5
14B
100
AcDbEntity
  8
LAY-1
  6
DASHED2
 62
     3
100
AcDbLine
 10
463.6
 20
275.3
 30
0.0
 11
463.6
 21
247.3
 31
0.0
  0
LINE
  5
14C
100
AcDbEntity
  8
LAY-1
  6
CONTINUOUS
 62
     3
100
AcDbLine
 10
419.35
 20
267.3
 30
0.0
 11
433.6
 21
267.3
 31
0.0
  0
LINE
  5
14D
100
AcDbEntity
  8
LAY-1
  6
CONTINUOUS
 62
     3
100
AcDbLine
 10
419.35
 20
267.3
 30
0.0
 11
419.35
 21
261.3
 31
0.0
  0
LINE
  5
14E
100
AcDbEntity
  8
LAY-1
  6
DASHED2
 62
     3
100
AcDbLine
 10
419.35
 20
269.3
 30
0.0
 11
433.6
 21
269.3
 31
0.0
  0
LINE
  5
14F
100
AcDbEntity
  8
LAY-1
  6
DASHED2
 62
     3
100
AcDbLine
 10
419.35
 20
267.3
 30
0.0
 11
419.35
 21
269.3
 31
0.0
  0
LINE
  5
150
100
AcDbEntity
  8
LAY-1
  6
CONTINUOUS
 62
     3
100
AcDbLine
 10
447.85
 20
267.3
 30
0.0
 11
433.6
 21
267.3
 31
0.0
  0
LINE
  5
151
100
AcDbEntity
  8
LAY-1
  6
CONTINUOUS
 62
     3
100
AcDbLine
 10
447.85
 20
267.3
 30
0.0
 11
447.85
 21
261.3
 31
0.0
  0
LINE
  5
152
100
AcDbEntity
  8
LAY-1
  6
DASHED2
 62
     3
100
AcDbLine
 10
447.85
 20
269.3
 30
0.0
 11
433.6
 21
269.3
 31
0.0
  0
LINE
  5
153
100
AcDbEntity
  8
LAY-1
  6
DASHED2
 62
     3
100
AcDbLine
 10
447.85
 20
267.3
 30
0.0
 11
447.85
 21
269.3
 31
0.0
  0
LINE
  5
154
100
AcDbEntity
  8
LAY-1
  6
CONTINUOUS
 62
     3
100
AcDbLine
 10
419.35
 20
255.3
 30
0.0
 11
433.6
 21
255.3
 31
0.0
  0
LINE
  5
155
100
AcDbEntity
  8
LAY-1
  6
CONTINUOUS
 62
     3
100
AcDbLine
 10
419.35
 20
255.3
 30
0.0
 11
419.35
 21
261.3
 31
0.0
  0
LINE
  5
156
100
AcDbEntity
  8
LAY-1
  6
DASHED2
 62
     3
100
AcDbLine
 10
419.35
 20
253.3
 30
0.0
 11
433.6
 21
253.3
 31
0.0
  0
LINE
  5
157
100
AcDbEntity
  8
LAY-1
  6
DASHED2
 62
     3
100
AcDbLine
 10
419.35
 20
255.3
 30
0.0
 11
419.35
 21
253.3
 31
0.0
  0
LINE
  5
158
100
AcDbEntity
  8
LAY-1
  6
CONTINUOUS
 62
     3
100
AcDbLine
 10
447.85
 20
255.3
 30
0.0
 11
433.6
 21
255.3
 31
0.0
  0
LINE
  5
159
100
AcDbEntity
  8
LAY-1
  6
CONTINUOUS
 62
     3
100
AcDbLine
 10
447.85
 20
255.3
 30
0.0
 11
447.85
 21
261.3
 31
0.0
  0
LINE
  5
15A
100
AcDbEntity
  8
LAY-1
  6
DASHED2
 62
     3
100
AcDbLine
 10
447.85
 20
253.3
 30
0.0
 11
433.6
 21
253.3
 31
0.0
  0
LINE
  5
15B
100
AcDbEntity
  8
LAY-1
  6
DASHED2
 62
     3
100
AcDbLine
 10
447.85
 20
255.3
 30
0.0
 11
447.85
 21
253.3
 31
0.0
  0
LINE
  5
15C
100
AcDbEntity
  8
LAY-1
  6
CONTINUOUS
 62
     3
100
AcDbLine
 10
410.513207
 20
278.3
 30
0.0
 11
782.1
 21
278.3
 31
0.0
  0
ARC
  5
15D
100
AcDbEntity
  8
LAY-1
  6
CONTINUOUS
 62
     3
100
AcDbCircle
 10
782.1
 20
276.8
 30
0.0
 40
1.5
100
AcDbArc
 50
0.0
 51
90.0
  0
LINE
  5
15E
100
AcDbEntity
  8
LAY-1
  6
CONTINUOUS
 62
     3
100
AcDbLine
 10
410.513207
 20
244.3
 30
0.0
 11
782.1
 21
244.3
 31
0.0
  0
LINE
  5
15F
100
AcDbEntity
  8
LAY-1
  6
CONTINUOUS
 62
     3
100
AcDbLine
 10
783.6
 20
245.8
 30
0.0
 11
783.6
 21
276.8
 31
0.0
  0
ARC
  5
160
100
AcDbEntity
  8
LAY-1
  6
CONTINUOUS
 62
     3
100
AcDbCircle
 10
782.1
 20
245.8
 30
0.0
 40
1.5
100
AcDbArc
 50
270.0
 51
0.0
  0
CIRCLE
  5
161
100
AcDbEntity
  8
LAY-1
  6
DASHED2
 62
     3
100
AcDbCircle
 10
473.6
 20
269.3
 30
0.0
 40
6.0
  0
CIRCLE
  5
162
100
AcDbEntity
  8
LAY-1
  6
CONTINUOUS
 62
     3
100
AcDbCircle
 10
473.6
 20
269.3
 30
0.0
 40
3.25
  0
CIRCLE
  5
163
100
AcDbEntity
  8
LAY-1
  6
DASHED2
 62
     3
100
AcDbCircle
 10
606.6
 20
269.3
 30
0.0
 40
6.0
  0
CIRCLE
  5
164
100
AcDbEntity
  8
LAY-1
  6
CONTINUOUS
 62
     3
100
AcDbCircle
 10
606.6
 20
269.3
 30
0.0
 40
3.25
  0
CIRCLE
  5
165
100
AcDbEntity
  8
LAY-1
  6
DASHED2
 62
     3
100
AcDbCircle
 10
739.6
 20
269.3
 30
0.0
 40
6.0
  0
CIRCLE
  5
166
100
AcDbEntity
  8
LAY-1
  6
CONTINUOUS
 62
     3
100
AcDbCircle
 10
739.6
 20
269.3
 30
0.0
 40
3.25
  0
CIRCLE
  5
167
100
AcDbEntity
  8
LAY-1
  6
DASHED2
 62
     3
100
AcDbCircle
 10
503.6
 20
253.3
 30
0.0
 40
6.0
  0
CIRCLE
  5
168
100
AcDbEntity
  8
LAY-1
  6
CONTINUOUS
 62
     3
100
AcDbCircle
 10
503.6
 20
253.3
 30
0.0
 40
3.25
  0
CIRCLE
  5
169
100
AcDbEntity
  8
LAY-1
  6
DASHED2
 62
     3
100
AcDbCircle
 10
636.6
 20
253.3
 30
0.0
 40
6.0
  0
CIRCLE
  5
16A
100
AcDbEntity
  8
LAY-1
  6
CONTINUOUS
 62
     3
100
AcDbCircle
 10
636.6
 20
253.3
 30
0.0
 40
3.25
  0
CIRCLE
  5
16B
100
AcDbEntity
  8
LAY-1
  6
DASHED2
 62
     3
100
AcDbCircle
 10
769.6
 20
253.3
 30
0.0
 40
6.0
  0
CIRCLE
  5
16C
100
AcDbEntity
  8
LAY-1
  6
CONTINUOUS
 62
     3
100
AcDbCircle
 10
769.6
 20
253.3
 30
0.0
 40
3.25
  0
LINE
  5
16D
100
AcDbEntity
  8
LAY-1
  6
CONTINUOUS
 62
     3
100
AcDbLine
 10
408.6
 20
96.3
 30
0.0
 11
498.6
 21
96.3
 31
0.0
  0
LINE
  5
16E
100
AcDbEntity
  8
LAY-1
  6
CONTINUOUS
 62
     3
100
AcDbLine
 10
408.6
 20
96.3
 30
0.0
 11
408.6
 21
146.3
 31
0.0
  0
LINE
  5
16F
100
AcDbEntity
  8
LAY-1
  6
CONTINUOUS
 62
     3
100
AcDbLine
 10
498.6
 20
96.3
 30
0.0
 11
498.6
 21
146.3
 31
0.0
  0
LINE
  5
170
100
AcDbEntity
  8
LAY-1
  6
CONTINUOUS
 62
     3
100
AcDbLine
 10
408.6
 20
146.3
 30
0.0
 11
498.6
 21
146.3
 31
0.0
  0
LINE
  5
171
100
AcDbEntity
  8
LAY-1
  6
DASHED2
 62
     3
100
AcDbLine
 10
493.6
 20
143.3
 30
0.0
 11
493.6
 21
99.3
 31
0.0
  0
LINE
  5
172
100
AcDbEntity
  8
LAY-1
  6
DASHED2
 62
     3
100
AcDbLine
 10
408.6
 20
99.3
 30
0.0
 11
493.6
 21
99.3
 31
0.0
  0
LINE
  5
173
100
AcDbEntity
  8
LAY-1
  6
DASHED2
 62
     3
100
AcDbLine
 10
408.6
 20
143.3
 30
0.0
 11
493.6
 21
143.3
 31
0.0
  0
LINE
  5
174
100
AcDbEntity
  8
LAY-1
  6
CONTINUOUS
 62
     3
100
AcDbLine
 10
462.8
 20
123.85
 30
0.0
 11
464.4
 21
123.85
 31
0.0
  0
LINE
  5
175
100
AcDbEntity
  8
LAY-1
  6
CONTINUOUS
 62
     3
100
AcDbLine
 10
461.05
 20
122.1
 30
0.0
 11
461.05
 21
120.5
 31
0.0
  0
LINE
  5
176
100
AcDbEntity
  8
LAY-1
  6
CONTINUOUS
 62
     3
100
AcDbLine
 10
464.4
 20
118.75
 30
0.0
 11
462.8
 21
118.75
 31
0.0
  0
LINE
  5
177
100
AcDbEntity
  8
LAY-1
  6
CONTINUOUS
 62
     3
100
AcDbLine
 10
466.15
 20
120.5
 30
0.0
 11
466.15
 21
122.1
 31
0.0
  0
LINE
  5
178
100
AcDbEntity
  8
LAY-1
  6
CONTINUOUS
 62
     3
100
AcDbLine
 10
461.05
 20
122.1
 30
0.0
 11
462.0
 21
122.1
 31
0.0
  0
LINE
  5
179
100
AcDbEntity
  8
LAY-1
  6
CONTINUOUS
 62
     3
100
AcDbLine
 10
462.8
 20
123.85
 30
0.0
 11
462.8
 21
122.9
 31
0.0
  0
ARC
  5
17A
100
AcDbEntity
  8
LAY-1
  6
CONTINUOUS
 62
     3
100
AcDbCircle
 10
462.0
 20
122.9
 30
0.0
 40
0.8
100
AcDbArc
 50
270.0
 51
0.0
  0
LINE
  5
17B
100
AcDbEntity
  8
LAY-1
  6
CONTINUOUS
 62
     3
100
AcDbLine
 10
465.2
 20
122.1
 30
0.0
 11
466.15
 21
122.1
 31
0.0
  0
LINE
  5
17C
100
AcDbEntity
  8
LAY-1
  6
CONTINUOUS
 62
     3
100
AcDbLine
 10
464.4
 20
123.85
 30
0.0
 11
464.4
 21
122.9
 31
0.0
  0
ARC
  5
17D
100
AcDbEntity
  8
LAY-1
  6
CONTINUOUS
 62
     3
100
AcDbCircle
 10
465.2
 20
122.9
 30
0.0
 40
0.8
100
AcDbArc
 50
180.0
 51
270.0
  0
LINE
  5
17E
100
AcDbEntity
  8
LAY-1
  6
CONTINUOUS
 62
     3
100
AcDbLine
 10
461.05
 20
120.5
 30
0.0
 11
462.0
 21
120.5
 31
0.0
  0
LINE
  5
17F
100
AcDbEntity
  8
LAY-1
  6
CONTINUOUS
 62
     3
100
AcDbLine
 10
462.8
 20
119.7
 30
0.0
 11
462.8
 21
118.75
 31
0.0
  0
ARC
  5
180
100
AcDbEntity
  8
LAY-1
  6
CONTINUOUS
 62
     3
100
AcDbCircle
 10
462.0
 20
119.7
 30
0.0
 40
0.8
100
AcDbArc
 50
0.0
 51
90.0
  0
LINE
  5
181
100
AcDbEntity
  8
LAY-1
  6
CONTINUOUS
 62
     3
100
AcDbLine
 10
465.2
 20
120.5
 30
0.0
 11
466.15
 21
120.5
 31
0.0
  0
LINE
  5
182
100
AcDbEntity
  8
LAY-1
  6
CONTINUOUS
 62
     3
100
AcDbLine
 10
464.4
 20
119.7
 30
0.0
 11
464.4
 21
118.75
 31
0.0
  0
ARC
  5
183
100
AcDbEntity
  8
LAY-1
  6
CONTINUOUS
 62
     3
100
AcDbCircle
 10
465.2
 20
119.7
 30
0.0
 40
0.8
100
AcDbArc
 50
90.0
 51
180.0
  0
CIRCLE
  5
184
100
AcDbEntity
  8
LAY-1
  6
CONTINUOUS
 62
     3
100
AcDbCircle
 10
463.6
 20
121.3
 30
0.0
 40
4.0
  0
LINE
  5
185
100
AcDbEntity
  8
LAY-1
  6
CONTINUOUS
 62
     3
100
AcDbLine
 10
482.8
 20
123.85
 30
0.0
 11
484.4
 21
123.85
 31
0.0
  0
LINE
  5
186
100
AcDbEntity
  8
LAY-1
  6
CONTINUOUS
 62
     3
100
AcDbLine
 10
481.05
 20
122.1
 30
0.0
 11
481.05
 21
120.5
 31
0.0
  0
LINE
  5
187
100
AcDbEntity
  8
LAY-1
  6
CONTINUOUS
 62
     3
100
AcDbLine
 10
484.4
 20
118.75
 30
0.0
 11
482.8
 21
118.75
 31
0.0
  0
LINE
  5
188
100
AcDbEntity
  8
LAY-1
  6
CONTINUOUS
 62
     3
100
AcDbLine
 10
486.15
 20
120.5
 30
0.0
 11
486.15
 21
122.1
 31
0.0
  0
LINE
  5
189
100
AcDbEntity
  8
LAY-1
  6
CONTINUOUS
 62
     3
100
AcDbLine
 10
481.05
 20
122.1
 30
0.0
 11
482.0
 21
122.1
 31
0.0
  0
LINE
  5
18A
100
AcDbEntity
  8
LAY-1
  6
CONTINUOUS
 62
     3
100
AcDbLine
 10
482.8
 20
123.85
 30
0.0
 11
482.8
 21
122.9
 31
0.0
  0
ARC
  5
18B
100
AcDbEntity
  8
LAY-1
  6
CONTINUOUS
 62
     3
100
AcDbCircle
 10
482.0
 20
122.9
 30
0.0
 40
0.8
100
AcDbArc
 50
270.0
 51
0.0
  0
LINE
  5
18C
100
AcDbEntity
  8
LAY-1
  6
CONTINUOUS
 62
     3
100
AcDbLine
 10
485.2
 20
122.1
 30
0.0
 11
486.15
 21
122.1
 31
0.0
  0
LINE
  5
18D
100
AcDbEntity
  8
LAY-1
  6
CONTINUOUS
 62
     3
100
AcDbLine
 10
484.4
 20
123.85
 30
0.0
 11
484.4
 21
122.9
 31
0.0
  0
ARC
  5
18E
100
AcDbEntity
  8
LAY-1
  6
CONTINUOUS
 62
     3
100
AcDbCircle
 10
485.2
 20
122.9
 30
0.0
 40
0.8
100
AcDbArc
 50
180.0
 51
270.0
  0
LINE
  5
18F
100
AcDbEntity
  8
LAY-1
  6
CONTINUOUS
 62
     3
100
AcDbLine
 10
481.05
 20
120.5
 30
0.0
 11
482.0
 21
120.5
 31
0.0
  0
LINE
  5
190
100
AcDbEntity
  8
LAY-1
  6
CONTINUOUS
 62
     3
100
AcDbLine
 10
482.8
 20
119.7
 30
0.0
 11
482.8
 21
118.75
 31
0.0
  0
ARC
  5
191
100
AcDbEntity
  8
LAY-1
  6
CONTINUOUS
 62
     3
100
AcDbCircle
 10
482.0
 20
119.7
 30
0.0
 40
0.8
100
AcDbArc
 50
0.0
 51
90.0
  0
LINE
  5
192
100
AcDbEntity
  8
LAY-1
  6
CONTINUOUS
 62
     3
100
AcDbLine
 10
485.2
 20
120.5
 30
0.0
 11
486.15
 21
120.5
 31
0.0
  0
LINE
  5
193
100
AcDbEntity
  8
LAY-1
  6
CONTINUOUS
 62
     3
100
AcDbLine
 10
484.4
 20
119.7
 30
0.0
 11
484.4
 21
118.75
 31
0.0
  0
ARC
  5
194
100
AcDbEntity
  8
LAY-1
  6
CONTINUOUS
 62
     3
100
AcDbCircle
 10
485.2
 20
119.7
 30
0.0
 40
0.8
100
AcDbArc
 50
90.0
 51
180.0
  0
CIRCLE
  5
195
100
AcDbEntity
  8
LAY-1
  6
CONTINUOUS
 62
     3
100
AcDbCircle
 10
483.6
 20
121.3
 30
0.0
 40
4.0
  0
CIRCLE
  5
196
100
AcDbEntity
  8
LAY-1
  6
DASHED2
 62
     3
100
AcDbCircle
 10
463.6
 20
134.3
 30
0.0
 40
6.0
  0
LINE
  5
197
100
AcDbEntity
  8
LAY-1
  6
DASHED2
 62
     3
100
AcDbLine
 10
464.6
 20
137.65
 30
0.0
 11
462.6
 21
137.65
 31
0.0
  0
LINE
  5
198
100
AcDbEntity
  8
LAY-1
  6
DASHED2
 62
     3
100
AcDbLine
 10
460.25
 20
135.3
 30
0.0
 11
460.25
 21
133.3
 31
0.0
  0
LINE
  5
199
100
AcDbEntity
  8
LAY-1
  6
DASHED2
 62
     3
100
AcDbLine
 10
464.6
 20
130.95
 30
0.0
 11
462.6
 21
130.95
 31
0.0
  0
LINE
  5
19A
100
AcDbEntity
  8
LAY-1
  6
DASHED2
 62
     3
100
AcDbLine
 10
466.95
 20
133.3
 30
0.0
 11
466.95
 21
135.3
 31
0.0
  0
LINE
  5
19B
100
AcDbEntity
  8
LAY-1
  6
DASHED2
 62
     3
100
AcDbLine
 10
462.6
 20
137.65
 30
0.0
 11
462.6
 21
136.3
 31
0.0
  0
LINE
  5
19C
100
AcDbEntity
  8
LAY-1
  6
DASHED2
 62
     3
100
AcDbLine
 10
461.6
 20
135.3
 30
0.0
 11
460.25
 21
135.3
 31
0.0
  0
ARC
  5
19D
100
AcDbEntity
  8
LAY-1
  6
DASHED2
 62
     3
100
AcDbCircle
 10
461.6
 20
136.3
 30
0.0
 40
1.0
100
AcDbArc
 50
270.0
 51
0.0
  0
LINE
  5
19E
100
AcDbEntity
  8
LAY-1
  6
DASHED2
 62
     3
100
AcDbLine
 10
464.6
 20
137.65
 30
0.0
 11
464.6
 21
136.3
 31
0.0
  0
LINE
  5
19F
100
AcDbEntity
  8
LAY-1
  6
DASHED2
 62
     3
100
AcDbLine
 10
466.95
 20
135.3
 30
0.0
 11
465.6
 21
135.3
 31
0.0
  0
ARC
  5
1A0
100
AcDbEntity
  8
LAY-1
  6
DASHED2
 62
     3
100
AcDbCircle
 10
465.6
 20
136.3
 30
0.0
 40
1.0
100
AcDbArc
 50
180.0
 51
270.0
  0
LINE
  5
1A1
100
AcDbEntity
  8
LAY-1
  6
DASHED2
 62
     3
100
AcDbLine
 10
460.25
 20
133.3
 30
0.0
 11
461.6
 21
133.3
 31
0.0
  0
LINE
  5
1A2
100
AcDbEntity
  8
LAY-1
  6
DASHED2
 62
     3
100
AcDbLine
 10
462.6
 20
132.3
 30
0.0
 11
462.6
 21
130.95
 31
0.0
  0
ARC
  5
1A3
100
AcDbEntity
  8
LAY-1
  6
DASHED2
 62
     3
100
AcDbCircle
 10
461.6
 20
132.3
 30
0.0
 40
1.0
100
AcDbArc
 50
0.0
 51
90.0
  0
LINE
  5
1A4
100
AcDbEntity
  8
LAY-1
  6
DASHED2
 62
     3
100
AcDbLine
 10
464.6
 20
132.3
 30
0.0
 11
464.6
 21
130.95
 31
0.0
  0
LINE
  5
1A5
100
AcDbEntity
  8
LAY-1
  6
DASHED2
 62
     3
100
AcDbLine
 10
465.6
 20
133.3
 30
0.0
 11
466.95
 21
133.3
 31
0.0
  0
ARC
  5
1A6
100
AcDbEntity
  8
LAY-1
  6
DASHED2
 62
     3
100
AcDbCircle
 10
465.6
 20
132.3
 30
0.0
 40
1.0
100
AcDbArc
 50
90.0
 51
180.0
  0
CIRCLE
  5
1A7
100
AcDbEntity
  8
LAY-1
  6
DASHED2
 62
     3
100
AcDbCircle
 10
483.6
 20
134.3
 30
0.0
 40
6.0
  0
LINE
  5
1A8
100
AcDbEntity
  8
LAY-1
  6
DASHED2
 62
     3
100
AcDbLine
 10
484.6
 20
137.65
 30
0.0
 11
482.6
 21
137.65
 31
0.0
  0
LINE
  5
1A9
100
AcDbEntity
  8
LAY-1
  6
DASHED2
 62
     3
100
AcDbLine
 10
480.25
 20
135.3
 30
0.0
 11
480.25
 21
133.3
 31
0.0
  0
LINE
  5
1AA
100
AcDbEntity
  8
LAY-1
  6
DASHED2
 62
     3
100
AcDbLine
 10
484.6
 20
130.95
 30
0.0
 11
482.6
 21
130.95
 31
0.0
  0
LINE
  5
1AB
100
AcDbEntity
  8
LAY-1
  6
DASHED2
 62
     3
100
AcDbLine
 10
486.95
 20
133.3
 30
0.0
 11
486.95
 21
135.3
 31
0.0
  0
LINE
  5
1AC
100
AcDbEntity
  8
LAY-1
  6
DASHED2
 62
     3
100
AcDbLine
 10
482.6
 20
137.65
 30
0.0
 11
482.6
 21
136.3
 31
0.0
  0
LINE
  5
1AD
100
AcDbEntity
  8
LAY-1
  6
DASHED2
 62
     3
100
AcDbLine
 10
481.6
 20
135.3
 30
0.0
 11
480.25
 21
135.3
 31
0.0
  0
ARC
  5
1AE
100
AcDbEntity
  8
LAY-1
  6
DASHED2
 62
     3
100
AcDbCircle
 10
481.6
 20
136.3
 30
0.0
 40
1.0
100
AcDbArc
 50
270.0
 51
0.0
  0
LINE
  5
1AF
100
AcDbEntity
  8
LAY-1
  6
DASHED2
 62
     3
100
AcDbLine
 10
484.6
 20
137.65
 30
0.0
 11
484.6
 21
136.3
 31
0.0
  0
LINE
  5
1B0
100
AcDbEntity
  8
LAY-1
  6
DASHED2
 62
     3
100
AcDbLine
 10
486.95
 20
135.3
 30
0.0
 11
485.6
 21
135.3
 31
0.0
  0
ARC
  5
1B1
100
AcDbEntity
  8
LAY-1
  6
DASHED2
 62
     3
100
AcDbCircle
 10
485.6
 20
136.3
 30
0.0
 40
1.0
100
AcDbArc
 50
180.0
 51
270.0
  0
LINE
  5
1B2
100
AcDbEntity
  8
LAY-1
  6
DASHED2
 62
     3
100
AcDbLine
 10
480.25
 20
133.3
 30
0.0
 11
481.6
 21
133.3
 31
0.0
  0
LINE
  5
1B3
100
AcDbEntity
  8
LAY-1
  6
DASHED2
 62
     3
100
AcDbLine
 10
482.6
 20
132.3
 30
0.0
 11
482.6
 21
130.95
 31
0.0
  0
ARC
  5
1B4
100
AcDbEntity
  8
LAY-1
  6
DASHED2
 62
     3
100
AcDbCircle
 10
481.6
 20
132.3
 30
0.0
 40
1.0
100
AcDbArc
 50
0.0
 51
90.0
  0
LINE
  5
1B5
100
AcDbEntity
  8
LAY-1
  6
DASHED2
 62
     3
100
AcDbLine
 10
484.6
 20
132.3
 30
0.0
 11
484.6
 21
130.95
 31
0.0
  0
LINE
  5
1B6
100
AcDbEntity
  8
LAY-1
  6
DASHED2
 62
     3
100
AcDbLine
 10
485.6
 20
133.3
 30
0.0
 11
486.95
 21
133.3
 31
0.0
  0
ARC
  5
1B7
100
AcDbEntity
  8
LAY-1
  6
DASHED2
 62
     3
100
AcDbCircle
 10
485.6
 20
132.3
 30
0.0
 40
1.0
100
AcDbArc
 50
90.0
 51
180.0
  0
CIRCLE
  5
1B8
100
AcDbEntity
  8
LAY-1
  6
DASHED2
 62
     3
100
AcDbCircle
 10
463.6
 20
108.3
 30
0.0
 40
6.0
  0
LINE
  5
1B9
100
AcDbEntity
  8
LAY-1
  6
DASHED2
 62
     3
100
AcDbLine
 10
464.6
 20
104.95
 30
0.0
 11
462.6
 21
104.95
 31
0.0
  0
LINE
  5
1BA
100
AcDbEntity
  8
LAY-1
  6
DASHED2
 62
     3
100
AcDbLine
 10
460.25
 20
107.3
 30
0.0
 11
460.25
 21
109.3
 31
0.0
  0
LINE
  5
1BB
100
AcDbEntity
  8
LAY-1
  6
DASHED2
 62
     3
100
AcDbLine
 10
464.6
 20
111.65
 30
0.0
 11
462.6
 21
111.65
 31
0.0
  0
LINE
  5
1BC
100
AcDbEntity
  8
LAY-1
  6
DASHED2
 62
     3
100
AcDbLine
 10
466.95
 20
109.3
 30
0.0
 11
466.95
 21
107.3
 31
0.0
  0
LINE
  5
1BD
100
AcDbEntity
  8
LAY-1
  6
DASHED2
 62
     3
100
AcDbLine
 10
462.6
 20
104.95
 30
0.0
 11
462.6
 21
106.3
 31
0.0
  0
LINE
  5
1BE
100
AcDbEntity
  8
LAY-1
  6
DASHED2
 62
     3
100
AcDbLine
 10
461.6
 20
107.3
 30
0.0
 11
460.25
 21
107.3
 31
0.0
  0
ARC
  5
1BF
100
AcDbEntity
  8
LAY-1
  6
DASHED2
 62
     3
100
AcDbCircle
 10
461.6
 20
106.3
 30
0.0
 40
1.0
100
AcDbArc
 50
0.0
 51
90.0
  0
LINE
  5
1C0
100
AcDbEntity
  8
LAY-1
  6
DASHED2
 62
     3
100
AcDbLine
 10
464.6
 20
104.95
 30
0.0
 11
464.6
 21
106.3
 31
0.0
  0
LINE
  5
1C1
100
AcDbEntity
  8
LAY-1
  6
DASHED2
 62
     3
100
AcDbLine
 10
466.95
 20
107.3
 30
0.0
 11
465.6
 21
107.3
 31
0.0
  0
ARC
  5
1C2
100
AcDbEntity
  8
LAY-1
  6
DASHED2
 62
     3
100
AcDbCircle
 10
465.6
 20
106.3
 30
0.0
 40
1.0
100
AcDbArc
 50
90.0
 51
180.0
  0
LINE
  5
1C3
100
AcDbEntity
  8
LAY-1
  6
DASHED2
 62
     3
100
AcDbLine
 10
460.25
 20
109.3
 30
0.0
 11
461.6
 21
109.3
 31
0.0
  0
LINE
  5
1C4
100
AcDbEntity
  8
LAY-1
  6
DASHED2
 62
     3
100
AcDbLine
 10
462.6
 20
110.3
 30
0.0
 11
462.6
 21
111.65
 31
0.0
  0
ARC
  5
1C5
100
AcDbEntity
  8
LAY-1
  6
DASHED2
 62
     3
100
AcDbCircle
 10
461.6
 20
110.3
 30
0.0
 40
1.0
100
AcDbArc
 50
270.0
 51
0.0
  0
LINE
  5
1C6
100
AcDbEntity
  8
LAY-1
  6
DASHED2
 62
     3
100
AcDbLine
 10
464.6
 20
110.3
 30
0.0
 11
464.6
 21
111.65
 31
0.0
  0
LINE
  5
1C7
100
AcDbEntity
  8
LAY-1
  6
DASHED2
 62
     3
100
AcDbLine
 10
465.6
 20
109.3
 30
0.0
 11
466.95
 21
109.3
 31
0.0
  0
ARC
  5
1C8
100
AcDbEntity
  8
LAY-1
  6
DASHED2
 62
     3
100
AcDbCircle
 10
465.6
 20
110.3
 30
0.0
 40
1.0
100
AcDbArc
 50
180.0
 51
270.0
  0
CIRCLE
  5
1C9
100
AcDbEntity
  8
LAY-1
  6
DASHED2
 62
     3
100
AcDbCircle
 10
483.6
 20
108.3
 30
0.0
 40
6.0
  0
LINE
  5
1CA
100
AcDbEntity
  8
LAY-1
  6
DASHED2
 62
     3
100
AcDbLine
 10
484.6
 20
104.95
 30
0.0
 11
482.6
 21
104.95
 31
0.0
  0
LINE
  5
1CB
100
AcDbEntity
  8
LAY-1
  6
DASHED2
 62
     3
100
AcDbLine
 10
480.25
 20
107.3
 30
0.0
 11
480.25
 21
109.3
 31
0.0
  0
LINE
  5
1CC
100
AcDbEntity
  8
LAY-1
  6
DASHED2
 62
     3
100
AcDbLine
 10
484.6
 20
111.65
 30
0.0
 11
482.6
 21
111.65
 31
0.0
  0
LINE
  5
1CD
100
AcDbEntity
  8
LAY-1
  6
DASHED2
 62
     3
100
AcDbLine
 10
486.95
 20
109.3
 30
0.0
 11
486.95
 21
107.3
 31
0.0
  0
LINE
  5
1CE
100
AcDbEntity
  8
LAY-1
  6
DASHED2
 62
     3
100
AcDbLine
 10
482.6
 20
104.95
 30
0.0
 11
482.6
 21
106.3
 31
0.0
  0
LINE
  5
1CF
100
AcDbEntity
  8
LAY-1
  6
DASHED2
 62
     3
100
AcDbLine
 10
481.6
 20
107.3
 30
0.0
 11
480.25
 21
107.3
 31
0.0
  0
ARC
  5
1D0
100
AcDbEntity
  8
LAY-1
  6
DASHED2
 62
     3
100
AcDbCircle
 10
481.6
 20
106.3
 30
0.0
 40
1.0
100
AcDbArc
 50
0.0
 51
90.0
  0
LINE
  5
1D1
100
AcDbEntity
  8
LAY-1
  6
DASHED2
 62
     3
100
AcDbLine
 10
484.6
 20
104.95
 30
0.0
 11
484.6
 21
106.3
 31
0.0
  0
LINE
  5
1D2
100
AcDbEntity
  8
LAY-1
  6
DASHED2
 62
     3
100
AcDbLine
 10
486.95
 20
107.3
 30
0.0
 11
485.6
 21
107.3
 31
0.0
  0
ARC
  5
1D3
100
AcDbEntity
  8
LAY-1
  6
DASHED2
 62
     3
100
AcDbCircle
 10
485.6
 20
106.3
 30
0.0
 40
1.0
100
AcDbArc
 50
90.0
 51
180.0
  0
LINE
  5
1D4
100
AcDbEntity
  8
LAY-1
  6
DASHED2
 62
     3
100
AcDbLine
 10
480.25
 20
109.3
 30
0.0
 11
481.6
 21
109.3
 31
0.0
  0
LINE
  5
1D5
100
AcDbEntity
  8
LAY-1
  6
DASHED2
 62
     3
100
AcDbLine
 10
482.6
 20
110.3
 30
0.0
 11
482.6
 21
111.65
 31
0.0
  0
ARC
  5
1D6
100
AcDbEntity
  8
LAY-1
  6
DASHED2
 62
     3
100
AcDbCircle
 10
481.6
 20
110.3
 30
0.0
 40
1.0
100
AcDbArc
 50
270.0
 51
0.0
  0
LINE
  5
1D7
100
AcDbEntity
  8
LAY-1
  6
DASHED2
 62
     3
100
AcDbLine
 10
484.6
 20
110.3
 30
0.0
 11
484.6
 21
111.65
 31
0.0
  0
LINE
  5
1D8
100
AcDbEntity
  8
LAY-1
  6
DASHED2
 62
     3
100
AcDbLine
 10
485.6
 20
109.3
 30
0.0
 11
486.95
 21
109.3
 31
0.0
  0
ARC
  5
1D9
100
AcDbEntity
  8
LAY-1
  6
DASHED2
 62
     3
100
AcDbCircle
 10
485.6
 20
110.3
 30
0.0
 40
1.0
100
AcDbArc
 50
180.0
 51
270.0
  0
LINE
  5
1DA
100
AcDbEntity
  8
LAY-1
  6
CONTINUOUS
 62
     3
100
AcDbLine
 10
708.7
 20
394.3
 30
0.0
 11
708.7
 21
387.9
 31
0.0
  0
ARC
  5
1DB
100
AcDbEntity
  8
LAY-1
  6
CONTINUOUS
 62
     3
100
AcDbCircle
 10
709.771334
 20
386.9
 30
0.0
 40
1.0
100
AcDbArc
 50
4.236395
 51
90.0
  0
ARC
  5
1DC
100
AcDbEntity
  8
LAY-1
  6
CONTINUOUS
 62
     3
100
AcDbCircle
 10
741.628666
 20
386.9
 30
0.0
 40
1.0
100
AcDbArc
 50
90.0
 51
175.763605
  0
LINE
  5
1DD
100
AcDbEntity
  8
LAY-1
  6
CONTINUOUS
 62
     3
100
AcDbLine
 10
708.7
 20
394.3
 30
0.0
 11
742.7
 21
394.3
 31
0.0
  0
LINE
  5
1DE
100
AcDbEntity
  8
LAY-1
  6
CONTINUOUS
 62
     3
100
AcDbLine
 10
708.7
 20
387.9
 30
0.0
 11
742.7
 21
387.9
 31
0.0
  0
LINE
  5
1DF
100
AcDbEntity
  8
LAY-1
  6
CONTINUOUS
 62
     3
100
AcDbLine
 10
742.7
 20
387.9
 30
0.0
 11
742.7
 21
394.3
 31
0.0
  0
LINE
  5
1E0
100
AcDbEntity
  8
LAY-1
  6
CONTINUOUS
 62
     3
100
AcDbLine
 10
764.950062
 20
434.899969
 30
0.0
 11
764.95
 21
434.899969
 31
0.0
  0
LINE
  5
1E1
100
AcDbEntity
  8
LAY-1
  6
CONTINUOUS
 62
     3
100
AcDbLine
 10
739.7
 20
437.3
 30
0.0
 11
711.7
 21
437.3
 31
0.0
  0
LINE
  5
1E2
100
AcDbEntity
  8
LAY-1
  6
CONTINUOUS
 62
     3
100
AcDbLine
 10
711.7
 20
437.3
 30
0.0
 11
711.7
 21
403.7
 31
0.0
  0
LINE
  5
1E3
100
AcDbEntity
  8
LAY-1
  6
CONTINUOUS
 62
     3
100
AcDbLine
 10
739.7
 20
437.3
 30
0.0
 11
739.7
 21
403.7
 31
0.0
  0
LINE
  5
1E4
100
AcDbEntity
  8
LAY-1
  6
CONTINUOUS
 62
     3
100
AcDbLine
 10
742.7
 20
397.3
 30
0.0
 11
742.7
 21
403.7
 31
0.0
  0
LINE
  5
1E5
100
AcDbEntity
  8
LAY-1
  6
CONTINUOUS
 62
     3
100
AcDbLine
 10
708.7
 20
397.3
 30
0.0
 11
708.7
 21
403.7
 31
0.0
  0
LINE
  5
1E6
100
AcDbEntity
  8
LAY-1
  6
CONTINUOUS
 62
     3
100
AcDbLine
 10
745.7
 20
397.3
 30
0.0
 11
745.7
 21
396.500012
 31
0.0
  0
LINE
  5
1E7
100
AcDbEntity
  8
LAY-1
  6
CONTINUOUS
 62
     3
100
AcDbLine
 10
745.7
 20
397.3
 30
0.0
 11
705.7
 21
397.3
 31
0.0
  0
LINE
  5
1E8
100
AcDbEntity
  8
LAY-1
  6
CONTINUOUS
 62
     3
100
AcDbLine
 10
745.7
 20
396.500012
 30
0.0
 11
705.7
 21
396.500012
 31
0.0
  0
LINE
  5
1E9
100
AcDbEntity
  8
LAY-1
  6
CONTINUOUS
 62
     3
100
AcDbLine
 10
705.7
 20
396.500012
 30
0.0
 11
705.7
 21
397.3
 31
0.0
  0
LINE
  5
1EA
100
AcDbEntity
  8
LAY-1
  6
CONTINUOUS
 62
     3
100
AcDbLine
 10
708.7
 20
403.7
 30
0.0
 11
742.7
 21
403.7
 31
0.0
  0
LINE
  5
1EB
100
AcDbEntity
  8
LAY-1
  6
CONTINUOUS
 62
     3
100
AcDbLine
 10
716.2
 20
396.500012
 30
0.0
 11
716.2
 21
394.3
 31
0.0
  0
LINE
  5
1EC
100
AcDbEntity
  8
LAY-1
  6
CONTINUOUS
 62
     3
100
AcDbLine
 10
735.2
 20
396.500012
 30
0.0
 11
735.2
 21
394.3
 31
0.0
  0
LINE
  5
1ED
100
AcDbEntity
  8
LAY-1
  6
CONTINUOUS
 62
     3
100
AcDbLine
 10
750.7
 20
118.3
 30
0.0
 11
750.7
 21
119.8
 31
0.0
  0
LINE
  5
1EE
100
AcDbEntity
  8
LAY-1
  6
CONTINUOUS
 62
     3
100
AcDbLine
 10
700.7
 20
119.8
 30
0.0
 11
750.7
 21
119.8
 31
0.0
  0
LINE
  5
1EF
100
AcDbEntity
  8
LAY-1
  6
CONTINUOUS
 62
     3
100
AcDbLine
 10
700.7
 20
118.3
 30
0.0
 11
700.7
 21
119.8
 31
0.0
  0
LINE
  5
1F0
100
AcDbEntity
  8
LAY-1
  6
CONTINUOUS
 62
     3
100
AcDbLine
 10
700.7
 20
118.3
 30
0.0
 11
750.7
 21
118.3
 31
0.0
  0
LINE
  5
1F1
100
AcDbEntity
  8
LAY-1
  6
CONTINUOUS
 62
     3
100
AcDbLine
 10
747.7
 20
118.3
 30
0.0
 11
747.7
 21
88.3
 31
0.0
  0
LINE
  5
1F2
100
AcDbEntity
  8
LAY-1
  6
CONTINUOUS
 62
     3
100
AcDbLine
 10
703.7
 20
118.3
 30
0.0
 11
703.7
 21
88.3
 31
0.0
  0
LINE
  5
1F3
100
AcDbEntity
  8
LAY-1
  6
CONTINUOUS
 62
     3
100
AcDbLine
 10
703.7
 20
88.3
 30
0.0
 11
747.7
 21
88.3
 31
0.0
  0
LINE
  5
1F4
100
AcDbEntity
  8
LAY-1
  6
DASHED2
 62
     3
100
AcDbLine
 10
706.7
 20
103.3
 30
0.0
 11
712.7
 21
103.3
 31
0.0
  0
LINE
  5
1F5
100
AcDbEntity
  8
LAY-1
  6
DASHED2
 62
     3
100
AcDbLine
 10
712.7
 20
100.3
 30
0.0
 11
709.7
 21
100.3
 31
0.0
  0
LINE
  5
1F6
100
AcDbEntity
  8
LAY-1
  6
DASHED2
 62
     3
100
AcDbLine
 10
706.7
 20
103.3
 30
0.0
 11
709.7
 21
100.3
 31
0.0
  0
LINE
  5
1F7
100
AcDbEntity
  8
LAY-1
  6
DASHED2
 62
     3
100
AcDbLine
 10
718.7
 20
103.3
 30
0.0
 11
712.7
 21
103.3
 31
0.0
  0
LINE
  5
1F8
100
AcDbEntity
  8
LAY-1
  6
DASHED2
 62
     3
100
AcDbLine
 10
712.7
 20
100.3
 30
0.0
 11
715.7
 21
100.3
 31
0.0
  0
LINE
  5
1F9
100
AcDbEntity
  8
LAY-1
  6
DASHED2
 62
     3
100
AcDbLine
 10
718.7
 20
103.3
 30
0.0
 11
715.7
 21
100.3
 31
0.0
  0
LINE
  5
1FA
100
AcDbEntity
  8
LAY-1
  6
CONTINUOUS
 62
     3
100
AcDbLine
 10
712.7
 20
78.3
 30
0.0
 11
709.7
 21
78.3
 31
0.0
  0
LINE
  5
1FB
100
AcDbEntity
  8
LAY-1
  6
CONTINUOUS
 62
     3
100
AcDbLine
 10
712.7
 20
78.3
 30
0.0
 11
715.7
 21
78.3
 31
0.0
  0
LINE
  5
1FC
100
AcDbEntity
  8
LAY-1
  6
CONTINUOUS
 62
     3
100
AcDbLine
 10
709.7
 20
83.8
 30
0.0
 11
709.7
 21
78.3
 31
0.0
  0
LINE
  5
1FD
100
AcDbEntity
  8
LAY-1
  6
CONTINUOUS
 62
     3
100
AcDbLine
 10
710.2
 20
83.8
 30
0.0
 11
710.2
 21
78.3
 31
0.0
  0
LINE
  5
1FE
100
AcDbEntity
  8
LAY-1
  6
CONTINUOUS
 62
     3
100
AcDbLine
 10
715.7
 20
83.8
 30
0.0
 11
715.7
 21
78.3
 31
0.0
  0
LINE
  5
1FF
100
AcDbEntity
  8
LAY-1
  6
CONTINUOUS
 62
     3
100
AcDbLine
 10
715.2
 20
83.8
 30
0.0
 11
715.2
 21
78.3
 31
0.0
  0
LINE
  5
200
100
AcDbEntity
  8
LAY-1
  6
DASHED2
 62
     3
100
AcDbLine
 10
709.7
 20
100.3
 30
0.0
 11
709.7
 21
83.8
 31
0.0
  0
LINE
  5
201
100
AcDbEntity
  8
LAY-1
  6
DASHED2
 62
     3
100
AcDbLine
 10
710.2
 20
100.3
 30
0.0
 11
710.2
 21
83.8
 31
0.0
  0
LINE
  5
202
100
AcDbEntity
  8
LAY-1
  6
DASHED2
 62
     3
100
AcDbLine
 10
715.2
 20
100.3
 30
0.0
 11
715.2
 21
83.8
 31
0.0
  0
LINE
  5
203
100
AcDbEntity
  8
LAY-1
  6
DASHED2
 62
     3
100
AcDbLine
 10
715.7
 20
100.3
 30
0.0
 11
715.7
 21
83.8
 31
0.0
  0
LINE
  5
204
100
AcDbEntity
  8
LAY-1
  6
DASHED2
 62
     3
100
AcDbLine
 10
744.7
 20
103.3
 30
0.0
 11
738.7
 21
103.3
 31
0.0
  0
LINE
  5
205
100
AcDbEntity
  8
LAY-1
  6
DASHED2
 62
     3
100
AcDbLine
 10
738.7
 20
100.3
 30
0.0
 11
741.7
 21
100.3
 31
0.0
  0
LINE
  5
206
100
AcDbEntity
  8
LAY-1
  6
DASHED2
 62
     3
100
AcDbLine
 10
744.7
 20
103.3
 30
0.0
 11
741.7
 21
100.3
 31
0.0
  0
LINE
  5
207
100
AcDbEntity
  8
LAY-1
  6
DASHED2
 62
     3
100
AcDbLine
 10
732.7
 20
103.3
 30
0.0
 11
738.7
 21
103.3
 31
0.0
  0
LINE
  5
208
100
AcDbEntity
  8
LAY-1
  6
DASHED2
 62
     3
100
AcDbLine
 10
738.7
 20
100.3
 30
0.0
 11
735.7
 21
100.3
 31
0.0
  0
LINE
  5
209
100
AcDbEntity
  8
LAY-1
  6
DASHED2
 62
     3
100
AcDbLine
 10
732.7
 20
103.3
 30
0.0
 11
735.7
 21
100.3
 31
0.0
  0
LINE
  5
20A
100
AcDbEntity
  8
LAY-1
  6
DASHED2
 62
     3
100
AcDbLine
 10
738.7
 20
100.3
 30
0.0
 11
741.7
 21
100.3
 31
0.0
  0
LINE
  5
20B
100
AcDbEntity
  8
LAY-1
  6
DASHED2
 62
     3
100
AcDbLine
 10
738.7
 20
100.3
 30
0.0
 11
735.7
 21
100.3
 31
0.0
  0
LINE
  5
20C
100
AcDbEntity
  8
LAY-1
  6
CONTINUOUS
 62
     3
100
AcDbLine
 10
738.7
 20
78.3
 30
0.0
 11
741.7
 21
78.3
 31
0.0
  0
LINE
  5
20D
100
AcDbEntity
  8
LAY-1
  6
CONTINUOUS
 62
     3
100
AcDbLine
 10
738.7
 20
78.3
 30
0.0
 11
735.7
 21
78.3
 31
0.0
  0
LINE
  5
20E
100
AcDbEntity
  8
LAY-1
  6
DASHED2
 62
     3
100
AcDbLine
 10
706.7
 20
118.3
 30
0.0
 11
706.7
 21
103.3
 31
0.0
  0
LINE
  5
20F
100
AcDbEntity
  8
LAY-1
  6
DASHED2
 62
     3
100
AcDbLine
 10
718.7
 20
118.3
 30
0.0
 11
718.7
 21
103.3
 31
0.0
  0
LINE
  5
210
100
AcDbEntity
  8
LAY-1
  6
DASHED2
 62
     3
100
AcDbLine
 10
744.7
 20
118.3
 30
0.0
 11
744.7
 21
103.3
 31
0.0
  0
LINE
  5
211
100
AcDbEntity
  8
LAY-1
  6
DASHED2
 62
     3
100
AcDbLine
 10
732.7
 20
118.3
 30
0.0
 11
732.7
 21
103.3
 31
0.0
  0
LINE
  5
212
100
AcDbEntity
  8
LAY-1
  6
CONTINUOUS
 62
     3
100
AcDbLine
 10
735.7
 20
81.8
 30
0.0
 11
735.7
 21
78.3
 31
0.0
  0
LINE
  5
213
100
AcDbEntity
  8
LAY-1
  6
CONTINUOUS
 62
     3
100
AcDbLine
 10
736.2
 20
81.8
 30
0.0
 11
736.2
 21
78.3
 31
0.0
  0
LINE
  5
214
100
AcDbEntity
  8
LAY-1
  6
CONTINUOUS
 62
     3
100
AcDbLine
 10
741.7
 20
81.8
 30
0.0
 11
741.7
 21
78.3
 31
0.0
  0
LINE
  5
215
100
AcDbEntity
  8
LAY-1
  6
CONTINUOUS
 62
     3
100
AcDbLine
 10
741.2
 20
81.8
 30
0.0
 11
741.2
 21
78.3
 31
0.0
  0
LINE
  5
216
100
AcDbEntity
  8
LAY-1
  6
DASHED2
 62
     3
100
AcDbLine
 10
735.7
 20
100.3
 30
0.0
 11
735.7
 21
81.8
 31
0.0
  0
LINE
  5
217
100
AcDbEntity
  8
LAY-1
  6
DASHED2
 62
     3
100
AcDbLine
 10
736.2
 20
100.3
 30
0.0
 11
736.2
 21
81.8
 31
0.0
  0
LINE
  5
218
100
AcDbEntity
  8
LAY-1
  6
DASHED2
 62
     3
100
AcDbLine
 10
741.2
 20
100.3
 30
0.0
 11
741.2
 21
81.8
 31
0.0
  0
LINE
  5
219
100
AcDbEntity
  8
LAY-1
  6
DASHED2
 62
     3
100
AcDbLine
 10
741.7
 20
100.3
 30
0.0
 11
741.7
 21
81.8
 31
0.0
  0
ARC
  5
21A
100
AcDbEntity
  8
LAY-1
  6
CONTINUOUS
 62
     3
100
AcDbCircle
 10
710.2
 20
148.8
 30
0.0
 40
1.5
100
AcDbArc
 50
90.0
 51
180.0
  0
ARC
  5
21B
100
AcDbEntity
  8
LAY-1
  6
CONTINUOUS
 62
     3
100
AcDbCircle
 10
710.2
 20
125.8
 30
0.0
 40
1.5
100
AcDbArc
 50
180.0
 51
270.0
  0
ARC
  5
21C
100
AcDbEntity
  8
LAY-1
  6
CONTINUOUS
 62
     3
100
AcDbCircle
 10
741.2
 20
125.8
 30
0.0
 40
1.5
100
AcDbArc
 50
270.0
 51
0.0
  0
ARC
  5
21D
100
AcDbEntity
  8
LAY-1
  6
CONTINUOUS
 62
     3
100
AcDbCircle
 10
741.2
 20
148.8
 30
0.0
 40
1.5
100
AcDbArc
 50
0.0
 51
90.0
  0
LINE
  5
21E
100
AcDbEntity
  8
LAY-1
  6
CONTINUOUS
 62
     3
100
AcDbLine
 10
741.2
 20
150.3
 30
0.0
 11
725.7
 21
150.3
 31
0.0
  0
LINE
  5
21F
100
AcDbEntity
  8
LAY-1
  6
CONTINUOUS
 62
     3
100
AcDbLine
 10
710.2
 20
150.3
 30
0.0
 11
725.7
 21
150.3
 31
0.0
  0
LINE
  5
220
100
AcDbEntity
  8
LAY-1
  6
CONTINUOUS
 62
     3
100
AcDbLine
 10
708.7
 20
125.8
 30
0.0
 11
708.7
 21
148.8
 31
0.0
  0
LINE
  5
221
100
AcDbEntity
  8
LAY-1
  6
CONTINUOUS
 62
     3
100
AcDbLine
 10
742.7
 20
125.8
 30
0.0
 11
742.7
 21
148.8
 31
0.0
  0
ARC
  5
222
100
AcDbEntity
  8
LAY-1
  6
CONTINUOUS
 62
     3
100
AcDbCircle
 10
67.2
 20
148.8
 30
0.0
 40
1.5
100
AcDbArc
 50
90.0
 51
180.0
  0
ARC
  5
223
100
AcDbEntity
  8
LAY-1
  6
CONTINUOUS
 62
     3
100
AcDbCircle
 10
67.2
 20
125.8
 30
0.0
 40
1.5
100
AcDbArc
 50
180.0
 51
270.0
  0
LINE
  5
224
100
AcDbEntity
  8
LAY-1
  6
CONTINUOUS
 62
     3
100
AcDbLine
 10
65.7
 20
125.8
 30
0.0
 11
65.7
 21
148.8
 31
0.0
  0
LINE
  5
225
100
AcDbEntity
  8
LAY-1
  6
CONTINUOUS
 62
     3
100
AcDbLine
 10
67.2
 20
150.3
 30
0.0
 11
95.7
 21
150.3
 31
0.0
  0
ARC
  5
226
100
AcDbEntity
  8
LAY-1
  6
CONTINUOUS
 62
     3
100
AcDbCircle
 10
124.2
 20
125.8
 30
0.0
 40
1.5
100
AcDbArc
 50
270.0
 51
0.0
  0
LINE
  5
227
100
AcDbEntity
  8
LAY-1
  6
CONTINUOUS
 62
     3
100
AcDbLine
 10
125.7
 20
125.8
 30
0.0
 11
125.7
 21
133.8
 31
0.0
  0
ARC
  5
228
100
AcDbEntity
  8
LAY-1
  6
CONTINUOUS
 62
     3
100
AcDbCircle
 10
127.2
 20
133.8
 30
0.0
 40
1.5
100
AcDbArc
 50
90.0
 51
180.0
  0
LINE
  5
229
100
AcDbEntity
  8
LAY-1
  6
CONTINUOUS
 62
     3
100
AcDbLine
 10
70.7
 20
88.3
 30
0.0
 11
70.7
 21
119.8
 31
0.0
  0
LINE
  5
22A
100
AcDbEntity
  8
LAY-1
  6
CONTINUOUS
 62
     3
100
AcDbLine
 10
70.7
 20
119.8
 30
0.0
 11
160.7
 21
119.8
 31
0.0
  0
LINE
  5
22B
100
AcDbEntity
  8
LAY-1
  6
CONTINUOUS
 62
     3
100
AcDbLine
 10
70.7
 20
118.3
 30
0.0
 11
160.7
 21
118.3
 31
0.0
  0
LINE
  5
22C
100
AcDbEntity
  8
LAY-1
  6
CONTINUOUS
 62
     3
100
AcDbLine
 10
160.7
 20
119.8
 30
0.0
 11
160.7
 21
118.3
 31
0.0
  0
LINE
  5
22D
100
AcDbEntity
  8
LAY-1
  6
CONTINUOUS
 62
     3
100
AcDbLine
 10
70.7
 20
88.3
 30
0.0
 11
155.7
 21
88.3
 31
0.0
  0
LINE
  5
22E
100
AcDbEntity
  8
LAY-1
  6
CONTINUOUS
 62
     3
100
AcDbLine
 10
155.7
 20
118.3
 30
0.0
 11
155.7
 21
88.3
 31
0.0
  0
LINE
  5
22F
100
AcDbEntity
  8
LAY-1
  6
DASHED2
 62
     3
100
AcDbLine
 10
145.7
 20
78.3
 30
0.0
 11
148.7
 21
78.3
 31
0.0
  0
LINE
  5
230
100
AcDbEntity
  8
LAY-1
  6
DASHED2
 62
     3
100
AcDbLine
 10
145.7
 20
78.3
 30
0.0
 11
142.7
 21
78.3
 31
0.0
  0
LINE
  5
231
100
AcDbEntity
  8
LAY-1
  6
DASHED2
 62
     3
100
AcDbLine
 10
135.7
 20
135.8
 30
0.0
 11
141.7
 21
135.8
 31
0.0
  0
LINE
  5
232
100
AcDbEntity
  8
LAY-1
  6
DASHED2
 62
     3
100
AcDbLine
 10
141.7
 20
135.8
 30
0.0
 11
141.7
 21
135.3
 31
0.0
  0
LINE
  5
233
100
AcDbEntity
  8
LAY-1
  6
DASHED2
 62
     3
100
AcDbLine
 10
138.7
 20
157.1
 30
0.0
 11
138.7
 21
138.8
 31
0.0
  0
LINE
  5
234
100
AcDbEntity
  8
LAY-1
  6
DASHED2
 62
     3
100
AcDbLine
 10
138.2
 20
157.1
 30
0.0
 11
138.2
 21
138.8
 31
0.0
  0
LINE
  5
235
100
AcDbEntity
  8
LAY-1
  6
DASHED2
 62
     3
100
AcDbLine
 10
135.7
 20
138.8
 30
0.0
 11
138.7
 21
138.8
 31
0.0
  0
LINE
  5
236
100
AcDbEntity
  8
LAY-1
  6
DASHED2
 62
     3
100
AcDbLine
 10
141.7
 20
135.8
 30
0.0
 11
138.7
 21
138.8
 31
0.0
  0
LINE
  5
237
100
AcDbEntity
  8
LAY-1
  6
CONTINUOUS
 62
     3
100
AcDbLine
 10
135.7
 20
160.8
 30
0.0
 11
138.7
 21
160.8
 31
0.0
  0
LINE
  5
238
100
AcDbEntity
  8
LAY-1
  6
CONTINUOUS
 62
     3
100
AcDbLine
 10
138.7
 20
157.1
 30
0.0
 11
138.7
 21
160.8
 31
0.0
  0
LINE
  5
239
100
AcDbEntity
  8
LAY-1
  6
CONTINUOUS
 62
     3
100
AcDbLine
 10
138.2
 20
157.1
 30
0.0
 11
138.2
 21
160.8
 31
0.0
  0
LINE
  5
23A
100
AcDbEntity
  8
LAY-1
  6
DASHED2
 62
     3
100
AcDbLine
 10
135.7
 20
135.8
 30
0.0
 11
129.7
 21
135.8
 31
0.0
  0
LINE
  5
23B
100
AcDbEntity
  8
LAY-1
  6
DASHED2
 62
     3
100
AcDbLine
 10
129.7
 20
135.8
 30
0.0
 11
129.7
 21
135.3
 31
0.0
  0
LINE
  5
23C
100
AcDbEntity
  8
LAY-1
  6
DASHED2
 62
     3
100
AcDbLine
 10
132.7
 20
157.1
 30
0.0
 11
132.7
 21
138.8
 31
0.0
  0
LINE
  5
23D
100
AcDbEntity
  8
LAY-1
  6
DASHED2
 62
     3
100
AcDbLine
 10
133.2
 20
157.1
 30
0.0
 11
133.2
 21
138.8
 31
0.0
  0
LINE
  5
23E
100
AcDbEntity
  8
LAY-1
  6
DASHED2
 62
     3
100
AcDbLine
 10
135.7
 20
138.8
 30
0.0
 11
132.7
 21
138.8
 31
0.0
  0
LINE
  5
23F
100
AcDbEntity
  8
LAY-1
  6
DASHED2
 62
     3
100
AcDbLine
 10
129.7
 20
135.8
 30
0.0
 11
132.7
 21
138.8
 31
0.0
  0
LINE
  5
240
100
AcDbEntity
  8
LAY-1
  6
CONTINUOUS
 62
     3
100
AcDbLine
 10
135.7
 20
160.8
 30
0.0
 11
132.7
 21
160.8
 31
0.0
  0
LINE
  5
241
100
AcDbEntity
  8
LAY-1
  6
CONTINUOUS
 62
     3
100
AcDbLine
 10
132.7
 20
157.1
 30
0.0
 11
132.7
 21
160.8
 31
0.0
  0
LINE
  5
242
100
AcDbEntity
  8
LAY-1
  6
CONTINUOUS
 62
     3
100
AcDbLine
 10
133.2
 20
157.1
 30
0.0
 11
133.2
 21
160.8
 31
0.0
  0
LINE
  5
243
100
AcDbEntity
  8
LAY-1
  6
DASHED2
 62
     3
100
AcDbLine
 10
165.7
 20
135.8
 30
0.0
 11
171.7
 21
135.8
 31
0.0
  0
LINE
  5
244
100
AcDbEntity
  8
LAY-1
  6
DASHED2
 62
     3
100
AcDbLine
 10
171.7
 20
135.8
 30
0.0
 11
171.7
 21
135.3
 31
0.0
  0
LINE
  5
245
100
AcDbEntity
  8
LAY-1
  6
DASHED2
 62
     3
100
AcDbLine
 10
168.7
 20
157.1
 30
0.0
 11
168.7
 21
138.8
 31
0.0
  0
LINE
  5
246
100
AcDbEntity
  8
LAY-1
  6
DASHED2
 62
     3
100
AcDbLine
 10
168.2
 20
157.1
 30
0.0
 11
168.2
 21
138.8
 31
0.0
  0
LINE
  5
247
100
AcDbEntity
  8
LAY-1
  6
DASHED2
 62
     3
100
AcDbLine
 10
165.7
 20
138.8
 30
0.0
 11
168.7
 21
138.8
 31
0.0
  0
LINE
  5
248
100
AcDbEntity
  8
LAY-1
  6
DASHED2
 62
     3
100
AcDbLine
 10
171.7
 20
135.8
 30
0.0
 11
168.7
 21
138.8
 31
0.0
  0
LINE
  5
249
100
AcDbEntity
  8
LAY-1
  6
CONTINUOUS
 62
     3
100
AcDbLine
 10
165.7
 20
160.8
 30
0.0
 11
168.7
 21
160.8
 31
0.0
  0
LINE
  5
24A
100
AcDbEntity
  8
LAY-1
  6
CONTINUOUS
 62
     3
100
AcDbLine
 10
168.7
 20
157.1
 30
0.0
 11
168.7
 21
160.8
 31
0.0
  0
LINE
  5
24B
100
AcDbEntity
  8
LAY-1
  6
CONTINUOUS
 62
     3
100
AcDbLine
 10
168.2
 20
157.1
 30
0.0
 11
168.2
 21
160.8
 31
0.0
  0
LINE
  5
24C
100
AcDbEntity
  8
LAY-1
  6
DASHED2
 62
     3
100
AcDbLine
 10
165.7
 20
135.8
 30
0.0
 11
159.7
 21
135.8
 31
0.0
  0
LINE
  5
24D
100
AcDbEntity
  8
LAY-1
  6
DASHED2
 62
     3
100
AcDbLine
 10
159.7
 20
135.8
 30
0.0
 11
159.7
 21
135.3
 31
0.0
  0
LINE
  5
24E
100
AcDbEntity
  8
LAY-1
  6
DASHED2
 62
     3
100
AcDbLine
 10
162.7
 20
157.1
 30
0.0
 11
162.7
 21
138.8
 31
0.0
  0
LINE
  5
24F
100
AcDbEntity
  8
LAY-1
  6
DASHED2
 62
     3
100
AcDbLine
 10
163.2
 20
157.1
 30
0.0
 11
163.2
 21
138.8
 31
0.0
  0
LINE
  5
250
100
AcDbEntity
  8
LAY-1
  6
DASHED2
 62
     3
100
AcDbLine
 10
165.7
 20
138.8
 30
0.0
 11
162.7
 21
138.8
 31
0.0
  0
LINE
  5
251
100
AcDbEntity
  8
LAY-1
  6
DASHED2
 62
     3
100
AcDbLine
 10
159.7
 20
135.8
 30
0.0
 11
162.7
 21
138.8
 31
0.0
  0
LINE
  5
252
100
AcDbEntity
  8
LAY-1
  6
CONTINUOUS
 62
     3
100
AcDbLine
 10
165.7
 20
160.8
 30
0.0
 11
162.7
 21
160.8
 31
0.0
  0
LINE
  5
253
100
AcDbEntity
  8
LAY-1
  6
CONTINUOUS
 62
     3
100
AcDbLine
 10
162.7
 20
157.1
 30
0.0
 11
162.7
 21
160.8
 31
0.0
  0
LINE
  5
254
100
AcDbEntity
  8
LAY-1
  6
CONTINUOUS
 62
     3
100
AcDbLine
 10
163.2
 20
157.1
 30
0.0
 11
163.2
 21
160.8
 31
0.0
  0
LINE
  5
255
100
AcDbEntity
  8
LAY-1
  6
DASHED2
 62
     3
100
AcDbLine
 10
268.7
 20
135.8
 30
0.0
 11
274.7
 21
135.8
 31
0.0
  0
LINE
  5
256
100
AcDbEntity
  8
LAY-1
  6
DASHED2
 62
     3
100
AcDbLine
 10
274.7
 20
135.8
 30
0.0
 11
274.7
 21
135.3
 31
0.0
  0
LINE
  5
257
100
AcDbEntity
  8
LAY-1
  6
DASHED2
 62
     3
100
AcDbLine
 10
271.7
 20
157.1
 30
0.0
 11
271.7
 21
138.8
 31
0.0
  0
LINE
  5
258
100
AcDbEntity
  8
LAY-1
  6
DASHED2
 62
     3
100
AcDbLine
 10
271.2
 20
157.1
 30
0.0
 11
271.2
 21
138.8
 31
0.0
  0
LINE
  5
259
100
AcDbEntity
  8
LAY-1
  6
DASHED2
 62
     3
100
AcDbLine
 10
268.7
 20
138.8
 30
0.0
 11
271.7
 21
138.8
 31
0.0
  0
LINE
  5
25A
100
AcDbEntity
  8
LAY-1
  6
DASHED2
 62
     3
100
AcDbLine
 10
274.7
 20
135.8
 30
0.0
 11
271.7
 21
138.8
 31
0.0
  0
LINE
  5
25B
100
AcDbEntity
  8
LAY-1
  6
CONTINUOUS
 62
     3
100
AcDbLine
 10
268.7
 20
160.8
 30
0.0
 11
271.7
 21
160.8
 31
0.0
  0
LINE
  5
25C
100
AcDbEntity
  8
LAY-1
  6
CONTINUOUS
 62
     3
100
AcDbLine
 10
271.7
 20
157.1
 30
0.0
 11
271.7
 21
160.8
 31
0.0
  0
LINE
  5
25D
100
AcDbEntity
  8
LAY-1
  6
CONTINUOUS
 62
     3
100
AcDbLine
 10
271.2
 20
157.1
 30
0.0
 11
271.2
 21
160.8
 31
0.0
  0
LINE
  5
25E
100
AcDbEntity
  8
LAY-1
  6
DASHED2
 62
     3
100
AcDbLine
 10
268.7
 20
135.8
 30
0.0
 11
262.7
 21
135.8
 31
0.0
  0
LINE
  5
25F
100
AcDbEntity
  8
LAY-1
  6
DASHED2
 62
     3
100
AcDbLine
 10
262.7
 20
135.8
 30
0.0
 11
262.7
 21
135.3
 31
0.0
  0
LINE
  5
260
100
AcDbEntity
  8
LAY-1
  6
DASHED2
 62
     3
100
AcDbLine
 10
265.7
 20
157.1
 30
0.0
 11
265.7
 21
138.8
 31
0.0
  0
LINE
  5
261
100
AcDbEntity
  8
LAY-1
  6
DASHED2
 62
     3
100
AcDbLine
 10
266.2
 20
157.1
 30
0.0
 11
266.2
 21
138.8
 31
0.0
  0
LINE
  5
262
100
AcDbEntity
  8
LAY-1
  6
DASHED2
 62
     3
100
AcDbLine
 10
268.7
 20
138.8
 30
0.0
 11
265.7
 21
138.8
 31
0.0
  0
LINE
  5
263
100
AcDbEntity
  8
LAY-1
  6
DASHED2
 62
     3
100
AcDbLine
 10
262.7
 20
135.8
 30
0.0
 11
265.7
 21
138.8
 31
0.0
  0
LINE
  5
264
100
AcDbEntity
  8
LAY-1
  6
CONTINUOUS
 62
     3
100
AcDbLine
 10
268.7
 20
160.8
 30
0.0
 11
265.7
 21
160.8
 31
0.0
  0
LINE
  5
265
100
AcDbEntity
  8
LAY-1
  6
CONTINUOUS
 62
     3
100
AcDbLine
 10
265.7
 20
157.1
 30
0.0
 11
265.7
 21
160.8
 31
0.0
  0
LINE
  5
266
100
AcDbEntity
  8
LAY-1
  6
CONTINUOUS
 62
     3
100
AcDbLine
 10
266.2
 20
157.1
 30
0.0
 11
266.2
 21
160.8
 31
0.0
  0
LINE
  5
267
100
AcDbEntity
  8
LAY-1
  6
CONTINUOUS
 62
     3
100
AcDbLine
 10
127.2
 20
135.3
 30
0.0
 11
288.0
 21
135.3
 31
0.0
  0
LINE
  5
268
100
AcDbEntity
  8
LAY-1
  6
CONTINUOUS
 62
     3
100
AcDbLine
 10
288.0
 20
150.3
 30
0.0
 11
95.7
 21
150.3
 31
0.0
  0
LINE
  5
269
100
AcDbEntity
  8
LAY-1
  6
CONTINUOUS
 62
     3
100
AcDbLine
 10
545.59997
 20
509.05
 30
0.0
 11
545.6
 21
513.55
 31
0.0
  0
ARC
  5
26A
100
AcDbEntity
  8
LAY-1
  6
CONTINUOUS
 62
     3
100
AcDbCircle
 10
493.6
 20
511.3
 30
0.0
 40
5.0
100
AcDbArc
 50
26.743665
 51
153.256355
  0
ARC
  5
26B
100
AcDbEntity
  8
LAY-1
  6
CONTINUOUS
 62
     3
100
AcDbCircle
 10
493.6
 20
511.3
 30
0.0
 40
5.0
100
AcDbArc
 50
205.468338
 51
331.882709
  0
ARC
  5
26C
100
AcDbEntity
  8
LAY-1
  6
CONTINUOUS
 62
     3
100
AcDbCircle
 10
534.6
 20
511.3
 30
0.0
 40
6.0
100
AcDbArc
 50
22.024383
 51
156.514709
  0
ARC
  5
26D
100
AcDbEntity
  8
LAY-1
  6
CONTINUOUS
 62
     3
100
AcDbCircle
 10
534.6
 20
511.3
 30
0.0
 40
6.0
100
AcDbArc
 50
203.485273
 51
337.366545
  0
LINE
  5
26E
100
AcDbEntity
  8
LAY-1
  6
CONTINUOUS
 62
     3
100
AcDbLine
 10
519.600031
 20
508.750073
 30
0.0
 11
507.600031
 21
508.750073
 31
0.0
  0
LINE
  5
26F
100
AcDbEntity
  8
LAY-1
  6
CONTINUOUS
 62
     3
100
AcDbLine
 10
519.600031
 20
513.850049
 30
0.0
 11
507.600031
 21
513.850049
 31
0.0
  0
LINE
  5
270
100
AcDbEntity
  8
LAY-1
  6
CONTINUOUS
 62
     3
100
AcDbLine
 10
519.600031
 20
517.050061
 30
0.0
 11
507.600031
 21
517.050061
 31
0.0
  0
LINE
  5
271
100
AcDbEntity
  8
LAY-1
  6
CONTINUOUS
 62
     3
100
AcDbLine
 10
507.600031
 20
505.550061
 30
0.0
 11
519.600031
 21
505.550061
 31
0.0
  0
LINE
  5
272
100
AcDbEntity
  8
LAY-1
  6
CONTINUOUS
 62
     3
100
AcDbLine
 10
517.100031
 20
513.850049
 30
0.0
 11
517.100031
 21
513.55
 31
0.0
  0
LINE
  5
273
100
AcDbEntity
  8
LAY-1
  6
CONTINUOUS
 62
     3
100
AcDbLine
 10
510.100031
 20
513.850049
 30
0.0
 11
510.100031
 21
513.55
 31
0.0
  0
LINE
  5
274
100
AcDbEntity
  8
LAY-1
  6
CONTINUOUS
 62
     3
100
AcDbLine
 10
517.100031
 20
509.05
 30
0.0
 11
517.100031
 21
508.750073
 31
0.0
  0
LINE
  5
275
100
AcDbEntity
  8
LAY-1
  6
CONTINUOUS
 62
     3
100
AcDbLine
 10
510.100031
 20
509.05
 30
0.0
 11
510.100031
 21
508.750073
 31
0.0
  0
CIRCLE
  5
276
100
AcDbEntity
  8
LAY-1
  6
CONTINUOUS
 62
     3
100
AcDbCircle
 10
433.6
 20
511.3
 30
0.0
 40
14.0
  0
CIRCLE
  5
277
100
AcDbEntity
  8
LAY-1
  6
CONTINUOUS
 62
     3
100
AcDbCircle
 10
433.6
 20
511.3
 30
0.0
 40
9.5
  0
LINE
  5
278
100
AcDbEntity
  8
LAY-1
  6
CONTINUOUS
 62
     3
100
AcDbLine
 10
442.829691
 20
513.55
 30
0.0
 11
442.829707
 21
513.55
 31
0.0
  0
LINE
  5
279
100
AcDbEntity
  8
LAY-1
  6
CONTINUOUS
 62
     3
100
AcDbLine
 10
447.418014
 20
513.55
 30
0.0
 11
545.6
 21
513.55
 31
0.0
  0
LINE
  5
27A
100
AcDbEntity
  8
LAY-1
  6
CONTINUOUS
 62
     3
100
AcDbLine
 10
442.829691
 20
509.05
 30
0.0
 11
442.829707
 21
509.05
 31
0.0
  0
LINE
  5
27B
100
AcDbEntity
  8
LAY-1
  6
CONTINUOUS
 62
     3
100
AcDbLine
 10
447.418014
 20
509.05
 30
0.0
 11
545.6
 21
509.05
 31
0.0
  0
LINE
  5
27C
100
AcDbEntity
  8
LAY-1
  6
CONTINUOUS
 62
     3
100
AcDbLine
 10
568.6
 20
494.3
 30
0.0
 11
568.6
 21
528.3
 31
0.0
  0
LINE
  5
27D
100
AcDbEntity
  8
LAY-1
  6
CONTINUOUS
 62
     3
100
AcDbLine
 10
574.6
 20
491.3
 30
0.0
 11
574.6
 21
531.3
 31
0.0
  0
LINE
  5
27E
100
AcDbEntity
  8
LAY-1
  6
CONTINUOUS
 62
     3
100
AcDbLine
 10
519.600031
 20
517.050061
 30
0.0
 11
519.600031
 21
513.850049
 31
0.0
  0
LINE
  5
27F
100
AcDbEntity
  8
LAY-1
  6
CONTINUOUS
 62
     3
100
AcDbLine
 10
507.600031
 20
517.050061
 30
0.0
 11
507.600031
 21
513.850049
 31
0.0
  0
LINE
  5
280
100
AcDbEntity
  8
LAY-1
  6
CONTINUOUS
 62
     3
100
AcDbLine
 10
507.600031
 20
505.550061
 30
0.0
 11
507.600031
 21
508.749951
 31
0.0
  0
LINE
  5
281
100
AcDbEntity
  8
LAY-1
  6
CONTINUOUS
 62
     3
100
AcDbLine
 10
519.600031
 20
505.550061
 30
0.0
 11
519.600031
 21
508.750073
 31
0.0
  0
CIRCLE
  5
282
100
AcDbEntity
  8
LAY-1
  6
DASHED2
 62
     3
100
AcDbCircle
 10
555.6
 20
501.30003
 30
0.0
 40
6.0
  0
CIRCLE
  5
283
100
AcDbEntity
  8
LAY-1
  6
CONTINUOUS
 62
     3
100
AcDbCircle
 10
555.6
 20
501.30003
 30
0.0
 40
3.35
  0
CIRCLE
  5
284
100
AcDbEntity
  8
LAY-1
  6
DASHED2
 62
     3
100
AcDbCircle
 10
555.6
 20
521.3
 30
0.0
 40
6.0
  0
CIRCLE
  5
285
100
AcDbEntity
  8
LAY-1
  6
CONTINUOUS
 62
     3
100
AcDbCircle
 10
555.6
 20
521.3
 30
0.0
 40
3.35
  0
LINE
  5
286
100
AcDbEntity
  8
LAY-1
  6
CONTINUOUS
 62
     3
100
AcDbLine
 10
393.6
 20
528.3
 30
0.0
 11
393.6
 21
494.3
 31
0.0
  0
LINE
  5
287
100
AcDbEntity
  8
LAY-1
  6
CONTINUOUS
 62
     3
100
AcDbLine
 10
393.6
 20
528.3
 30
0.0
 11
568.6
 21
528.3
 31
0.0
  0
LINE
  5
288
100
AcDbEntity
  8
LAY-1
  6
CONTINUOUS
 62
     3
100
AcDbLine
 10
387.6
 20
531.3
 30
0.0
 11
574.6
 21
531.3
 31
0.0
  0
LINE
  5
289
100
AcDbEntity
  8
LAY-1
  6
CONTINUOUS
 62
     3
100
AcDbLine
 10
393.6
 20
494.3
 30
0.0
 11
568.6
 21
494.3
 31
0.0
  0
LINE
  5
28A
100
AcDbEntity
  8
LAY-1
  6
CONTINUOUS
 62
     3
100
AcDbLine
 10
387.6
 20
491.3
 30
0.0
 11
574.6
 21
491.3
 31
0.0
  0
LINE
  5
28B
100
AcDbEntity
  8
LAY-1
  6
CONTINUOUS
 62
     3
100
AcDbLine
 10
387.6
 20
491.3
 30
0.0
 11
387.6
 21
531.3
 31
0.0
  0
CIRCLE
  5
28C
100
AcDbEntity
  8
LAY-1
  6
DASHED2
 62
     3
100
AcDbCircle
 10
403.6
 20
501.30003
 30
0.0
 40
6.0
  0
CIRCLE
  5
28D
100
AcDbEntity
  8
LAY-1
  6
CONTINUOUS
 62
     3
100
AcDbCircle
 10
403.6
 20
501.30003
 30
0.0
 40
3.35
  0
CIRCLE
  5
28E
100
AcDbEntity
  8
LAY-1
  6
DASHED2
 62
     3
100
AcDbCircle
 10
403.6
 20
521.29997
 30
0.0
 40
6.0
  0
CIRCLE
  5
28F
100
AcDbEntity
  8
LAY-1
  6
CONTINUOUS
 62
     3
100
AcDbCircle
 10
403.6
 20
521.29997
 30
0.0
 40
3.35
  0
LINE
  5
290
100
AcDbEntity
  8
LAY-1
  6
DASHED2
 62
     3
100
AcDbLine
 10
151.7
 20
103.3
 30
0.0
 11
145.7
 21
103.3
 31
0.0
  0
LINE
  5
291
100
AcDbEntity
  8
LAY-1
  6
DASHED2
 62
     3
100
AcDbLine
 10
145.7
 20
100.3
 30
0.0
 11
148.7
 21
100.3
 31
0.0
  0
LINE
  5
292
100
AcDbEntity
  8
LAY-1
  6
DASHED2
 62
     3
100
AcDbLine
 10
151.7
 20
103.3
 30
0.0
 11
148.7
 21
100.3
 31
0.0
  0
LINE
  5
293
100
AcDbEntity
  8
LAY-1
  6
DASHED2
 62
     3
100
AcDbLine
 10
139.7
 20
103.3
 30
0.0
 11
145.7
 21
103.3
 31
0.0
  0
LINE
  5
294
100
AcDbEntity
  8
LAY-1
  6
DASHED2
 62
     3
100
AcDbLine
 10
145.7
 20
100.3
 30
0.0
 11
142.7
 21
100.3
 31
0.0
  0
LINE
  5
295
100
AcDbEntity
  8
LAY-1
  6
DASHED2
 62
     3
100
AcDbLine
 10
139.7
 20
103.3
 30
0.0
 11
142.7
 21
100.3
 31
0.0
  0
LINE
  5
296
100
AcDbEntity
  8
LAY-1
  6
DASHED2
 62
     3
100
AcDbLine
 10
145.7
 20
100.3
 30
0.0
 11
148.7
 21
100.3
 31
0.0
  0
LINE
  5
297
100
AcDbEntity
  8
LAY-1
  6
DASHED2
 62
     3
100
AcDbLine
 10
145.7
 20
100.3
 30
0.0
 11
142.7
 21
100.3
 31
0.0
  0
LINE
  5
298
100
AcDbEntity
  8
LAY-1
  6
DASHED2
 62
     3
100
AcDbLine
 10
151.7
 20
118.3
 30
0.0
 11
151.7
 21
103.3
 31
0.0
  0
LINE
  5
299
100
AcDbEntity
  8
LAY-1
  6
DASHED2
 62
     3
100
AcDbLine
 10
139.7
 20
118.3
 30
0.0
 11
139.7
 21
103.3
 31
0.0
  0
LINE
  5
29A
100
AcDbEntity
  8
LAY-1
  6
DASHED2
 62
     3
100
AcDbLine
 10
142.7
 20
88.3
 30
0.0
 11
142.7
 21
78.3
 31
0.0
  0
LINE
  5
29B
100
AcDbEntity
  8
LAY-1
  6
DASHED2
 62
     3
100
AcDbLine
 10
143.2
 20
88.3
 30
0.0
 11
143.2
 21
78.3
 31
0.0
  0
LINE
  5
29C
100
AcDbEntity
  8
LAY-1
  6
DASHED2
 62
     3
100
AcDbLine
 10
148.2
 20
88.3
 30
0.0
 11
148.2
 21
78.3
 31
0.0
  0
LINE
  5
29D
100
AcDbEntity
  8
LAY-1
  6
DASHED2
 62
     3
100
AcDbLine
 10
148.7
 20
88.3
 30
0.0
 11
148.7
 21
78.3
 31
0.0
  0
LINE
  5
29E
100
AcDbEntity
  8
LAY-1
  6
DASHED2
 62
     3
100
AcDbLine
 10
142.7
 20
100.3
 30
0.0
 11
142.7
 21
78.3
 31
0.0
  0
LINE
  5
29F
100
AcDbEntity
  8
LAY-1
  6
DASHED2
 62
     3
100
AcDbLine
 10
143.2
 20
100.3
 30
0.0
 11
143.2
 21
78.3
 31
0.0
  0
LINE
  5
2A0
100
AcDbEntity
  8
LAY-1
  6
DASHED2
 62
     3
100
AcDbLine
 10
148.2
 20
100.3
 30
0.0
 11
148.2
 21
78.3
 31
0.0
  0
LINE
  5
2A1
100
AcDbEntity
  8
LAY-1
  6
DASHED2
 62
     3
100
AcDbLine
 10
148.7
 20
100.3
 30
0.0
 11
148.7
 21
78.3
 31
0.0
  0
LINE
  5
2A2
100
AcDbEntity
  8
LAY-1
  6
DASHED2
 62
     3
100
AcDbLine
 10
125.7
 20
78.3
 30
0.0
 11
128.7
 21
78.3
 31
0.0
  0
LINE
  5
2A3
100
AcDbEntity
  8
LAY-1
  6
DASHED2
 62
     3
100
AcDbLine
 10
125.7
 20
78.3
 30
0.0
 11
122.7
 21
78.3
 31
0.0
  0
LINE
  5
2A4
100
AcDbEntity
  8
LAY-1
  6
DASHED2
 62
     3
100
AcDbLine
 10
131.7
 20
103.3
 30
0.0
 11
125.7
 21
103.3
 31
0.0
  0
LINE
  5
2A5
100
AcDbEntity
  8
LAY-1
  6
DASHED2
 62
     3
100
AcDbLine
 10
125.7
 20
100.3
 30
0.0
 11
128.7
 21
100.3
 31
0.0
  0
LINE
  5
2A6
100
AcDbEntity
  8
LAY-1
  6
DASHED2
 62
     3
100
AcDbLine
 10
131.7
 20
103.3
 30
0.0
 11
128.7
 21
100.3
 31
0.0
  0
LINE
  5
2A7
100
AcDbEntity
  8
LAY-1
  6
DASHED2
 62
     3
100
AcDbLine
 10
119.7
 20
103.3
 30
0.0
 11
125.7
 21
103.3
 31
0.0
  0
LINE
  5
2A8
100
AcDbEntity
  8
LAY-1
  6
DASHED2
 62
     3
100
AcDbLine
 10
125.7
 20
100.3
 30
0.0
 11
122.7
 21
100.3
 31
0.0
  0
LINE
  5
2A9
100
AcDbEntity
  8
LAY-1
  6
DASHED2
 62
     3
100
AcDbLine
 10
119.7
 20
103.3
 30
0.0
 11
122.7
 21
100.3
 31
0.0
  0
LINE
  5
2AA
100
AcDbEntity
  8
LAY-1
  6
DASHED2
 62
     3
100
AcDbLine
 10
125.7
 20
100.3
 30
0.0
 11
128.7
 21
100.3
 31
0.0
  0
LINE
  5
2AB
100
AcDbEntity
  8
LAY-1
  6
DASHED2
 62
     3
100
AcDbLine
 10
125.7
 20
100.3
 30
0.0
 11
122.7
 21
100.3
 31
0.0
  0
LINE
  5
2AC
100
AcDbEntity
  8
LAY-1
  6
DASHED2
 62
     3
100
AcDbLine
 10
131.7
 20
118.3
 30
0.0
 11
131.7
 21
103.3
 31
0.0
  0
LINE
  5
2AD
100
AcDbEntity
  8
LAY-1
  6
DASHED2
 62
     3
100
AcDbLine
 10
119.7
 20
118.3
 30
0.0
 11
119.7
 21
103.3
 31
0.0
  0
LINE
  5
2AE
100
AcDbEntity
  8
LAY-1
  6
DASHED2
 62
     3
100
AcDbLine
 10
122.7
 20
88.3
 30
0.0
 11
122.7
 21
78.3
 31
0.0
  0
LINE
  5
2AF
100
AcDbEntity
  8
LAY-1
  6
DASHED2
 62
     3
100
AcDbLine
 10
123.2
 20
88.3
 30
0.0
 11
123.2
 21
78.3
 31
0.0
  0
LINE
  5
2B0
100
AcDbEntity
  8
LAY-1
  6
DASHED2
 62
     3
100
AcDbLine
 10
128.2
 20
88.3
 30
0.0
 11
128.2
 21
78.3
 31
0.0
  0
LINE
  5
2B1
100
AcDbEntity
  8
LAY-1
  6
DASHED2
 62
     3
100
AcDbLine
 10
128.7
 20
88.3
 30
0.0
 11
128.7
 21
78.3
 31
0.0
  0
LINE
  5
2B2
100
AcDbEntity
  8
LAY-1
  6
DASHED2
 62
     3
100
AcDbLine
 10
122.7
 20
100.3
 30
0.0
 11
122.7
 21
78.3
 31
0.0
  0
LINE
  5
2B3
100
AcDbEntity
  8
LAY-1
  6
DASHED2
 62
     3
100
AcDbLine
 10
123.2
 20
100.3
 30
0.0
 11
123.2
 21
78.3
 31
0.0
  0
LINE
  5
2B4
100
AcDbEntity
  8
LAY-1
  6
DASHED2
 62
     3
100
AcDbLine
 10
128.2
 20
100.3
 30
0.0
 11
128.2
 21
78.3
 31
0.0
  0
LINE
  5
2B5
100
AcDbEntity
  8
LAY-1
  6
DASHED2
 62
     3
100
AcDbLine
 10
128.7
 20
100.3
 30
0.0
 11
128.7
 21
78.3
 31
0.0
  0
LINE
  5
2B6
100
AcDbEntity
  8
LAY-1
  6
CONTINUOUS
 62
     1
100
AcDbLine
 10
387.6
 20
536.6
 30
0.0
 11
433.6
 21
536.6
 31
0.0
  0
LINE
  5
2B7
100
AcDbEntity
  8
LAY-1
  6
CONTINUOUS
 62
     1
100
AcDbLine
 10
390.6
 20
537.1
 30
0.0
 11
387.6
 21
536.6
 31
0.0
  0
LINE
  5
2B8
100
AcDbEntity
  8
LAY-1
  6
CONTINUOUS
 62
     1
100
AcDbLine
 10
387.6
 20
536.6
 30
0.0
 11
390.6
 21
536.1
 31
0.0
  0
LINE
  5
2B9
100
AcDbEntity
  8
LAY-1
  6
CONTINUOUS
 62
     1
100
AcDbLine
 10
430.6
 20
536.1
 30
0.0
 11
433.6
 21
536.6
 31
0.0
  0
LINE
  5
2BA
100
AcDbEntity
  8
LAY-1
  6
CONTINUOUS
 62
     1
100
AcDbLine
 10
433.6
 20
536.6
 30
0.0
 11
430.6
 21
537.1
 31
0.0
  0
TEXT
  5
2BB
100
AcDbEntity
  8
LAY-1
  6
CONTINUOUS
 62
     2
100
AcDbText
 10
406.6
 20
537.1
 30
0.0
 40
5.0
  1
４６
 41
0.672
  7
EXCADSTD
 72
     5
 11
413.9328
 21
537.1
 31
0.0
100
AcDbText
  0
LINE
  5
2BC
100
AcDbEntity
  8
LAY-1
  6
CONTINUOUS
 62
     1
100
AcDbLine
 10
433.6
 20
536.7
 30
0.0
 11
433.6
 21
535.1
 31
0.0
  0
LINE
  5
2BD
100
AcDbEntity
  8
LAY-1
  6
CONTINUOUS
 62
     1
100
AcDbLine
 10
433.6
 20
536.6
 30
0.0
 11
574.6
 21
536.6
 31
0.0
  0
LINE
  5
2BE
100
AcDbEntity
  8
LAY-1
  6
CONTINUOUS
 62
     1
100
AcDbLine
 10
436.6
 20
537.1
 30
0.0
 11
433.6
 21
536.6
 31
0.0
  0
LINE
  5
2BF
100
AcDbEntity
  8
LAY-1
  6
CONTINUOUS
 62
     1
100
AcDbLine
 10
433.6
 20
536.6
 30
0.0
 11
436.6
 21
536.1
 31
0.0
  0
LINE
  5
2C0
100
AcDbEntity
  8
LAY-1
  6
CONTINUOUS
 62
     1
100
AcDbLine
 10
571.6
 20
536.1
 30
0.0
 11
574.6
 21
536.6
 31
0.0
  0
LINE
  5
2C1
100
AcDbEntity
  8
LAY-1
  6
CONTINUOUS
 62
     1
100
AcDbLine
 10
574.6
 20
536.6
 30
0.0
 11
571.6
 21
537.1
 31
0.0
  0
TEXT
  5
2C2
100
AcDbEntity
  8
LAY-1
  6
CONTINUOUS
 62
     2
100
AcDbText
 10
498.1
 20
537.1
 30
0.0
 40
5.0
  1
１４１
 41
0.672
  7
EXCADSTD
 72
     5
 11
510.1
 21
537.1
 31
0.0
100
AcDbText
  0
LINE
  5
2C3
100
AcDbEntity
  8
LAY-1
  6
CONTINUOUS
 62
     1
100
AcDbLine
 10
387.6
 20
531.8
 30
0.0
 11
387.6
 21
545.1
 31
0.0
  0
LINE
  5
2C4
100
AcDbEntity
  8
LAY-1
  6
CONTINUOUS
 62
     1
100
AcDbLine
 10
574.6
 20
531.8
 30
0.0
 11
574.6
 21
545.1
 31
0.0
  0
LINE
  5
2C5
100
AcDbEntity
  8
LAY-1
  6
CONTINUOUS
 62
     1
100
AcDbLine
 10
387.6
 20
543.6
 30
0.0
 11
574.6
 21
543.6
 31
0.0
  0
LINE
  5
2C6
100
AcDbEntity
  8
LAY-1
  6
CONTINUOUS
 62
     1
100
AcDbLine
 10
390.6
 20
544.1
 30
0.0
 11
387.6
 21
543.6
 31
0.0
  0
LINE
  5
2C7
100
AcDbEntity
  8
LAY-1
  6
CONTINUOUS
 62
     1
100
AcDbLine
 10
387.6
 20
543.6
 30
0.0
 11
390.6
 21
543.1
 31
0.0
  0
LINE
  5
2C8
100
AcDbEntity
  8
LAY-1
  6
CONTINUOUS
 62
     1
100
AcDbLine
 10
571.6
 20
543.1
 30
0.0
 11
574.6
 21
543.6
 31
0.0
  0
LINE
  5
2C9
100
AcDbEntity
  8
LAY-1
  6
CONTINUOUS
 62
     1
100
AcDbLine
 10
574.6
 20
543.6
 30
0.0
 11
571.6
 21
544.1
 31
0.0
  0
TEXT
  5
2CA
100
AcDbEntity
  8
LAY-1
  6
CONTINUOUS
 62
     2
100
AcDbText
 10
475.1
 20
544.1
 30
0.0
 40
5.0
  1
１８７
 41
0.672
  7
EXCADSTD
 72
     5
 11
487.1
 21
544.1
 31
0.0
100
AcDbText
  0
TEXT
  5
2CB
100
AcDbEntity
  8
LAY-1
  6
CONTINUOUS
 62
     2
100
AcDbText
 10
585.3
 20
552.3
 30
0.0
 40
5.0
  1
トッププレート　０.８ｔ
 41
0.654222
  7
EXCADSTD
 72
     5
 11
631.3
 21
552.3
 31
0.0
100
AcDbText
  0
POLYLINE
  5
2CC
100
AcDbEntity
  8
LAY-1
  6
CONTINUOUS
 62
     1
100
AcDb2dPolyline
 66
     1
 10
0.0
 20
0.0
 30
0.0
 70
   128
  0
VERTEX
  5
2CD
100
AcDbEntity
  8
LAY-1
  6
CONTINUOUS
 62
     1
100
AcDbVertex
100
AcDb2dVertex
 10
574.6
 20
531.3
 30
0.0
  0
VERTEX
  5
2CE
100
AcDbEntity
  8
LAY-1
  6
CONTINUOUS
 62
     1
100
AcDbVertex
100
AcDb2dVertex
 10
584.6
 20
551.8
 30
0.0
  0
VERTEX
  5
2CF
100
AcDbEntity
  8
LAY-1
  6
CONTINUOUS
 62
     1
100
AcDbVertex
100
AcDb2dVertex
 10
632.3
 20
551.8
 30
0.0
  0
SEQEND
  5
2D0
100
AcDbEntity
  8
LAY-1
  6
CONTINUOUS
 62
     1
  0
LINE
  5
2D1
100
AcDbEntity
  8
LAY-1
  6
CONTINUOUS
 62
     1
100
AcDbLine
 10
575.465887
 20
534.215517
 30
0.0
 11
574.6
 21
531.3
 31
0.0
  0
LINE
  5
2D2
100
AcDbEntity
  8
LAY-1
  6
CONTINUOUS
 62
     1
100
AcDbLine
 10
574.6
 20
531.3
 30
0.0
 11
576.364655
 21
533.777094
 31
0.0
  0
LINE
  5
2D3
100
AcDbEntity
  8
LAY-1
  6
CONTINUOUS
 62
     3
100
AcDbLine
 10
55.7
 20
387.9
 30
0.0
 11
230.7
 21
387.9
 31
0.0
  0
LINE
  5
2D4
100
AcDbEntity
  8
LAY-1
  6
CONTINUOUS
 62
     3
100
AcDbLine
 10
80.768602
 20
386.973872
 30
0.0
 11
81.142936
 21
378.070367
 31
0.0
  0
LINE
  5
2D5
100
AcDbEntity
  8
LAY-1
  6
CONTINUOUS
 62
     3
100
AcDbLine
 10
110.631398
 20
386.973872
 30
0.0
 11
110.257064
 21
378.070367
 31
0.0
  0
ARC
  5
2D6
100
AcDbEntity
  8
LAY-1
  6
CONTINUOUS
 62
     3
100
AcDbCircle
 10
105.270725
 20
378.439726
 30
0.0
 40
5.0
100
AcDbArc
 50
338.198591
 51
355.763605
  0
LINE
  5
2D7
100
AcDbEntity
  8
LAY-1
  6
CONTINUOUS
 62
     3
100
AcDbLine
 10
108.702887
 20
373.557219
 30
0.0
 11
109.913109
 21
376.582772
 31
0.0
  0
ARC
  5
2D8
100
AcDbEntity
  8
LAY-1
  6
CONTINUOUS
 62
     3
100
AcDbCircle
 10
86.129275
 20
378.439726
 30
0.0
 40
5.0
100
AcDbArc
 50
184.236395
 51
201.801409
  0
LINE
  5
2D9
100
AcDbEntity
  8
LAY-1
  6
CONTINUOUS
 62
     3
100
AcDbLine
 10
81.486891
 20
376.582772
 30
0.0
 11
82.697113
 21
373.557219
 31
0.0
  0
ARC
  5
2DA
100
AcDbEntity
  8
LAY-1
  6
CONTINUOUS
 62
     3
100
AcDbCircle
 10
106.845934
 20
374.3
 30
0.0
 40
2.0
100
AcDbArc
 50
270.0
 51
338.198591
  0
LINE
  5
2DB
100
AcDbEntity
  8
LAY-1
  6
CONTINUOUS
 62
     3
100
AcDbLine
 10
106.845934
 20
372.3
 30
0.0
 11
84.554066
 21
372.3
 31
0.0
  0
ARC
  5
2DC
100
AcDbEntity
  8
LAY-1
  6
CONTINUOUS
 62
     3
100
AcDbCircle
 10
84.554066
 20
374.3
 30
0.0
 40
2.0
100
AcDbArc
 50
201.801409
 51
270.0
  0
ARC
  5
2DD
100
AcDbEntity
  8
LAY-1
  6
CONTINUOUS
 62
     3
100
AcDbCircle
 10
714.554066
 20
374.3
 30
0.0
 40
2.0
100
AcDbArc
 50
201.801409
 51
270.0
  0
LINE
  5
2DE
100
AcDbEntity
  8
LAY-1
  6
CONTINUOUS
 62
     3
100
AcDbLine
 10
736.845934
 20
372.3
 30
0.0
 11
714.554066
 21
372.3
 31
0.0
  0
ARC
  5
2DF
100
AcDbEntity
  8
LAY-1
  6
CONTINUOUS
 62
     3
100
AcDbCircle
 10
736.845934
 20
374.3
 30
0.0
 40
2.0
100
AcDbArc
 50
270.0
 51
338.198591
  0
LINE
  5
2E0
100
AcDbEntity
  8
LAY-1
  6
CONTINUOUS
 62
     3
100
AcDbLine
 10
711.486891
 20
376.582772
 30
0.0
 11
712.697113
 21
373.557219
 31
0.0
  0
ARC
  5
2E1
100
AcDbEntity
  8
LAY-1
  6
CONTINUOUS
 62
     3
100
AcDbCircle
 10
716.129275
 20
378.439726
 30
0.0
 40
5.0
100
AcDbArc
 50
184.236395
 51
201.801409
  0
LINE
  5
2E2
100
AcDbEntity
  8
LAY-1
  6
CONTINUOUS
 62
     3
100
AcDbLine
 10
738.702887
 20
373.557219
 30
0.0
 11
739.913109
 21
376.582772
 31
0.0
  0
ARC
  5
2E3
100
AcDbEntity
  8
LAY-1
  6
CONTINUOUS
 62
     3
100
AcDbCircle
 10
735.270725
 20
378.439726
 30
0.0
 40
5.0
100
AcDbArc
 50
338.198591
 51
355.763605
  0
LINE
  5
2E4
100
AcDbEntity
  8
LAY-1
  6
CONTINUOUS
 62
     3
100
AcDbLine
 10
740.631398
 20
386.973872
 30
0.0
 11
740.257064
 21
378.070367
 31
0.0
  0
LINE
  5
2E5
100
AcDbEntity
  8
LAY-1
  6
CONTINUOUS
 62
     3
100
AcDbLine
 10
710.768602
 20
386.973872
 30
0.0
 11
711.142936
 21
378.070367
 31
0.0
  0
LINE
  5
2E6
100
AcDbEntity
  8
LAY-1
  6
CONTINUOUS
 62
     3
100
AcDbLine
 10
731.512783
 20
145.3
 30
0.0
 11
719.887217
 21
145.3
 31
0.0
  0
LINE
  5
2E7
100
AcDbEntity
  8
LAY-1
  6
CONTINUOUS
 62
     3
100
AcDbLine
 10
719.843472
 20
144.8
 30
0.0
 11
731.556528
 21
144.8
 31
0.0
  0
LINE
  5
2E8
100
AcDbEntity
  8
LAY-1
  6
CONTINUOUS
 62
     3
100
AcDbLine
 10
733.7
 20
120.3
 30
0.0
 11
740.7
 21
120.3
 31
0.0
  0
LINE
  5
2E9
100
AcDbEntity
  8
LAY-1
  6
CONTINUOUS
 62
     3
100
AcDbLine
 10
710.7
 20
120.3
 30
0.0
 11
717.7
 21
120.3
 31
0.0
  0
LINE
  5
2EA
100
AcDbEntity
  8
LAY-1
  6
CONTINUOUS
 62
     3
100
AcDbLine
 10
740.7
 20
120.3
 30
0.0
 11
740.7
 21
119.8
 31
0.0
  0
LINE
  5
2EB
100
AcDbEntity
  8
LAY-1
  6
CONTINUOUS
 62
     3
100
AcDbLine
 10
710.7
 20
120.3
 30
0.0
 11
710.7
 21
119.8
 31
0.0
  0
LINE
  5
2EC
100
AcDbEntity
  8
LAY-1
  6
CONTINUOUS
 62
     3
100
AcDbLine
 10
710.2
 20
124.3
 30
0.0
 11
718.049955
 21
124.3
 31
0.0
  0
LINE
  5
2ED
100
AcDbEntity
  8
LAY-1
  6
CONTINUOUS
 62
     3
100
AcDbLine
 10
741.2
 20
124.3
 30
0.0
 11
733.350045
 21
124.3
 31
0.0
  0
LINE
  5
2EE
100
AcDbEntity
  8
LAY-1
  6
CONTINUOUS
 62
     3
100
AcDbLine
 10
720.32466
 20
150.3
 30
0.0
 11
717.7
 21
120.3
 31
0.0
  0
LINE
  5
2EF
100
AcDbEntity
  8
LAY-1
  6
CONTINUOUS
 62
     3
100
AcDbLine
 10
731.07534
 20
150.3
 30
0.0
 11
733.7
 21
120.3
 31
0.0
  0
CIRCLE
  5
2F0
100
AcDbEntity
  8
LAY-1
  6
CONTINUOUS
 62
     3
100
AcDbCircle
 10
433.6
 20
121.3
 30
0.0
 40
16.0
  0
CIRCLE
  5
2F1
100
AcDbEntity
  8
LAY-1
  6
CONTINUOUS
 62
     3
100
AcDbCircle
 10
433.6
 20
121.3
 30
0.0
 40
14.25
  0
CIRCLE
  5
2F2
100
AcDbEntity
  8
LAY-1
  6
CONTINUOUS
 62
     3
100
AcDbCircle
 10
433.6
 20
121.3
 30
0.0
 40
15.0
  0
LINE
  5
2F3
100
AcDbEntity
  8
LAY-1
  6
CONTINUOUS
 62
     3
100
AcDbLine
 10
446.610536
 20
115.487217
 30
0.0
 11
420.589464
 21
115.487217
 31
0.0
  0
LINE
  5
2F4
100
AcDbEntity
  8
LAY-1
  6
CONTINUOUS
 62
     3
100
AcDbLine
 10
446.610536
 20
127.112783
 30
0.0
 11
420.589464
 21
127.112783
 31
0.0
  0
LINE
  5
2F5
100
AcDbEntity
  8
LAY-1
  6
CONTINUOUS
 62
     3
100
AcDbLine
 10
445.392476
 20
113.3
 30
0.0
 11
421.807524
 21
113.3
 31
0.0
  0
LINE
  5
2F6
100
AcDbEntity
  8
LAY-1
  6
CONTINUOUS
 62
     3
100
AcDbLine
 10
445.392476
 20
129.3
 30
0.0
 11
421.807524
 21
129.3
 31
0.0
  0
ARC
  5
2F7
100
AcDbEntity
  8
LAY-1
  6
CONTINUOUS
 62
     3
100
AcDbCircle
 10
433.6
 20
121.3
 30
0.0
 40
13.25
100
AcDbArc
 50
153.978994
 51
206.021006
  0
ARC
  5
2F8
100
AcDbEntity
  8
LAY-1
  6
CONTINUOUS
 62
     3
100
AcDbCircle
 10
433.6
 20
121.3
 30
0.0
 40
13.25
100
AcDbArc
 50
333.978994
 51
26.021006
  0
LINE
  5
2F9
100
AcDbEntity
  8
LAY-1
  6
CONTINUOUS
 62
     3
100
AcDbLine
 10
80.7
 20
120.3
 30
0.0
 11
110.7
 21
120.3
 31
0.0
  0
LINE
  5
2FA
100
AcDbEntity
  8
LAY-1
  6
CONTINUOUS
 62
     3
100
AcDbLine
 10
110.7
 20
120.3
 30
0.0
 11
110.7
 21
119.8
 31
0.0
  0
LINE
  5
2FB
100
AcDbEntity
  8
LAY-1
  6
CONTINUOUS
 62
     3
100
AcDbLine
 10
80.7
 20
120.3
 30
0.0
 11
80.7
 21
119.8
 31
0.0
  0
LINE
  5
2FC
100
AcDbEntity
  8
LAY-1
  6
CONTINUOUS
 62
     3
100
AcDbLine
 10
109.95
 20
124.3
 30
0.0
 11
109.95
 21
120.3
 31
0.0
  0
LINE
  5
2FD
100
AcDbEntity
  8
LAY-1
  6
CONTINUOUS
 62
     3
100
AcDbLine
 10
81.45
 20
124.3
 30
0.0
 11
81.45
 21
120.3
 31
0.0
  0
LINE
  5
2FE
100
AcDbEntity
  8
LAY-1
  6
CONTINUOUS
 62
     3
100
AcDbLine
 10
107.61
 20
124.3
 30
0.0
 11
107.45
 21
120.3
 31
0.0
  0
LINE
  5
2FF
100
AcDbEntity
  8
LAY-1
  6
CONTINUOUS
 62
     3
100
AcDbLine
 10
83.79
 20
124.3
 30
0.0
 11
83.95
 21
120.3
 31
0.0
  0
LINE
  5
300
100
AcDbEntity
  8
LAY-1
  6
CONTINUOUS
 62
     3
100
AcDbLine
 10
67.2
 20
124.3
 30
0.0
 11
81.45
 21
124.3
 31
0.0
  0
LINE
  5
301
100
AcDbEntity
  8
LAY-1
  6
CONTINUOUS
 62
     3
100
AcDbLine
 10
124.2
 20
124.3
 30
0.0
 11
81.45
 21
124.3
 31
0.0
  0
LINE
  5
302
100
AcDbEntity
  8
LAY-1
  6
CONTINUOUS
 62
     3
100
AcDbLine
 10
107.61
 20
124.3
 30
0.0
 11
107.6056
 21
124.19
 31
0.0
  0
LINE
  5
303
100
AcDbEntity
  8
LAY-1
  6
CONTINUOUS
 62
     3
100
AcDbLine
 10
83.79
 20
124.3
 30
0.0
 11
83.7944
 21
124.19
 31
0.0
  0
LINE
  5
304
100
AcDbEntity
  8
LAY-1
  6
DASHED2
 62
     3
100
AcDbLine
 10
108.95
 20
145.3
 30
0.0
 11
95.7
 21
145.3
 31
0.0
  0
LINE
  5
305
100
AcDbEntity
  8
LAY-1
  6
DASHED2
 62
     3
100
AcDbLine
 10
82.45
 20
145.3
 30
0.0
 11
95.7
 21
145.3
 31
0.0
  0
LINE
  5
306
100
AcDbEntity
  8
LAY-1
  6
DASHED2
 62
     3
100
AcDbLine
 10
109.95
 20
144.3
 30
0.0
 11
108.95
 21
145.3
 31
0.0
  0
LINE
  5
307
100
AcDbEntity
  8
LAY-1
  6
DASHED2
 62
     3
100
AcDbLine
 10
81.45
 20
144.3
 30
0.0
 11
82.45
 21
145.3
 31
0.0
  0
LINE
  5
308
100
AcDbEntity
  8
LAY-1
  6
DASHED2
 62
     3
100
AcDbLine
 10
81.45
 20
124.3
 30
0.0
 11
81.45
 21
150.3
 31
0.0
  0
LINE
  5
309
100
AcDbEntity
  8
LAY-1
  6
DASHED2
 62
     3
100
AcDbLine
 10
82.95
 20
145.3
 30
0.0
 11
83.79
 21
124.3
 31
0.0
  0
LINE
  5
30A
100
AcDbEntity
  8
LAY-1
  6
DASHED2
 62
     3
100
AcDbLine
 10
108.45
 20
145.3
 30
0.0
 11
107.61
 21
124.3
 31
0.0
  0
LINE
  5
30B
100
AcDbEntity
  8
LAY-1
  6
DASHED2
 62
     3
100
AcDbLine
 10
109.95
 20
150.3
 30
0.0
 11
109.95
 21
124.3
 31
0.0
  0
LINE
  5
30C
100
AcDbEntity
  8
LAY-5
  6
DASHDOT
 62
     1
100
AcDbLine
 10
155.7
 20
396.500012
 30
0.0
 11
155.7
 21
404.9
 31
0.0
  0
LINE
  5
30D
100
AcDbEntity
  8
LAY-5
  6
DASHDOT
 62
     1
100
AcDbLine
 10
389.6
 20
401.3
 30
0.0
 11
574.7
 21
401.3
 31
0.0
  0
LINE
  5
30E
100
AcDbEntity
  8
LAY-5
  6
DASHDOT
 62
     1
100
AcDbLine
 10
433.6
 20
427.4
 30
0.0
 11
433.6
 21
371.0
 31
0.0
  0
LINE
  5
30F
100
AcDbEntity
  8
LAY-5
  6
DASHDOT
 62
     1
100
AcDbLine
 10
465.6
 20
269.3
 30
0.0
 11
481.6
 21
269.3
 31
0.0
  0
LINE
  5
310
100
AcDbEntity
  8
LAY-5
  6
DASHDOT
 62
     1
100
AcDbLine
 10
473.6
 20
277.3
 30
0.0
 11
473.6
 21
261.3
 31
0.0
  0
LINE
  5
311
100
AcDbEntity
  8
LAY-5
  6
DASHDOT
 62
     1
100
AcDbLine
 10
598.6
 20
269.3
 30
0.0
 11
614.6
 21
269.3
 31
0.0
  0
LINE
  5
312
100
AcDbEntity
  8
LAY-5
  6
DASHDOT
 62
     1
100
AcDbLine
 10
606.6
 20
277.3
 30
0.0
 11
606.6
 21
261.3
 31
0.0
  0
LINE
  5
313
100
AcDbEntity
  8
LAY-5
  6
DASHDOT
 62
     1
100
AcDbLine
 10
731.6
 20
269.3
 30
0.0
 11
747.6
 21
269.3
 31
0.0
  0
LINE
  5
314
100
AcDbEntity
  8
LAY-5
  6
DASHDOT
 62
     1
100
AcDbLine
 10
739.6
 20
277.3
 30
0.0
 11
739.6
 21
261.3
 31
0.0
  0
LINE
  5
315
100
AcDbEntity
  8
LAY-5
  6
DASHDOT
 62
     1
100
AcDbLine
 10
495.6
 20
253.3
 30
0.0
 11
511.6
 21
253.3
 31
0.0
  0
LINE
  5
316
100
AcDbEntity
  8
LAY-5
  6
DASHDOT
 62
     1
100
AcDbLine
 10
503.6
 20
261.3
 30
0.0
 11
503.6
 21
245.3
 31
0.0
  0
LINE
  5
317
100
AcDbEntity
  8
LAY-5
  6
DASHDOT
 62
     1
100
AcDbLine
 10
628.6
 20
253.3
 30
0.0
 11
644.6
 21
253.3
 31
0.0
  0
LINE
  5
318
100
AcDbEntity
  8
LAY-5
  6
DASHDOT
 62
     1
100
AcDbLine
 10
636.6
 20
261.3
 30
0.0
 11
636.6
 21
245.3
 31
0.0
  0
LINE
  5
319
100
AcDbEntity
  8
LAY-5
  6
DASHDOT
 62
     1
100
AcDbLine
 10
761.6
 20
253.3
 30
0.0
 11
777.6
 21
253.3
 31
0.0
  0
LINE
  5
31A
100
AcDbEntity
  8
LAY-5
  6
DASHDOT
 62
     1
100
AcDbLine
 10
769.6
 20
261.3
 30
0.0
 11
769.6
 21
245.3
 31
0.0
  0
LINE
  5
31B
100
AcDbEntity
  8
LAY-5
  6
DASHDOT
 62
     1
100
AcDbLine
 10
398.4
 20
261.3
 30
0.0
 11
796.0
 21
261.3
 31
0.0
  0
LINE
  5
31C
100
AcDbEntity
  8
LAY-5
  6
DASHDOT
 62
     1
100
AcDbLine
 10
433.6
 20
288.1
 30
0.0
 11
433.6
 21
224.3
 31
0.0
  0
LINE
  5
31D
100
AcDbEntity
  8
LAY-5
  6
DASHDOT
 62
     1
100
AcDbLine
 10
433.6
 20
155.3
 30
0.0
 11
433.6
 21
84.3
 31
0.0
  0
LINE
  5
31E
100
AcDbEntity
  8
LAY-5
  6
DASHDOT
 62
     1
100
AcDbLine
 10
463.6
 20
116.05
 30
0.0
 11
463.6
 21
126.51
 31
0.0
  0
LINE
  5
31F
100
AcDbEntity
  8
LAY-5
  6
DASHDOT
 62
     1
100
AcDbLine
 10
483.6
 20
116.05
 30
0.0
 11
483.6
 21
126.51
 31
0.0
  0
LINE
  5
320
100
AcDbEntity
  8
LAY-5
  6
DASHDOT
 62
     1
100
AcDbLine
 10
463.6
 20
127.3
 30
0.0
 11
463.6
 21
141.3
 31
0.0
  0
LINE
  5
321
100
AcDbEntity
  8
LAY-5
  6
DASHDOT
 62
     1
100
AcDbLine
 10
456.6
 20
134.3
 30
0.0
 11
470.6
 21
134.3
 31
0.0
  0
LINE
  5
322
100
AcDbEntity
  8
LAY-5
  6
DASHDOT
 62
     1
100
AcDbLine
 10
483.6
 20
127.3
 30
0.0
 11
483.6
 21
141.3
 31
0.0
  0
LINE
  5
323
100
AcDbEntity
  8
LAY-5
  6
DASHDOT
 62
     1
100
AcDbLine
 10
476.6
 20
134.3
 30
0.0
 11
490.6
 21
134.3
 31
0.0
  0
LINE
  5
324
100
AcDbEntity
  8
LAY-5
  6
DASHDOT
 62
     1
100
AcDbLine
 10
463.6
 20
115.3
 30
0.0
 11
463.6
 21
101.3
 31
0.0
  0
LINE
  5
325
100
AcDbEntity
  8
LAY-5
  6
DASHDOT
 62
     1
100
AcDbLine
 10
456.6
 20
108.3
 30
0.0
 11
470.6
 21
108.3
 31
0.0
  0
LINE
  5
326
100
AcDbEntity
  8
LAY-5
  6
DASHDOT
 62
     1
100
AcDbLine
 10
483.6
 20
115.3
 30
0.0
 11
483.6
 21
101.3
 31
0.0
  0
LINE
  5
327
100
AcDbEntity
  8
LAY-5
  6
DASHDOT
 62
     1
100
AcDbLine
 10
476.6
 20
108.3
 30
0.0
 11
490.6
 21
108.3
 31
0.0
  0
LINE
  5
328
100
AcDbEntity
  8
LAY-5
  6
DASHDOT
 62
     1
100
AcDbLine
 10
402.1
 20
121.3
 30
0.0
 11
504.5
 21
121.3
 31
0.0
  0
LINE
  5
329
100
AcDbEntity
  8
LAY-5
  6
DASHDOT
 62
     1
100
AcDbLine
 10
712.7
 20
118.9
 30
0.0
 11
712.7
 21
76.9
 31
0.0
  0
LINE
  5
32A
100
AcDbEntity
  8
LAY-5
  6
DASHDOT
 62
     1
100
AcDbLine
 10
738.7
 20
119.0
 30
0.0
 11
738.7
 21
76.9
 31
0.0
  0
LINE
  5
32B
100
AcDbEntity
  8
LAY-5
  6
DASHDOT
 62
     1
100
AcDbLine
 10
95.7
 20
161.8
 30
0.0
 11
95.7
 21
79.8
 31
0.0
  0
LINE
  5
32C
100
AcDbEntity
  8
LAY-5
  6
DASHDOT
 62
     1
100
AcDbLine
 10
135.7
 20
162.9
 30
0.0
 11
135.7
 21
134.1
 31
0.0
  0
LINE
  5
32D
100
AcDbEntity
  8
LAY-5
  6
DASHDOT
 62
     1
100
AcDbLine
 10
165.7
 20
162.9
 30
0.0
 11
165.7
 21
134.1
 31
0.0
  0
LINE
  5
32E
100
AcDbEntity
  8
LAY-5
  6
DASHDOT
 62
     1
100
AcDbLine
 10
268.7
 20
162.9
 30
0.0
 11
268.7
 21
134.1
 31
0.0
  0
LINE
  5
32F
100
AcDbEntity
  8
LAY-5
  6
DASHDOT
 62
     1
100
AcDbLine
 10
725.7
 20
358.1
 30
0.0
 11
725.7
 21
357.9
 31
0.0
  0
LINE
  5
330
100
AcDbEntity
  8
LAY-5
  6
DASHDOT
 62
     1
100
AcDbLine
 10
433.6
 20
537.2
 30
0.0
 11
433.6
 21
484.9
 31
0.0
  0
LINE
  5
331
100
AcDbEntity
  8
LAY-5
  6
DASHDOT
 62
     1
100
AcDbLine
 10
381.6
 20
511.3
 30
0.0
 11
580.8
 21
511.3
 31
0.0
  0
LINE
  5
332
100
AcDbEntity
  8
LAY-5
  6
DASHDOT
 62
     1
100
AcDbLine
 10
725.7
 20
163.1
 30
0.0
 11
725.7
 21
79.8
 31
0.0
  0
LINE
  5
333
100
AcDbEntity
  8
LAY-5
  6
DASHDOT
 62
     1
100
AcDbLine
 10
145.7
 20
123.1
 30
0.0
 11
145.7
 21
76.9
 31
0.0
  0
LINE
  5
334
100
AcDbEntity
  8
LAY-5
  6
DASHDOT
 62
     1
100
AcDbLine
 10
125.7
 20
122.6
 30
0.0
 11
125.7
 21
76.9
 31
0.0
  0
LINE
  5
335
100
AcDbEntity
  8
LAY-5
  6
DASHDOT
 62
     1
100
AcDbLine
 10
184.330188
 20
415.199969
 30
0.0
 11
166.722583
 21
415.199969
 31
0.0
  0
LINE
  5
336
100
AcDbEntity
  8
LAY-5
  6
DASHDOT
 62
     1
100
AcDbLine
 10
175.7
 20
423.567773
 30
0.0
 11
175.7
 21
401.43352
 31
0.0
  0
LINE
  5
337
100
AcDbEntity
  8
LAY-5
  6
DASHDOT
 62
     1
100
AcDbLine
 10
196.7
 20
401.43352
 30
0.0
 11
196.7
 21
430.646167
 31
0.0
  0
LINE
  5
338
100
AcDbEntity
  8
LAY-5
  6
DASHDOT
 62
     1
100
AcDbLine
 10
188.431934
 20
419.199969
 30
0.0
 11
205.539417
 21
419.199969
 31
0.0
  0
LINE
  5
339
100
AcDbEntity
  8
LAY-5
  6
DASHDOT
 62
     1
100
AcDbLine
 10
175.69997
 20
423.161255
 30
0.0
 11
175.69997
 21
401.465747
 31
0.0
  0
LINE
  5
33A
100
AcDbEntity
  8
LAY-5
  6
DASHDOT
 62
     1
100
AcDbLine
 10
196.69997
 20
401.465747
 30
0.0
 11
196.69997
 21
430.678394
 31
0.0
  0
LINE
  5
33B
100
AcDbEntity
  8
LAY-5
  6
DASHDOT
 62
     1
100
AcDbLine
 10
196.69997
 20
419.232196
 30
0.0
 11
196.7
 21
419.232196
 31
0.0
  0
LINE
  5
33C
100
AcDbEntity
  8
LAY-5
  6
DASHDOT
 62
     1
100
AcDbLine
 10
175.7
 20
415.232196
 30
0.0
 11
175.69997
 21
415.232196
 31
0.0
  0
LINE
  5
33D
100
AcDbEntity
  8
LAY-5
  6
DASHDOT
 62
     1
100
AcDbLine
 10
217.7
 20
395.96
 30
0.0
 11
217.7
 21
415.3
 31
0.0
  0
LINE
  5
33E
100
AcDbEntity
  8
LAY-5
  6
DASHDOT
 62
     1
100
AcDbLine
 10
217.69997
 20
395.96
 30
0.0
 11
217.69997
 21
415.3
 31
0.0
  0
LINE
  5
33F
100
AcDbEntity
  8
LAY-5
  6
DASHDOT
 62
     1
100
AcDbLine
 10
65.7
 20
395.9
 30
0.0
 11
65.7
 21
415.1
 31
0.0
  0
LINE
  5
340
100
AcDbEntity
  8
LAY-5
  6
DASHDOT
 62
     1
100
AcDbLine
 10
65.7
 20
395.9
 30
0.0
 11
65.7
 21
415.1
 31
0.0
  0
LINE
  5
341
100
AcDbEntity
  8
LAY-5
  6
DASHDOT
 62
     1
100
AcDbLine
 10
65.7
 20
394.95
 30
0.0
 11
65.7
 21
376.9
 31
0.0
  0
LINE
  5
342
100
AcDbEntity
  8
LAY-5
  6
DASHDOT
 62
     1
100
AcDbLine
 10
65.7
 20
394.95
 30
0.0
 11
65.7
 21
376.4
 31
0.0
  0
LINE
  5
343
100
AcDbEntity
  8
LAY-5
  6
DASHDOT
 62
     1
100
AcDbLine
 10
125.7
 20
394.95
 30
0.0
 11
125.7
 21
376.9
 31
0.0
  0
LINE
  5
344
100
AcDbEntity
  8
LAY-5
  6
DASHDOT
 62
     1
100
AcDbLine
 10
125.7
 20
394.95
 30
0.0
 11
125.7
 21
376.4
 31
0.0
  0
LINE
  5
345
100
AcDbEntity
  8
LAY-5
  6
DASHDOT
 62
     1
100
AcDbLine
 10
217.7
 20
394.95
 30
0.0
 11
217.7
 21
376.9
 31
0.0
  0
LINE
  5
346
100
AcDbEntity
  8
LAY-5
  6
DASHDOT
 62
     1
100
AcDbLine
 10
217.7
 20
394.95
 30
0.0
 11
217.7
 21
376.4
 31
0.0
  0
LINE
  5
347
100
AcDbEntity
  8
LAY-5
  6
DASHDOT
 62
     1
100
AcDbLine
 10
555.6
 20
403.6
 30
0.0
 11
555.6
 21
418.3
 31
0.0
  0
LINE
  5
348
100
AcDbEntity
  8
LAY-5
  6
DASHDOT
 62
     1
100
AcDbLine
 10
555.6
 20
399.0
 30
0.0
 11
555.6
 21
384.3
 31
0.0
  0
LINE
  5
349
100
AcDbEntity
  8
LAY-5
  6
DASHDOT
 62
     1
100
AcDbLine
 10
547.8
 20
411.3
 30
0.0
 11
563.8
 21
411.3
 31
0.0
  0
LINE
  5
34A
100
AcDbEntity
  8
LAY-5
  6
DASHDOT
 62
     1
100
AcDbLine
 10
547.8
 20
391.3
 30
0.0
 11
563.8
 21
391.3
 31
0.0
  0
LINE
  5
34B
100
AcDbEntity
  8
LAY-5
  6
DASHDOT
 62
     1
100
AcDbLine
 10
403.6
 20
403.6
 30
0.0
 11
403.6
 21
418.3
 31
0.0
  0
LINE
  5
34C
100
AcDbEntity
  8
LAY-5
  6
DASHDOT
 62
     1
100
AcDbLine
 10
403.6
 20
399.0
 30
0.0
 11
403.6
 21
384.3
 31
0.0
  0
LINE
  5
34D
100
AcDbEntity
  8
LAY-5
  6
DASHDOT
 62
     1
100
AcDbLine
 10
395.8
 20
411.3
 30
0.0
 11
411.8
 21
411.3
 31
0.0
  0
LINE
  5
34E
100
AcDbEntity
  8
LAY-5
  6
DASHDOT
 62
     1
100
AcDbLine
 10
395.8
 20
391.3
 30
0.0
 11
411.8
 21
391.3
 31
0.0
  0
LINE
  5
34F
100
AcDbEntity
  8
LAY-5
  6
DASHDOT
 62
     1
100
AcDbLine
 10
463.6
 20
409.0
 30
0.0
 11
463.6
 21
394.3
 31
0.0
  0
LINE
  5
350
100
AcDbEntity
  8
LAY-5
  6
CONTINUOUS
 62
     3
100
AcDbLine
 10
517.100031
 20
513.850049
 30
0.0
 11
517.100031
 21
513.55
 31
0.0
  0
LINE
  5
351
100
AcDbEntity
  8
LAY-5
  6
CONTINUOUS
 62
     3
100
AcDbLine
 10
510.100031
 20
513.850049
 30
0.0
 11
510.100031
 21
513.55
 31
0.0
  0
LINE
  5
352
100
AcDbEntity
  8
LAY-5
  6
CONTINUOUS
 62
     3
100
AcDbLine
 10
442.829691
 20
513.55
 30
0.0
 11
442.829707
 21
513.55
 31
0.0
  0
LINE
  5
353
100
AcDbEntity
  8
LAY-5
  6
CONTINUOUS
 62
     3
100
AcDbLine
 10
442.829691
 20
509.05
 30
0.0
 11
442.829707
 21
509.05
 31
0.0
  0
LINE
  5
354
100
AcDbEntity
  8
LAY-5
  6
DASHDOT
 62
     1
100
AcDbLine
 10
493.6
 20
504.6
 30
0.0
 11
493.6
 21
518.3
 31
0.0
  0
LINE
  5
355
100
AcDbEntity
  8
LAY-5
  6
DASHDOT
 62
     1
100
AcDbLine
 10
513.6
 20
503.5
 30
0.0
 11
513.6
 21
519.2
 31
0.0
  0
LINE
  5
356
100
AcDbEntity
  8
LAY-5
  6
DASHDOT
 62
     1
100
AcDbLine
 10
534.6
 20
504.2
 30
0.0
 11
534.6
 21
518.9
 31
0.0
  0
LINE
  5
357
100
AcDbEntity
  8
LAY-5
  6
DASHDOT
 62
     1
100
AcDbLine
 10
555.6
 20
494.300092
 30
0.0
 11
555.6
 21
509.13252
 31
0.0
  0
LINE
  5
358
100
AcDbEntity
  8
LAY-5
  6
DASHDOT
 62
     1
100
AcDbLine
 10
546.501551
 20
501.3
 30
0.0
 11
565.078687
 21
501.3
 31
0.0
  0
LINE
  5
359
100
AcDbEntity
  8
LAY-5
  6
DASHDOT
 62
     1
100
AcDbLine
 10
546.501551
 20
521.3
 30
0.0
 11
565.078687
 21
521.3
 31
0.0
  0
LINE
  5
35A
100
AcDbEntity
  8
LAY-5
  6
DASHDOT
 62
     1
100
AcDbLine
 10
555.6
 20
528.300061
 30
0.0
 11
555.6
 21
512.715894
 31
0.0
  0
LINE
  5
35B
100
AcDbEntity
  8
LAY-5
  6
DASHDOT
 62
     1
100
AcDbLine
 10
403.6
 20
494.300092
 30
0.0
 11
403.6
 21
509.13252
 31
0.0
  0
LINE
  5
35C
100
AcDbEntity
  8
LAY-5
  6
DASHDOT
 62
     1
100
AcDbLine
 10
394.501551
 20
501.3
 30
0.0
 11
413.078687
 21
501.3
 31
0.0
  0
LINE
  5
35D
100
AcDbEntity
  8
LAY-5
  6
DASHDOT
 62
     1
100
AcDbLine
 10
403.6
 20
528.299908
 30
0.0
 11
403.6
 21
513.46748
 31
0.0
  0
LINE
  5
35E
100
AcDbEntity
  8
LAY-5
  6
DASHDOT
 62
     1
100
AcDbLine
 10
394.501551
 20
521.3
 30
0.0
 11
413.078687
 21
521.3
 31
0.0
  0
LINE
  5
35F
100
AcDbEntity
  8
LAY-5
  6
DASHDOT
 62
     1
100
AcDbLine
 10
95.7
 20
442.283435
 30
0.0
 11
95.7
 21
370.95
 31
0.0
  0
LINE
  5
360
100
AcDbEntity
  8
LAY-5
  6
DASHDOT
 62
     1
100
AcDbLine
 10
725.7
 20
441.4
 30
0.0
 11
725.7
 21
367.15
 31
0.0
  0
LINE
  5
361
100
AcDbEntity
  8
LAY-6
  6
CONTINUOUS
 62
     1
100
AcDbLine
 10
566.578687
 20
521.3
 30
0.0
 11
587.4
 21
521.3
 31
0.0
  0
LINE
  5
362
100
AcDbEntity
  8
LAY-6
  6
CONTINUOUS
 62
     1
100
AcDbLine
 10
565.7
 20
501.3
 30
0.0
 11
587.4
 21
501.3
 31
0.0
  0
TEXT
  5
363
100
AcDbEntity
  8
LAY-6
  6
CONTINUOUS
 62
     2
100
AcDbText
 10
585.4
 20
507.3
 30
0.0
 40
5.0
  1
２０
 50
90.0
 41
0.672
  7
EXCADSTD
 72
     5
 11
585.4
 21
514.6328
 31
0.0
100
AcDbText
  0
LINE
  5
364
100
AcDbEntity
  8
LAY-6
  6
CONTINUOUS
 62
     1
100
AcDbLine
 10
585.9
 20
521.3
 30
0.0
 11
585.9
 21
501.3
 31
0.0
  0
LINE
  5
365
100
AcDbEntity
  8
LAY-6
  6
CONTINUOUS
 62
     1
100
AcDbLine
 10
586.4
 20
518.3
 30
0.0
 11
585.9
 21
521.3
 31
0.0
  0
LINE
  5
366
100
AcDbEntity
  8
LAY-6
  6
CONTINUOUS
 62
     1
100
AcDbLine
 10
585.9
 20
521.3
 30
0.0
 11
585.4
 21
518.3
 31
0.0
  0
LINE
  5
367
100
AcDbEntity
  8
LAY-6
  6
CONTINUOUS
 62
     1
100
AcDbLine
 10
585.4
 20
504.3
 30
0.0
 11
585.9
 21
501.3
 31
0.0
  0
LINE
  5
368
100
AcDbEntity
  8
LAY-6
  6
CONTINUOUS
 62
     1
100
AcDbLine
 10
585.9
 20
501.3
 30
0.0
 11
586.4
 21
504.3
 31
0.0
  0
LINE
  5
369
100
AcDbEntity
  8
LAY-6
  6
CONTINUOUS
 62
     1
100
AcDbLine
 10
570.1
 20
528.3
 30
0.0
 11
596.4
 21
528.3
 31
0.0
  0
LINE
  5
36A
100
AcDbEntity
  8
LAY-6
  6
CONTINUOUS
 62
     1
100
AcDbLine
 10
570.1
 20
494.3
 30
0.0
 11
596.4
 21
494.3
 31
0.0
  0
TEXT
  5
36B
100
AcDbEntity
  8
LAY-6
  6
CONTINUOUS
 62
     2
100
AcDbText
 10
594.4
 20
507.3
 30
0.0
 40
5.0
  1
３４
 50
90.0
 41
0.672
  7
EXCADSTD
 72
     5
 11
594.4
 21
514.6328
 31
0.0
100
AcDbText
  0
LINE
  5
36C
100
AcDbEntity
  8
LAY-6
  6
CONTINUOUS
 62
     1
100
AcDbLine
 10
594.9
 20
528.3
 30
0.0
 11
594.9
 21
494.3
 31
0.0
  0
LINE
  5
36D
100
AcDbEntity
  8
LAY-6
  6
CONTINUOUS
 62
     1
100
AcDbLine
 10
595.4
 20
525.3
 30
0.0
 11
594.9
 21
528.3
 31
0.0
  0
LINE
  5
36E
100
AcDbEntity
  8
LAY-6
  6
CONTINUOUS
 62
     1
100
AcDbLine
 10
594.9
 20
528.3
 30
0.0
 11
594.4
 21
525.3
 31
0.0
  0
LINE
  5
36F
100
AcDbEntity
  8
LAY-6
  6
CONTINUOUS
 62
     1
100
AcDbLine
 10
594.4
 20
497.3
 30
0.0
 11
594.9
 21
494.3
 31
0.0
  0
LINE
  5
370
100
AcDbEntity
  8
LAY-6
  6
CONTINUOUS
 62
     1
100
AcDbLine
 10
594.9
 20
494.3
 30
0.0
 11
595.4
 21
497.3
 31
0.0
  0
LINE
  5
371
100
AcDbEntity
  8
LAY-6
  6
CONTINUOUS
 62
     1
100
AcDbLine
 10
563.1
 20
411.3
 30
0.0
 11
582.6
 21
411.3
 31
0.0
  0
LINE
  5
372
100
AcDbEntity
  8
LAY-6
  6
CONTINUOUS
 62
     1
100
AcDbLine
 10
565.3
 20
391.3
 30
0.0
 11
582.6
 21
391.3
 31
0.0
  0
TEXT
  5
373
100
AcDbEntity
  8
LAY-6
  6
CONTINUOUS
 62
     2
100
AcDbText
 10
580.6
 20
397.3
 30
0.0
 40
5.0
  1
２０
 50
90.0
 41
0.672
  7
EXCADSTD
 72
     5
 11
580.6
 21
404.6328
 31
0.0
100
AcDbText
  0
LINE
  5
374
100
AcDbEntity
  8
LAY-6
  6
CONTINUOUS
 62
     1
100
AcDbLine
 10
581.1
 20
411.3
 30
0.0
 11
581.1
 21
391.3
 31
0.0
  0
LINE
  5
375
100
AcDbEntity
  8
LAY-6
  6
CONTINUOUS
 62
     1
100
AcDbLine
 10
581.6
 20
408.3
 30
0.0
 11
581.1
 21
411.3
 31
0.0
  0
LINE
  5
376
100
AcDbEntity
  8
LAY-6
  6
CONTINUOUS
 62
     1
100
AcDbLine
 10
581.1
 20
411.3
 30
0.0
 11
580.6
 21
408.3
 31
0.0
  0
LINE
  5
377
100
AcDbEntity
  8
LAY-6
  6
CONTINUOUS
 62
     1
100
AcDbLine
 10
580.6
 20
394.3
 30
0.0
 11
581.1
 21
391.3
 31
0.0
  0
LINE
  5
378
100
AcDbEntity
  8
LAY-6
  6
CONTINUOUS
 62
     1
100
AcDbLine
 10
581.1
 20
391.3
 30
0.0
 11
581.6
 21
394.3
 31
0.0
  0
LINE
  5
379
100
AcDbEntity
  8
LAY-6
  6
CONTINUOUS
 62
     1
100
AcDbLine
 10
570.1
 20
418.3
 30
0.0
 11
590.7
 21
418.3
 31
0.0
  0
LINE
  5
37A
100
AcDbEntity
  8
LAY-6
  6
CONTINUOUS
 62
     1
100
AcDbLine
 10
570.1
 20
384.3
 30
0.0
 11
590.7
 21
384.3
 31
0.0
  0
TEXT
  5
37B
100
AcDbEntity
  8
LAY-6
  6
CONTINUOUS
 62
     2
100
AcDbText
 10
588.7
 20
397.3
 30
0.0
 40
5.0
  1
３４
 50
90.0
 41
0.672
  7
EXCADSTD
 72
     5
 11
588.7
 21
404.6328
 31
0.0
100
AcDbText
  0
LINE
  5
37C
100
AcDbEntity
  8
LAY-6
  6
CONTINUOUS
 62
     1
100
AcDbLine
 10
589.2
 20
418.3
 30
0.0
 11
589.2
 21
384.3
 31
0.0
  0
LINE
  5
37D
100
AcDbEntity
  8
LAY-6
  6
CONTINUOUS
 62
     1
100
AcDbLine
 10
589.7
 20
415.3
 30
0.0
 11
589.2
 21
418.3
 31
0.0
  0
LINE
  5
37E
100
AcDbEntity
  8
LAY-6
  6
CONTINUOUS
 62
     1
100
AcDbLine
 10
589.2
 20
418.3
 30
0.0
 11
588.7
 21
415.3
 31
0.0
  0
LINE
  5
37F
100
AcDbEntity
  8
LAY-6
  6
CONTINUOUS
 62
     1
100
AcDbLine
 10
588.7
 20
387.3
 30
0.0
 11
589.2
 21
384.3
 31
0.0
  0
LINE
  5
380
100
AcDbEntity
  8
LAY-6
  6
CONTINUOUS
 62
     1
100
AcDbLine
 10
589.2
 20
384.3
 30
0.0
 11
589.7
 21
387.3
 31
0.0
  0
LINE
  5
381
100
AcDbEntity
  8
LAY-6
  6
CONTINUOUS
 62
     1
100
AcDbLine
 10
708.7
 20
405.2
 30
0.0
 11
708.7
 21
418.1
 31
0.0
  0
LINE
  5
382
100
AcDbEntity
  8
LAY-6
  6
CONTINUOUS
 62
     1
100
AcDbLine
 10
742.7
 20
405.2
 30
0.0
 11
742.7
 21
418.1
 31
0.0
  0
TEXT
  5
383
100
AcDbEntity
  8
LAY-6
  6
CONTINUOUS
 62
     2
100
AcDbText
 10
721.7
 20
417.1
 30
0.0
 40
5.0
  1
３４
 41
0.672
  7
EXCADSTD
 72
     5
 11
729.0328
 21
417.1
 31
0.0
100
AcDbText
  0
LINE
  5
384
100
AcDbEntity
  8
LAY-6
  6
CONTINUOUS
 62
     1
100
AcDbLine
 10
708.7
 20
416.6
 30
0.0
 11
742.7
 21
416.6
 31
0.0
  0
LINE
  5
385
100
AcDbEntity
  8
LAY-6
  6
CONTINUOUS
 62
     1
100
AcDbLine
 10
711.7
 20
417.1
 30
0.0
 11
708.7
 21
416.6
 31
0.0
  0
LINE
  5
386
100
AcDbEntity
  8
LAY-6
  6
CONTINUOUS
 62
     1
100
AcDbLine
 10
708.7
 20
416.6
 30
0.0
 11
711.7
 21
416.1
 31
0.0
  0
LINE
  5
387
100
AcDbEntity
  8
LAY-6
  6
CONTINUOUS
 62
     1
100
AcDbLine
 10
739.7
 20
416.1
 30
0.0
 11
742.7
 21
416.6
 31
0.0
  0
LINE
  5
388
100
AcDbEntity
  8
LAY-6
  6
CONTINUOUS
 62
     1
100
AcDbLine
 10
742.7
 20
416.6
 30
0.0
 11
739.7
 21
417.1
 31
0.0
  0
TEXT
  5
389
100
AcDbEntity
  8
LAY-6
  6
CONTINUOUS
 62
     2
100
AcDbText
 10
236.7
 20
428.1
 30
0.0
 40
5.0
  1
４－Ｍ６×１６皿小ネジ
 41
0.672
  7
EXCADSTD
 72
     5
 11
280.7
 21
428.1
 31
0.0
100
AcDbText
  0
TEXT
  5
38A
100
AcDbEntity
  8
LAY-6
  6
CONTINUOUS
 62
     2
100
AcDbText
 10
235.9
 20
369.2
 30
0.0
 40
5.0
  1
５－Ｍ６×１６皿小ネジ
 41
0.672
  7
EXCADSTD
 72
     5
 11
279.9
 21
369.2
 31
0.0
100
AcDbText
  0
LINE
  5
38B
100
AcDbEntity
  8
LAY-6
  6
CONTINUOUS
 62
     1
100
AcDbLine
 10
677.2
 20
137.7
 30
0.0
 11
677.2
 21
113.3
 31
0.0
  0
LINE
  5
38C
100
AcDbEntity
  8
LAY-6
  6
CONTINUOUS
 62
     1
100
AcDbLine
 10
676.7
 20
122.8
 30
0.0
 11
677.2
 21
119.8
 31
0.0
  0
LINE
  5
38D
100
AcDbEntity
  8
LAY-6
  6
CONTINUOUS
 62
     1
100
AcDbLine
 10
677.2
 20
119.8
 30
0.0
 11
677.7
 21
122.8
 31
0.0
  0
LINE
  5
38E
100
AcDbEntity
  8
LAY-6
  6
CONTINUOUS
 62
     1
100
AcDbLine
 10
677.7
 20
115.3
 30
0.0
 11
677.2
 21
118.3
 31
0.0
  0
LINE
  5
38F
100
AcDbEntity
  8
LAY-6
  6
CONTINUOUS
 62
     1
100
AcDbLine
 10
677.2
 20
118.3
 30
0.0
 11
676.7
 21
115.3
 31
0.0
  0
TEXT
  5
390
100
AcDbEntity
  8
LAY-6
  6
CONTINUOUS
 62
     2
100
AcDbText
 10
676.8
 20
128.3
 30
0.0
 40
5.0
  1
１.５
 50
90.0
 41
0.595556
  7
EXCADSTD
 72
     5
 11
676.8
 21
138.3
 31
0.0
100
AcDbText
  0
LINE
  5
391
100
AcDbEntity
  8
LAY-6
  6
CONTINUOUS
 62
     1
100
AcDbLine
 10
699.2
 20
119.8
 30
0.0
 11
676.0
 21
119.8
 31
0.0
  0
LINE
  5
392
100
AcDbEntity
  8
LAY-6
  6
CONTINUOUS
 62
     1
100
AcDbLine
 10
699.2
 20
118.3
 30
0.0
 11
676.0
 21
118.3
 31
0.0
  0
TEXT
  5
393
100
AcDbEntity
  8
LAY-6
  6
CONTINUOUS
 62
     2
100
AcDbText
 10
754.8
 20
293.2
 30
0.0
 40
5.0
  1
４－Ｍ６×２５皿小ネジ
 41
0.672
  7
EXCADSTD
 72
     5
 11
798.8
 21
293.2
 31
0.0
100
AcDbText
  0
TEXT
  5
394
100
AcDbEntity
  8
LAY-6
  6
CONTINUOUS
 62
     2
100
AcDbText
 10
242.95
 20
415.2
 30
0.0
 40
5.0
  1
裏板４．５ｔ以上（別途）
 41
0.672
  7
EXCADSTD
 72
     5
 11
290.95
 21
415.2
 31
0.0
100
AcDbText
  0
LINE
  5
395
100
AcDbEntity
  8
LAY-6
  6
CONTINUOUS
 62
     1
100
AcDbLine
 10
403.6
 20
212.1
 30
0.0
 11
433.6
 21
212.1
 31
0.0
  0
LINE
  5
396
100
AcDbEntity
  8
LAY-6
  6
CONTINUOUS
 62
     1
100
AcDbLine
 10
406.6
 20
212.6
 30
0.0
 11
403.6
 21
212.1
 31
0.0
  0
LINE
  5
397
100
AcDbEntity
  8
LAY-6
  6
CONTINUOUS
 62
     1
100
AcDbLine
 10
403.6
 20
212.1
 30
0.0
 11
406.6
 21
211.6
 31
0.0
  0
LINE
  5
398
100
AcDbEntity
  8
LAY-6
  6
CONTINUOUS
 62
     1
100
AcDbLine
 10
430.6
 20
211.6
 30
0.0
 11
433.6
 21
212.1
 31
0.0
  0
LINE
  5
399
100
AcDbEntity
  8
LAY-6
  6
CONTINUOUS
 62
     1
100
AcDbLine
 10
433.6
 20
212.1
 30
0.0
 11
430.6
 21
212.6
 31
0.0
  0
TEXT
  5
39A
100
AcDbEntity
  8
LAY-6
  6
CONTINUOUS
 62
     2
100
AcDbText
 10
414.6
 20
212.6
 30
0.0
 40
5.0
  1
３０
 41
0.672
  7
EXCADSTD
 72
     5
 11
421.9328
 21
212.6
 31
0.0
100
AcDbText
  0
LINE
  5
39B
100
AcDbEntity
  8
LAY-6
  6
CONTINUOUS
 62
     1
100
AcDbLine
 10
403.6
 20
203.8
 30
0.0
 11
783.6
 21
203.8
 31
0.0
  0
LINE
  5
39C
100
AcDbEntity
  8
LAY-6
  6
CONTINUOUS
 62
     1
100
AcDbLine
 10
406.6
 20
204.3
 30
0.0
 11
403.6
 21
203.8
 31
0.0
  0
LINE
  5
39D
100
AcDbEntity
  8
LAY-6
  6
CONTINUOUS
 62
     1
100
AcDbLine
 10
403.6
 20
203.8
 30
0.0
 11
406.6
 21
203.3
 31
0.0
  0
LINE
  5
39E
100
AcDbEntity
  8
LAY-6
  6
CONTINUOUS
 62
     1
100
AcDbLine
 10
780.6
 20
203.3
 30
0.0
 11
783.6
 21
203.8
 31
0.0
  0
LINE
  5
39F
100
AcDbEntity
  8
LAY-6
  6
CONTINUOUS
 62
     1
100
AcDbLine
 10
783.6
 20
203.8
 30
0.0
 11
780.6
 21
204.3
 31
0.0
  0
TEXT
  5
3A0
100
AcDbEntity
  8
LAY-6
  6
CONTINUOUS
 62
     2
100
AcDbText
 10
587.6
 20
204.3
 30
0.0
 40
5.0
  1
３８０
 41
0.672
  7
EXCADSTD
 72
     5
 11
599.6
 21
204.3
 31
0.0
100
AcDbText
  0
LINE
  5
3A1
100
AcDbEntity
  8
LAY-6
  6
CONTINUOUS
 62
     1
100
AcDbLine
 10
403.6
 20
259.8
 30
0.0
 11
403.6
 21
202.3
 31
0.0
  0
LINE
  5
3A2
100
AcDbEntity
  8
LAY-6
  6
CONTINUOUS
 62
     1
100
AcDbLine
 10
783.6
 20
244.3
 30
0.0
 11
783.6
 21
202.3
 31
0.0
  0
LINE
  5
3A3
100
AcDbEntity
  8
LAY-6
  6
CONTINUOUS
 62
     1
100
AcDbLine
 10
433.6
 20
242.8
 30
0.0
 11
433.6
 21
210.6
 31
0.0
  0
LINE
  5
3A4
100
AcDbEntity
  8
LAY-6
  6
CONTINUOUS
 62
     1
100
AcDbLine
 10
473.6
 20
259.8
 30
0.0
 11
473.6
 21
210.6
 31
0.0
  0
TEXT
  5
3A5
100
AcDbEntity
  8
LAY-6
  6
CONTINUOUS
 62
     2
100
AcDbText
 10
449.6
 20
212.6
 30
0.0
 40
5.0
  1
４０
 41
0.672
  7
EXCADSTD
 72
     5
 11
456.9328
 21
212.6
 31
0.0
100
AcDbText
  0
LINE
  5
3A6
100
AcDbEntity
  8
LAY-6
  6
CONTINUOUS
 62
     1
100
AcDbLine
 10
433.6
 20
212.1
 30
0.0
 11
473.6
 21
212.1
 31
0.0
  0
LINE
  5
3A7
100
AcDbEntity
  8
LAY-6
  6
CONTINUOUS
 62
     1
100
AcDbLine
 10
436.6
 20
212.6
 30
0.0
 11
433.6
 21
212.1
 31
0.0
  0
LINE
  5
3A8
100
AcDbEntity
  8
LAY-6
  6
CONTINUOUS
 62
     1
100
AcDbLine
 10
433.6
 20
212.1
 30
0.0
 11
436.6
 21
211.6
 31
0.0
  0
LINE
  5
3A9
100
AcDbEntity
  8
LAY-6
  6
CONTINUOUS
 62
     1
100
AcDbLine
 10
470.6
 20
211.6
 30
0.0
 11
473.6
 21
212.1
 31
0.0
  0
LINE
  5
3AA
100
AcDbEntity
  8
LAY-6
  6
CONTINUOUS
 62
     1
100
AcDbLine
 10
473.6
 20
212.1
 30
0.0
 11
470.6
 21
212.6
 31
0.0
  0
LINE
  5
3AB
100
AcDbEntity
  8
LAY-6
  6
CONTINUOUS
 62
     1
100
AcDbLine
 10
503.6
 20
243.8
 30
0.0
 11
503.6
 21
210.6
 31
0.0
  0
TEXT
  5
3AC
100
AcDbEntity
  8
LAY-6
  6
CONTINUOUS
 62
     2
100
AcDbText
 10
479.6
 20
212.6
 30
0.0
 40
5.0
  1
３０
 41
0.672
  7
EXCADSTD
 72
     5
 11
486.9328
 21
212.6
 31
0.0
100
AcDbText
  0
LINE
  5
3AD
100
AcDbEntity
  8
LAY-6
  6
CONTINUOUS
 62
     1
100
AcDbLine
 10
473.6
 20
212.1
 30
0.0
 11
503.6
 21
212.1
 31
0.0
  0
LINE
  5
3AE
100
AcDbEntity
  8
LAY-6
  6
CONTINUOUS
 62
     1
100
AcDbLine
 10
476.6
 20
212.6
 30
0.0
 11
473.6
 21
212.1
 31
0.0
  0
LINE
  5
3AF
100
AcDbEntity
  8
LAY-6
  6
CONTINUOUS
 62
     1
100
AcDbLine
 10
473.6
 20
212.1
 30
0.0
 11
476.6
 21
211.6
 31
0.0
  0
LINE
  5
3B0
100
AcDbEntity
  8
LAY-6
  6
CONTINUOUS
 62
     1
100
AcDbLine
 10
500.6
 20
211.6
 30
0.0
 11
503.6
 21
212.1
 31
0.0
  0
LINE
  5
3B1
100
AcDbEntity
  8
LAY-6
  6
CONTINUOUS
 62
     1
100
AcDbLine
 10
503.6
 20
212.1
 30
0.0
 11
500.6
 21
212.6
 31
0.0
  0
LINE
  5
3B2
100
AcDbEntity
  8
LAY-6
  6
CONTINUOUS
 62
     1
100
AcDbLine
 10
606.6
 20
259.8
 30
0.0
 11
606.6
 21
210.6
 31
0.0
  0
TEXT
  5
3B3
100
AcDbEntity
  8
LAY-6
  6
CONTINUOUS
 62
     2
100
AcDbText
 10
549.1
 20
212.6
 30
0.0
 40
5.0
  1
１０３
 41
0.672
  7
EXCADSTD
 72
     5
 11
561.1
 21
212.6
 31
0.0
100
AcDbText
  0
LINE
  5
3B4
100
AcDbEntity
  8
LAY-6
  6
CONTINUOUS
 62
     1
100
AcDbLine
 10
503.6
 20
212.1
 30
0.0
 11
606.6
 21
212.1
 31
0.0
  0
LINE
  5
3B5
100
AcDbEntity
  8
LAY-6
  6
CONTINUOUS
 62
     1
100
AcDbLine
 10
506.6
 20
212.6
 30
0.0
 11
503.6
 21
212.1
 31
0.0
  0
LINE
  5
3B6
100
AcDbEntity
  8
LAY-6
  6
CONTINUOUS
 62
     1
100
AcDbLine
 10
503.6
 20
212.1
 30
0.0
 11
506.6
 21
211.6
 31
0.0
  0
LINE
  5
3B7
100
AcDbEntity
  8
LAY-6
  6
CONTINUOUS
 62
     1
100
AcDbLine
 10
603.6
 20
211.6
 30
0.0
 11
606.6
 21
212.1
 31
0.0
  0
LINE
  5
3B8
100
AcDbEntity
  8
LAY-6
  6
CONTINUOUS
 62
     1
100
AcDbLine
 10
606.6
 20
212.1
 30
0.0
 11
603.6
 21
212.6
 31
0.0
  0
LINE
  5
3B9
100
AcDbEntity
  8
LAY-6
  6
CONTINUOUS
 62
     1
100
AcDbLine
 10
636.6
 20
243.8
 30
0.0
 11
636.6
 21
210.6
 31
0.0
  0
TEXT
  5
3BA
100
AcDbEntity
  8
LAY-6
  6
CONTINUOUS
 62
     2
100
AcDbText
 10
617.6
 20
212.6
 30
0.0
 40
5.0
  1
３０
 41
0.672
  7
EXCADSTD
 72
     5
 11
624.9328
 21
212.6
 31
0.0
100
AcDbText
  0
LINE
  5
3BB
100
AcDbEntity
  8
LAY-6
  6
CONTINUOUS
 62
     1
100
AcDbLine
 10
606.6
 20
212.1
 30
0.0
 11
636.6
 21
212.1
 31
0.0
  0
LINE
  5
3BC
100
AcDbEntity
  8
LAY-6
  6
CONTINUOUS
 62
     1
100
AcDbLine
 10
609.6
 20
212.6
 30
0.0
 11
606.6
 21
212.1
 31
0.0
  0
LINE
  5
3BD
100
AcDbEntity
  8
LAY-6
  6
CONTINUOUS
 62
     1
100
AcDbLine
 10
606.6
 20
212.1
 30
0.0
 11
609.6
 21
211.6
 31
0.0
  0
LINE
  5
3BE
100
AcDbEntity
  8
LAY-6
  6
CONTINUOUS
 62
     1
100
AcDbLine
 10
633.6
 20
211.6
 30
0.0
 11
636.6
 21
212.1
 31
0.0
  0
LINE
  5
3BF
100
AcDbEntity
  8
LAY-6
  6
CONTINUOUS
 62
     1
100
AcDbLine
 10
636.6
 20
212.1
 30
0.0
 11
633.6
 21
212.6
 31
0.0
  0
LINE
  5
3C0
100
AcDbEntity
  8
LAY-6
  6
CONTINUOUS
 62
     1
100
AcDbLine
 10
739.6
 20
259.8
 30
0.0
 11
739.6
 21
210.6
 31
0.0
  0
TEXT
  5
3C1
100
AcDbEntity
  8
LAY-6
  6
CONTINUOUS
 62
     2
100
AcDbText
 10
682.1
 20
212.6
 30
0.0
 40
5.0
  1
１０３
 41
0.672
  7
EXCADSTD
 72
     5
 11
694.1
 21
212.6
 31
0.0
100
AcDbText
  0
LINE
  5
3C2
100
AcDbEntity
  8
LAY-6
  6
CONTINUOUS
 62
     1
100
AcDbLine
 10
636.6
 20
212.1
 30
0.0
 11
739.6
 21
212.1
 31
0.0
  0
LINE
  5
3C3
100
AcDbEntity
  8
LAY-6
  6
CONTINUOUS
 62
     1
100
AcDbLine
 10
639.6
 20
212.6
 30
0.0
 11
636.6
 21
212.1
 31
0.0
  0
LINE
  5
3C4
100
AcDbEntity
  8
LAY-6
  6
CONTINUOUS
 62
     1
100
AcDbLine
 10
636.6
 20
212.1
 30
0.0
 11
639.6
 21
211.6
 31
0.0
  0
LINE
  5
3C5
100
AcDbEntity
  8
LAY-6
  6
CONTINUOUS
 62
     1
100
AcDbLine
 10
736.6
 20
211.6
 30
0.0
 11
739.6
 21
212.1
 31
0.0
  0
LINE
  5
3C6
100
AcDbEntity
  8
LAY-6
  6
CONTINUOUS
 62
     1
100
AcDbLine
 10
739.6
 20
212.1
 30
0.0
 11
736.6
 21
212.6
 31
0.0
  0
LINE
  5
3C7
100
AcDbEntity
  8
LAY-6
  6
CONTINUOUS
 62
     1
100
AcDbLine
 10
769.6
 20
243.8
 30
0.0
 11
769.6
 21
210.6
 31
0.0
  0
TEXT
  5
3C8
100
AcDbEntity
  8
LAY-6
  6
CONTINUOUS
 62
     2
100
AcDbText
 10
750.6
 20
212.6
 30
0.0
 40
5.0
  1
３０
 41
0.672
  7
EXCADSTD
 72
     5
 11
757.9328
 21
212.6
 31
0.0
100
AcDbText
  0
LINE
  5
3C9
100
AcDbEntity
  8
LAY-6
  6
CONTINUOUS
 62
     1
100
AcDbLine
 10
739.6
 20
212.1
 30
0.0
 11
769.6
 21
212.1
 31
0.0
  0
LINE
  5
3CA
100
AcDbEntity
  8
LAY-6
  6
CONTINUOUS
 62
     1
100
AcDbLine
 10
742.6
 20
212.6
 30
0.0
 11
739.6
 21
212.1
 31
0.0
  0
LINE
  5
3CB
100
AcDbEntity
  8
LAY-6
  6
CONTINUOUS
 62
     1
100
AcDbLine
 10
739.6
 20
212.1
 30
0.0
 11
742.6
 21
211.6
 31
0.0
  0
LINE
  5
3CC
100
AcDbEntity
  8
LAY-6
  6
CONTINUOUS
 62
     1
100
AcDbLine
 10
766.6
 20
211.6
 30
0.0
 11
769.6
 21
212.1
 31
0.0
  0
LINE
  5
3CD
100
AcDbEntity
  8
LAY-6
  6
CONTINUOUS
 62
     1
100
AcDbLine
 10
769.6
 20
212.1
 30
0.0
 11
766.6
 21
212.6
 31
0.0
  0
LINE
  5
3CE
100
AcDbEntity
  8
LAY-6
  6
CONTINUOUS
 62
     1
100
AcDbLine
 10
783.6
 20
278.3
 30
0.0
 11
802.5
 21
278.3
 31
0.0
  0
LINE
  5
3CF
100
AcDbEntity
  8
LAY-6
  6
CONTINUOUS
 62
     1
100
AcDbLine
 10
783.6
 20
244.3
 30
0.0
 11
802.5
 21
244.3
 31
0.0
  0
TEXT
  5
3D0
100
AcDbEntity
  8
LAY-6
  6
CONTINUOUS
 62
     2
100
AcDbText
 10
800.5
 20
257.3
 30
0.0
 40
5.0
  1
３４
 50
90.0
 41
0.672
  7
EXCADSTD
 72
     5
 11
800.5
 21
264.6328
 31
0.0
100
AcDbText
  0
LINE
  5
3D1
100
AcDbEntity
  8
LAY-6
  6
CONTINUOUS
 62
     1
100
AcDbLine
 10
801.0
 20
278.3
 30
0.0
 11
801.0
 21
244.3
 31
0.0
  0
LINE
  5
3D2
100
AcDbEntity
  8
LAY-6
  6
CONTINUOUS
 62
     1
100
AcDbLine
 10
801.5
 20
275.3
 30
0.0
 11
801.0
 21
278.3
 31
0.0
  0
LINE
  5
3D3
100
AcDbEntity
  8
LAY-6
  6
CONTINUOUS
 62
     1
100
AcDbLine
 10
801.0
 20
278.3
 30
0.0
 11
800.5
 21
275.3
 31
0.0
  0
LINE
  5
3D4
100
AcDbEntity
  8
LAY-6
  6
CONTINUOUS
 62
     1
100
AcDbLine
 10
800.5
 20
247.3
 30
0.0
 11
801.0
 21
244.3
 31
0.0
  0
LINE
  5
3D5
100
AcDbEntity
  8
LAY-6
  6
CONTINUOUS
 62
     1
100
AcDbLine
 10
801.0
 20
244.3
 30
0.0
 11
801.5
 21
247.3
 31
0.0
  0
LINE
  5
3D6
100
AcDbEntity
  8
LAY-6
  6
CONTINUOUS
 62
     1
100
AcDbLine
 10
491.1
 20
134.3
 30
0.0
 11
517.3
 21
134.3
 31
0.0
  0
LINE
  5
3D7
100
AcDbEntity
  8
LAY-6
  6
CONTINUOUS
 62
     1
100
AcDbLine
 10
491.1
 20
108.3
 30
0.0
 11
517.3
 21
108.3
 31
0.0
  0
TEXT
  5
3D8
100
AcDbEntity
  8
LAY-6
  6
CONTINUOUS
 62
     2
100
AcDbText
 10
515.3
 20
117.3
 30
0.0
 40
5.0
  1
２６
 50
90.0
 41
0.672
  7
EXCADSTD
 72
     5
 11
515.3
 21
124.6328
 31
0.0
100
AcDbText
  0
LINE
  5
3D9
100
AcDbEntity
  8
LAY-6
  6
CONTINUOUS
 62
     1
100
AcDbLine
 10
515.8
 20
134.3
 30
0.0
 11
515.8
 21
108.3
 31
0.0
  0
LINE
  5
3DA
100
AcDbEntity
  8
LAY-6
  6
CONTINUOUS
 62
     1
100
AcDbLine
 10
516.3
 20
131.3
 30
0.0
 11
515.8
 21
134.3
 31
0.0
  0
LINE
  5
3DB
100
AcDbEntity
  8
LAY-6
  6
CONTINUOUS
 62
     1
100
AcDbLine
 10
515.8
 20
134.3
 30
0.0
 11
515.3
 21
131.3
 31
0.0
  0
LINE
  5
3DC
100
AcDbEntity
  8
LAY-6
  6
CONTINUOUS
 62
     1
100
AcDbLine
 10
515.3
 20
111.3
 30
0.0
 11
515.8
 21
108.3
 31
0.0
  0
LINE
  5
3DD
100
AcDbEntity
  8
LAY-6
  6
CONTINUOUS
 62
     1
100
AcDbLine
 10
515.8
 20
108.3
 30
0.0
 11
516.3
 21
111.3
 31
0.0
  0
LINE
  5
3DE
100
AcDbEntity
  8
LAY-6
  6
CONTINUOUS
 62
     1
100
AcDbLine
 10
495.1
 20
143.3
 30
0.0
 11
524.6
 21
143.3
 31
0.0
  0
LINE
  5
3DF
100
AcDbEntity
  8
LAY-6
  6
CONTINUOUS
 62
     1
100
AcDbLine
 10
495.1
 20
99.3
 30
0.0
 11
524.6
 21
99.3
 31
0.0
  0
TEXT
  5
3E0
100
AcDbEntity
  8
LAY-6
  6
CONTINUOUS
 62
     2
100
AcDbText
 10
522.6
 20
117.3
 30
0.0
 40
5.0
  1
４４
 50
90.0
 41
0.672
  7
EXCADSTD
 72
     5
 11
522.6
 21
124.6328
 31
0.0
100
AcDbText
  0
LINE
  5
3E1
100
AcDbEntity
  8
LAY-6
  6
CONTINUOUS
 62
     1
100
AcDbLine
 10
523.1
 20
143.3
 30
0.0
 11
523.1
 21
99.3
 31
0.0
  0
LINE
  5
3E2
100
AcDbEntity
  8
LAY-6
  6
CONTINUOUS
 62
     1
100
AcDbLine
 10
523.6
 20
140.3
 30
0.0
 11
523.1
 21
143.3
 31
0.0
  0
LINE
  5
3E3
100
AcDbEntity
  8
LAY-6
  6
CONTINUOUS
 62
     1
100
AcDbLine
 10
523.1
 20
143.3
 30
0.0
 11
522.6
 21
140.3
 31
0.0
  0
LINE
  5
3E4
100
AcDbEntity
  8
LAY-6
  6
CONTINUOUS
 62
     1
100
AcDbLine
 10
522.6
 20
102.3
 30
0.0
 11
523.1
 21
99.3
 31
0.0
  0
LINE
  5
3E5
100
AcDbEntity
  8
LAY-6
  6
CONTINUOUS
 62
     1
100
AcDbLine
 10
523.1
 20
99.3
 30
0.0
 11
523.6
 21
102.3
 31
0.0
  0
LINE
  5
3E6
100
AcDbEntity
  8
LAY-6
  6
CONTINUOUS
 62
     1
100
AcDbLine
 10
500.1
 20
146.3
 30
0.0
 11
532.3
 21
146.3
 31
0.0
  0
LINE
  5
3E7
100
AcDbEntity
  8
LAY-6
  6
CONTINUOUS
 62
     1
100
AcDbLine
 10
500.1
 20
96.3
 30
0.0
 11
532.3
 21
96.3
 31
0.0
  0
TEXT
  5
3E8
100
AcDbEntity
  8
LAY-6
  6
CONTINUOUS
 62
     2
100
AcDbText
 10
530.3
 20
117.3
 30
0.0
 40
5.0
  1
５０
 50
90.0
 41
0.672
  7
EXCADSTD
 72
     5
 11
530.3
 21
124.6328
 31
0.0
100
AcDbText
  0
LINE
  5
3E9
100
AcDbEntity
  8
LAY-6
  6
CONTINUOUS
 62
     1
100
AcDbLine
 10
530.8
 20
146.3
 30
0.0
 11
530.8
 21
96.3
 31
0.0
  0
LINE
  5
3EA
100
AcDbEntity
  8
LAY-6
  6
CONTINUOUS
 62
     1
100
AcDbLine
 10
531.3
 20
143.3
 30
0.0
 11
530.8
 21
146.3
 31
0.0
  0
LINE
  5
3EB
100
AcDbEntity
  8
LAY-6
  6
CONTINUOUS
 62
     1
100
AcDbLine
 10
530.8
 20
146.3
 30
0.0
 11
530.3
 21
143.3
 31
0.0
  0
LINE
  5
3EC
100
AcDbEntity
  8
LAY-6
  6
CONTINUOUS
 62
     1
100
AcDbLine
 10
530.3
 20
99.3
 30
0.0
 11
530.8
 21
96.3
 31
0.0
  0
LINE
  5
3ED
100
AcDbEntity
  8
LAY-6
  6
CONTINUOUS
 62
     1
100
AcDbLine
 10
530.8
 20
96.3
 30
0.0
 11
531.3
 21
99.3
 31
0.0
  0
TEXT
  5
3EE
100
AcDbEntity
  8
LAY-6
  6
CONTINUOUS
 62
     2
100
AcDbText
 10
417.1
 20
152.6
 30
0.0
 40
5.0
  1
２５
 41
0.672
  7
EXCADSTD
 72
     5
 11
424.4328
 21
152.6
 31
0.0
100
AcDbText
  0
LINE
  5
3EF
100
AcDbEntity
  8
LAY-6
  6
CONTINUOUS
 62
     1
100
AcDbLine
 10
408.6
 20
152.1
 30
0.0
 11
433.6
 21
152.1
 31
0.0
  0
LINE
  5
3F0
100
AcDbEntity
  8
LAY-6
  6
CONTINUOUS
 62
     1
100
AcDbLine
 10
411.6
 20
152.6
 30
0.0
 11
408.6
 21
152.1
 31
0.0
  0
LINE
  5
3F1
100
AcDbEntity
  8
LAY-6
  6
CONTINUOUS
 62
     1
100
AcDbLine
 10
408.6
 20
152.1
 30
0.0
 11
411.6
 21
151.6
 31
0.0
  0
LINE
  5
3F2
100
AcDbEntity
  8
LAY-6
  6
CONTINUOUS
 62
     1
100
AcDbLine
 10
430.6
 20
151.6
 30
0.0
 11
433.6
 21
152.1
 31
0.0
  0
LINE
  5
3F3
100
AcDbEntity
  8
LAY-6
  6
CONTINUOUS
 62
     1
100
AcDbLine
 10
433.6
 20
152.1
 30
0.0
 11
430.6
 21
152.6
 31
0.0
  0
TEXT
  5
3F4
100
AcDbEntity
  8
LAY-6
  6
CONTINUOUS
 62
     2
100
AcDbText
 10
462.1
 20
152.6
 30
0.0
 40
5.0
  1
６５
 41
0.672
  7
EXCADSTD
 72
     5
 11
469.4328
 21
152.6
 31
0.0
100
AcDbText
  0
LINE
  5
3F5
100
AcDbEntity
  8
LAY-6
  6
CONTINUOUS
 62
     1
100
AcDbLine
 10
433.6
 20
152.1
 30
0.0
 11
498.6
 21
152.1
 31
0.0
  0
LINE
  5
3F6
100
AcDbEntity
  8
LAY-6
  6
CONTINUOUS
 62
     1
100
AcDbLine
 10
436.6
 20
152.6
 30
0.0
 11
433.6
 21
152.1
 31
0.0
  0
LINE
  5
3F7
100
AcDbEntity
  8
LAY-6
  6
CONTINUOUS
 62
     1
100
AcDbLine
 10
433.6
 20
152.1
 30
0.0
 11
436.6
 21
151.6
 31
0.0
  0
LINE
  5
3F8
100
AcDbEntity
  8
LAY-6
  6
CONTINUOUS
 62
     1
100
AcDbLine
 10
495.6
 20
151.6
 30
0.0
 11
498.6
 21
152.1
 31
0.0
  0
LINE
  5
3F9
100
AcDbEntity
  8
LAY-6
  6
CONTINUOUS
 62
     1
100
AcDbLine
 10
498.6
 20
152.1
 30
0.0
 11
495.6
 21
152.6
 31
0.0
  0
LINE
  5
3FA
100
AcDbEntity
  8
LAY-6
  6
CONTINUOUS
 62
     1
100
AcDbLine
 10
408.6
 20
147.8
 30
0.0
 11
408.6
 21
161.1
 31
0.0
  0
LINE
  5
3FB
100
AcDbEntity
  8
LAY-6
  6
CONTINUOUS
 62
     1
100
AcDbLine
 10
498.6
 20
147.8
 30
0.0
 11
498.6
 21
161.1
 31
0.0
  0
TEXT
  5
3FC
100
AcDbEntity
  8
LAY-6
  6
CONTINUOUS
 62
     2
100
AcDbText
 10
449.6
 20
160.1
 30
0.0
 40
5.0
  1
９０
 41
0.672
  7
EXCADSTD
 72
     5
 11
456.9328
 21
160.1
 31
0.0
100
AcDbText
  0
LINE
  5
3FD
100
AcDbEntity
  8
LAY-6
  6
CONTINUOUS
 62
     1
100
AcDbLine
 10
408.6
 20
159.6
 30
0.0
 11
498.6
 21
159.6
 31
0.0
  0
LINE
  5
3FE
100
AcDbEntity
  8
LAY-6
  6
CONTINUOUS
 62
     1
100
AcDbLine
 10
411.6
 20
160.1
 30
0.0
 11
408.6
 21
159.6
 31
0.0
  0
LINE
  5
3FF
100
AcDbEntity
  8
LAY-6
  6
CONTINUOUS
 62
     1
100
AcDbLine
 10
408.6
 20
159.6
 30
0.0
 11
411.6
 21
159.1
 31
0.0
  0
LINE
  5
400
100
AcDbEntity
  8
LAY-6
  6
CONTINUOUS
 62
     1
100
AcDbLine
 10
495.6
 20
159.1
 30
0.0
 11
498.6
 21
159.6
 31
0.0
  0
LINE
  5
401
100
AcDbEntity
  8
LAY-6
  6
CONTINUOUS
 62
     1
100
AcDbLine
 10
498.6
 20
159.6
 30
0.0
 11
495.6
 21
160.1
 31
0.0
  0
LINE
  5
402
100
AcDbEntity
  8
LAY-6
  6
CONTINUOUS
 62
     1
100
AcDbLine
 10
408.6
 20
81.8
 30
0.0
 11
433.6
 21
81.8
 31
0.0
  0
LINE
  5
403
100
AcDbEntity
  8
LAY-6
  6
CONTINUOUS
 62
     1
100
AcDbLine
 10
411.6
 20
82.3
 30
0.0
 11
408.6
 21
81.8
 31
0.0
  0
LINE
  5
404
100
AcDbEntity
  8
LAY-6
  6
CONTINUOUS
 62
     1
100
AcDbLine
 10
408.6
 20
81.8
 30
0.0
 11
411.6
 21
81.3
 31
0.0
  0
LINE
  5
405
100
AcDbEntity
  8
LAY-6
  6
CONTINUOUS
 62
     1
100
AcDbLine
 10
430.6
 20
81.3
 30
0.0
 11
433.6
 21
81.8
 31
0.0
  0
LINE
  5
406
100
AcDbEntity
  8
LAY-6
  6
CONTINUOUS
 62
     1
100
AcDbLine
 10
433.6
 20
81.8
 30
0.0
 11
430.6
 21
82.3
 31
0.0
  0
TEXT
  5
407
100
AcDbEntity
  8
LAY-6
  6
CONTINUOUS
 62
     2
100
AcDbText
 10
417.1
 20
82.3
 30
0.0
 40
5.0
  1
２５
 41
0.672
  7
EXCADSTD
 72
     5
 11
424.4328
 21
82.3
 31
0.0
100
AcDbText
  0
LINE
  5
408
100
AcDbEntity
  8
LAY-6
  6
CONTINUOUS
 62
     1
100
AcDbLine
 10
408.6
 20
71.8
 30
0.0
 11
493.6
 21
71.8
 31
0.0
  0
LINE
  5
409
100
AcDbEntity
  8
LAY-6
  6
CONTINUOUS
 62
     1
100
AcDbLine
 10
411.6
 20
72.3
 30
0.0
 11
408.6
 21
71.8
 31
0.0
  0
LINE
  5
40A
100
AcDbEntity
  8
LAY-6
  6
CONTINUOUS
 62
     1
100
AcDbLine
 10
408.6
 20
71.8
 30
0.0
 11
411.6
 21
71.3
 31
0.0
  0
LINE
  5
40B
100
AcDbEntity
  8
LAY-6
  6
CONTINUOUS
 62
     1
100
AcDbLine
 10
490.6
 20
71.3
 30
0.0
 11
493.6
 21
71.8
 31
0.0
  0
LINE
  5
40C
100
AcDbEntity
  8
LAY-6
  6
CONTINUOUS
 62
     1
100
AcDbLine
 10
493.6
 20
71.8
 30
0.0
 11
490.6
 21
72.3
 31
0.0
  0
TEXT
  5
40D
100
AcDbEntity
  8
LAY-6
  6
CONTINUOUS
 62
     2
100
AcDbText
 10
447.1
 20
72.3
 30
0.0
 40
5.0
  1
８５
 41
0.672
  7
EXCADSTD
 72
     5
 11
454.4328
 21
72.3
 31
0.0
100
AcDbText
  0
LINE
  5
40E
100
AcDbEntity
  8
LAY-6
  6
CONTINUOUS
 62
     1
100
AcDbLine
 10
408.6
 20
94.8
 30
0.0
 11
408.6
 21
70.3
 31
0.0
  0
LINE
  5
40F
100
AcDbEntity
  8
LAY-6
  6
CONTINUOUS
 62
     1
100
AcDbLine
 10
493.6
 20
97.8
 30
0.0
 11
493.6
 21
70.3
 31
0.0
  0
LINE
  5
410
100
AcDbEntity
  8
LAY-6
  6
CONTINUOUS
 62
     1
100
AcDbLine
 10
433.6
 20
94.8
 30
0.0
 11
433.6
 21
80.3
 31
0.0
  0
LINE
  5
411
100
AcDbEntity
  8
LAY-6
  6
CONTINUOUS
 62
     1
100
AcDbLine
 10
463.6
 20
100.8
 30
0.0
 11
463.6
 21
80.3
 31
0.0
  0
TEXT
  5
412
100
AcDbEntity
  8
LAY-6
  6
CONTINUOUS
 62
     2
100
AcDbText
 10
444.6
 20
82.3
 30
0.0
 40
5.0
  1
３０
 41
0.672
  7
EXCADSTD
 72
     5
 11
451.9328
 21
82.3
 31
0.0
100
AcDbText
  0
LINE
  5
413
100
AcDbEntity
  8
LAY-6
  6
CONTINUOUS
 62
     1
100
AcDbLine
 10
433.6
 20
81.8
 30
0.0
 11
463.6
 21
81.8
 31
0.0
  0
LINE
  5
414
100
AcDbEntity
  8
LAY-6
  6
CONTINUOUS
 62
     1
100
AcDbLine
 10
436.6
 20
82.3
 30
0.0
 11
433.6
 21
81.8
 31
0.0
  0
LINE
  5
415
100
AcDbEntity
  8
LAY-6
  6
CONTINUOUS
 62
     1
100
AcDbLine
 10
433.6
 20
81.8
 30
0.0
 11
436.6
 21
81.3
 31
0.0
  0
LINE
  5
416
100
AcDbEntity
  8
LAY-6
  6
CONTINUOUS
 62
     1
100
AcDbLine
 10
460.6
 20
81.3
 30
0.0
 11
463.6
 21
81.8
 31
0.0
  0
LINE
  5
417
100
AcDbEntity
  8
LAY-6
  6
CONTINUOUS
 62
     1
100
AcDbLine
 10
463.6
 20
81.8
 30
0.0
 11
460.6
 21
82.3
 31
0.0
  0
LINE
  5
418
100
AcDbEntity
  8
LAY-6
  6
CONTINUOUS
 62
     1
100
AcDbLine
 10
483.6
 20
100.8
 30
0.0
 11
483.6
 21
80.3
 31
0.0
  0
TEXT
  5
419
100
AcDbEntity
  8
LAY-6
  6
CONTINUOUS
 62
     2
100
AcDbText
 10
469.6
 20
82.3
 30
0.0
 40
5.0
  1
２０
 41
0.672
  7
EXCADSTD
 72
     5
 11
476.9328
 21
82.3
 31
0.0
100
AcDbText
  0
LINE
  5
41A
100
AcDbEntity
  8
LAY-6
  6
CONTINUOUS
 62
     1
100
AcDbLine
 10
463.6
 20
81.8
 30
0.0
 11
483.6
 21
81.8
 31
0.0
  0
LINE
  5
41B
100
AcDbEntity
  8
LAY-6
  6
CONTINUOUS
 62
     1
100
AcDbLine
 10
466.6
 20
82.3
 30
0.0
 11
463.6
 21
81.8
 31
0.0
  0
LINE
  5
41C
100
AcDbEntity
  8
LAY-6
  6
CONTINUOUS
 62
     1
100
AcDbLine
 10
463.6
 20
81.8
 30
0.0
 11
466.6
 21
81.3
 31
0.0
  0
LINE
  5
41D
100
AcDbEntity
  8
LAY-6
  6
CONTINUOUS
 62
     1
100
AcDbLine
 10
480.6
 20
81.3
 30
0.0
 11
483.6
 21
81.8
 31
0.0
  0
LINE
  5
41E
100
AcDbEntity
  8
LAY-6
  6
CONTINUOUS
 62
     1
100
AcDbLine
 10
483.6
 20
81.8
 30
0.0
 11
480.6
 21
82.3
 31
0.0
  0
LINE
  5
41F
100
AcDbEntity
  8
LAY-6
  6
CONTINUOUS
 62
     1
100
AcDbLine
 10
403.6
 20
383.79997
 30
0.0
 11
403.6
 21
367.1
 31
0.0
  0
TEXT
  5
420
100
AcDbEntity
  8
LAY-6
  6
CONTINUOUS
 62
     2
100
AcDbText
 10
394.6
 20
369.1
 30
0.0
 40
5.0
  1
１０
 41
0.672
  7
EXCADSTD
 72
     5
 11
401.9328
 21
369.1
 31
0.0
100
AcDbText
  0
LINE
  5
421
100
AcDbEntity
  8
LAY-6
  6
CONTINUOUS
 62
     1
100
AcDbLine
 10
393.6
 20
368.6
 30
0.0
 11
403.6
 21
368.6
 31
0.0
  0
LINE
  5
422
100
AcDbEntity
  8
LAY-6
  6
CONTINUOUS
 62
     1
100
AcDbLine
 10
396.6
 20
369.1
 30
0.0
 11
393.6
 21
368.6
 31
0.0
  0
LINE
  5
423
100
AcDbEntity
  8
LAY-6
  6
CONTINUOUS
 62
     1
100
AcDbLine
 10
393.6
 20
368.6
 30
0.0
 11
396.6
 21
368.1
 31
0.0
  0
LINE
  5
424
100
AcDbEntity
  8
LAY-6
  6
CONTINUOUS
 62
     1
100
AcDbLine
 10
400.6
 20
368.1
 30
0.0
 11
403.6
 21
368.6
 31
0.0
  0
LINE
  5
425
100
AcDbEntity
  8
LAY-6
  6
CONTINUOUS
 62
     1
100
AcDbLine
 10
403.6
 20
368.6
 30
0.0
 11
400.6
 21
369.1
 31
0.0
  0
LINE
  5
426
100
AcDbEntity
  8
LAY-6
  6
CONTINUOUS
 62
     1
100
AcDbLine
 10
393.6
 20
382.8
 30
0.0
 11
393.6
 21
357.7
 31
0.0
  0
LINE
  5
427
100
AcDbEntity
  8
LAY-6
  6
CONTINUOUS
 62
     1
100
AcDbLine
 10
433.6
 20
382.8
 30
0.0
 11
433.6
 21
367.1
 31
0.0
  0
TEXT
  5
428
100
AcDbEntity
  8
LAY-6
  6
CONTINUOUS
 62
     2
100
AcDbText
 10
414.6
 20
369.1
 30
0.0
 40
5.0
  1
３０
 41
0.672
  7
EXCADSTD
 72
     5
 11
421.9328
 21
369.1
 31
0.0
100
AcDbText
  0
LINE
  5
429
100
AcDbEntity
  8
LAY-6
  6
CONTINUOUS
 62
     1
100
AcDbLine
 10
403.6
 20
368.6
 30
0.0
 11
433.6
 21
368.6
 31
0.0
  0
LINE
  5
42A
100
AcDbEntity
  8
LAY-6
  6
CONTINUOUS
 62
     1
100
AcDbLine
 10
406.6
 20
369.1
 30
0.0
 11
403.6
 21
368.6
 31
0.0
  0
LINE
  5
42B
100
AcDbEntity
  8
LAY-6
  6
CONTINUOUS
 62
     1
100
AcDbLine
 10
403.6
 20
368.6
 30
0.0
 11
406.6
 21
368.1
 31
0.0
  0
LINE
  5
42C
100
AcDbEntity
  8
LAY-6
  6
CONTINUOUS
 62
     1
100
AcDbLine
 10
430.6
 20
368.1
 30
0.0
 11
433.6
 21
368.6
 31
0.0
  0
LINE
  5
42D
100
AcDbEntity
  8
LAY-6
  6
CONTINUOUS
 62
     1
100
AcDbLine
 10
433.6
 20
368.6
 30
0.0
 11
430.6
 21
369.1
 31
0.0
  0
LINE
  5
42E
100
AcDbEntity
  8
LAY-6
  6
CONTINUOUS
 62
     1
100
AcDbLine
 10
463.6
 20
393.79997
 30
0.0
 11
463.6
 21
367.1
 31
0.0
  0
TEXT
  5
42F
100
AcDbEntity
  8
LAY-6
  6
CONTINUOUS
 62
     2
100
AcDbText
 10
444.6
 20
369.1
 30
0.0
 40
5.0
  1
３０
 41
0.672
  7
EXCADSTD
 72
     5
 11
451.9328
 21
369.1
 31
0.0
100
AcDbText
  0
LINE
  5
430
100
AcDbEntity
  8
LAY-6
  6
CONTINUOUS
 62
     1
100
AcDbLine
 10
433.6
 20
368.6
 30
0.0
 11
463.6
 21
368.6
 31
0.0
  0
LINE
  5
431
100
AcDbEntity
  8
LAY-6
  6
CONTINUOUS
 62
     1
100
AcDbLine
 10
436.6
 20
369.1
 30
0.0
 11
433.6
 21
368.6
 31
0.0
  0
LINE
  5
432
100
AcDbEntity
  8
LAY-6
  6
CONTINUOUS
 62
     1
100
AcDbLine
 10
433.6
 20
368.6
 30
0.0
 11
436.6
 21
368.1
 31
0.0
  0
LINE
  5
433
100
AcDbEntity
  8
LAY-6
  6
CONTINUOUS
 62
     1
100
AcDbLine
 10
460.6
 20
368.1
 30
0.0
 11
463.6
 21
368.6
 31
0.0
  0
LINE
  5
434
100
AcDbEntity
  8
LAY-6
  6
CONTINUOUS
 62
     1
100
AcDbLine
 10
463.6
 20
368.6
 30
0.0
 11
460.6
 21
369.1
 31
0.0
  0
LINE
  5
435
100
AcDbEntity
  8
LAY-6
  6
CONTINUOUS
 62
     1
100
AcDbLine
 10
555.6
 20
382.8
 30
0.0
 11
555.6
 21
367.1
 31
0.0
  0
TEXT
  5
436
100
AcDbEntity
  8
LAY-6
  6
CONTINUOUS
 62
     2
100
AcDbText
 10
505.6
 20
369.1
 30
0.0
 40
5.0
  1
９２
 41
0.672
  7
EXCADSTD
 72
     5
 11
512.9328
 21
369.1
 31
0.0
100
AcDbText
  0
LINE
  5
437
100
AcDbEntity
  8
LAY-6
  6
CONTINUOUS
 62
     1
100
AcDbLine
 10
463.6
 20
368.6
 30
0.0
 11
555.6
 21
368.6
 31
0.0
  0
LINE
  5
438
100
AcDbEntity
  8
LAY-6
  6
CONTINUOUS
 62
     1
100
AcDbLine
 10
466.6
 20
369.1
 30
0.0
 11
463.6
 21
368.6
 31
0.0
  0
LINE
  5
439
100
AcDbEntity
  8
LAY-6
  6
CONTINUOUS
 62
     1
100
AcDbLine
 10
463.6
 20
368.6
 30
0.0
 11
466.6
 21
368.1
 31
0.0
  0
LINE
  5
43A
100
AcDbEntity
  8
LAY-6
  6
CONTINUOUS
 62
     1
100
AcDbLine
 10
552.6
 20
368.1
 30
0.0
 11
555.6
 21
368.6
 31
0.0
  0
LINE
  5
43B
100
AcDbEntity
  8
LAY-6
  6
CONTINUOUS
 62
     1
100
AcDbLine
 10
555.6
 20
368.6
 30
0.0
 11
552.6
 21
369.1
 31
0.0
  0
TEXT
  5
43C
100
AcDbEntity
  8
LAY-6
  6
CONTINUOUS
 62
     2
100
AcDbText
 10
409.6
 20
361.0
 30
0.0
 40
5.0
  1
４０
 41
0.672
  7
EXCADSTD
 72
     5
 11
416.9328
 21
361.0
 31
0.0
100
AcDbText
  0
LINE
  5
43D
100
AcDbEntity
  8
LAY-6
  6
CONTINUOUS
 62
     1
100
AcDbLine
 10
393.6
 20
360.5
 30
0.0
 11
433.6
 21
360.5
 31
0.0
  0
LINE
  5
43E
100
AcDbEntity
  8
LAY-6
  6
CONTINUOUS
 62
     1
100
AcDbLine
 10
396.6
 20
361.0
 30
0.0
 11
393.6
 21
360.5
 31
0.0
  0
LINE
  5
43F
100
AcDbEntity
  8
LAY-6
  6
CONTINUOUS
 62
     1
100
AcDbLine
 10
393.6
 20
360.5
 30
0.0
 11
396.6
 21
360.0
 31
0.0
  0
LINE
  5
440
100
AcDbEntity
  8
LAY-6
  6
CONTINUOUS
 62
     1
100
AcDbLine
 10
430.6
 20
360.0
 30
0.0
 11
433.6
 21
360.5
 31
0.0
  0
LINE
  5
441
100
AcDbEntity
  8
LAY-6
  6
CONTINUOUS
 62
     1
100
AcDbLine
 10
433.6
 20
360.5
 30
0.0
 11
430.6
 21
361.0
 31
0.0
  0
TEXT
  5
442
100
AcDbEntity
  8
LAY-6
  6
CONTINUOUS
 62
     2
100
AcDbText
 10
495.1
 20
361.0
 30
0.0
 40
5.0
  1
１３５
 41
0.672
  7
EXCADSTD
 72
     5
 11
507.1
 21
361.0
 31
0.0
100
AcDbText
  0
LINE
  5
443
100
AcDbEntity
  8
LAY-6
  6
CONTINUOUS
 62
     1
100
AcDbLine
 10
433.6
 20
382.8
 30
0.0
 11
433.6
 21
359.0
 31
0.0
  0
LINE
  5
444
100
AcDbEntity
  8
LAY-6
  6
CONTINUOUS
 62
     1
100
AcDbLine
 10
568.6
 20
383.8
 30
0.0
 11
568.6
 21
359.0
 31
0.0
  0
LINE
  5
445
100
AcDbEntity
  8
LAY-6
  6
CONTINUOUS
 62
     1
100
AcDbLine
 10
433.6
 20
360.5
 30
0.0
 11
568.6
 21
360.5
 31
0.0
  0
LINE
  5
446
100
AcDbEntity
  8
LAY-6
  6
CONTINUOUS
 62
     1
100
AcDbLine
 10
436.6
 20
361.0
 30
0.0
 11
433.6
 21
360.5
 31
0.0
  0
LINE
  5
447
100
AcDbEntity
  8
LAY-6
  6
CONTINUOUS
 62
     1
100
AcDbLine
 10
433.6
 20
360.5
 30
0.0
 11
436.6
 21
360.0
 31
0.0
  0
LINE
  5
448
100
AcDbEntity
  8
LAY-6
  6
CONTINUOUS
 62
     1
100
AcDbLine
 10
565.6
 20
360.0
 30
0.0
 11
568.6
 21
360.5
 31
0.0
  0
LINE
  5
449
100
AcDbEntity
  8
LAY-6
  6
CONTINUOUS
 62
     1
100
AcDbLine
 10
568.6
 20
360.5
 30
0.0
 11
565.6
 21
361.0
 31
0.0
  0
LINE
  5
44A
100
AcDbEntity
  8
LAY-6
  6
CONTINUOUS
 62
     1
100
AcDbLine
 10
386.1
 20
531.3
 30
0.0
 11
377.3
 21
531.3
 31
0.0
  0
LINE
  5
44B
100
AcDbEntity
  8
LAY-6
  6
CONTINUOUS
 62
     1
100
AcDbLine
 10
386.1
 20
491.3
 30
0.0
 11
377.3
 21
491.3
 31
0.0
  0
TEXT
  5
44C
100
AcDbEntity
  8
LAY-6
  6
CONTINUOUS
 62
     2
100
AcDbText
 10
378.3
 20
507.3
 30
0.0
 40
5.0
  1
４０
 50
90.0
 41
0.672
  7
EXCADSTD
 72
     5
 11
378.3
 21
514.6328
 31
0.0
100
AcDbText
  0
LINE
  5
44D
100
AcDbEntity
  8
LAY-6
  6
CONTINUOUS
 62
     1
100
AcDbLine
 10
378.8
 20
531.3
 30
0.0
 11
378.8
 21
491.3
 31
0.0
  0
LINE
  5
44E
100
AcDbEntity
  8
LAY-6
  6
CONTINUOUS
 62
     1
100
AcDbLine
 10
379.3
 20
528.3
 30
0.0
 11
378.8
 21
531.3
 31
0.0
  0
LINE
  5
44F
100
AcDbEntity
  8
LAY-6
  6
CONTINUOUS
 62
     1
100
AcDbLine
 10
378.8
 20
531.3
 30
0.0
 11
378.3
 21
528.3
 31
0.0
  0
LINE
  5
450
100
AcDbEntity
  8
LAY-6
  6
CONTINUOUS
 62
     1
100
AcDbLine
 10
378.3
 20
494.3
 30
0.0
 11
378.8
 21
491.3
 31
0.0
  0
LINE
  5
451
100
AcDbEntity
  8
LAY-6
  6
CONTINUOUS
 62
     1
100
AcDbLine
 10
378.8
 20
491.3
 30
0.0
 11
379.3
 21
494.3
 31
0.0
  0
TEXT
  5
452
100
AcDbEntity
  8
LAY-6
  6
CONTINUOUS
 62
     2
100
AcDbText
 10
414.6
 20
481.7
 30
0.0
 40
5.0
  1
３０
 41
0.672
  7
EXCADSTD
 72
     5
 11
421.9328
 21
481.7
 31
0.0
100
AcDbText
  0
LINE
  5
453
100
AcDbEntity
  8
LAY-6
  6
CONTINUOUS
 62
     1
100
AcDbLine
 10
403.6
 20
494.80003
 30
0.0
 11
403.6
 21
479.7
 31
0.0
  0
LINE
  5
454
100
AcDbEntity
  8
LAY-6
  6
CONTINUOUS
 62
     1
100
AcDbLine
 10
403.6
 20
481.2
 30
0.0
 11
433.6
 21
481.2
 31
0.0
  0
LINE
  5
455
100
AcDbEntity
  8
LAY-6
  6
CONTINUOUS
 62
     1
100
AcDbLine
 10
406.6
 20
481.7
 30
0.0
 11
403.6
 21
481.2
 31
0.0
  0
LINE
  5
456
100
AcDbEntity
  8
LAY-6
  6
CONTINUOUS
 62
     1
100
AcDbLine
 10
403.6
 20
481.2
 30
0.0
 11
406.6
 21
480.7
 31
0.0
  0
LINE
  5
457
100
AcDbEntity
  8
LAY-6
  6
CONTINUOUS
 62
     1
100
AcDbLine
 10
430.6
 20
480.7
 30
0.0
 11
433.6
 21
481.2
 31
0.0
  0
LINE
  5
458
100
AcDbEntity
  8
LAY-6
  6
CONTINUOUS
 62
     1
100
AcDbLine
 10
433.6
 20
481.2
 30
0.0
 11
430.6
 21
481.7
 31
0.0
  0
LINE
  5
459
100
AcDbEntity
  8
LAY-6
  6
CONTINUOUS
 62
     1
100
AcDbLine
 10
555.6
 20
493.80003
 30
0.0
 11
555.6
 21
479.7
 31
0.0
  0
TEXT
  5
45A
100
AcDbEntity
  8
LAY-6
  6
CONTINUOUS
 62
     2
100
AcDbText
 10
488.6
 20
481.7
 30
0.0
 40
5.0
  1
１２２
 41
0.672
  7
EXCADSTD
 72
     5
 11
500.6
 21
481.7
 31
0.0
100
AcDbText
  0
LINE
  5
45B
100
AcDbEntity
  8
LAY-6
  6
CONTINUOUS
 62
     1
100
AcDbLine
 10
433.6
 20
481.2
 30
0.0
 11
555.6
 21
481.2
 31
0.0
  0
LINE
  5
45C
100
AcDbEntity
  8
LAY-6
  6
CONTINUOUS
 62
     1
100
AcDbLine
 10
436.6
 20
481.7
 30
0.0
 11
433.6
 21
481.2
 31
0.0
  0
LINE
  5
45D
100
AcDbEntity
  8
LAY-6
  6
CONTINUOUS
 62
     1
100
AcDbLine
 10
433.6
 20
481.2
 30
0.0
 11
436.6
 21
480.7
 31
0.0
  0
LINE
  5
45E
100
AcDbEntity
  8
LAY-6
  6
CONTINUOUS
 62
     1
100
AcDbLine
 10
552.6
 20
480.7
 30
0.0
 11
555.6
 21
481.2
 31
0.0
  0
LINE
  5
45F
100
AcDbEntity
  8
LAY-6
  6
CONTINUOUS
 62
     1
100
AcDbLine
 10
555.6
 20
481.2
 30
0.0
 11
552.6
 21
481.7
 31
0.0
  0
TEXT
  5
460
100
AcDbEntity
  8
LAY-6
  6
CONTINUOUS
 62
     2
100
AcDbText
 10
409.6
 20
472.9
 30
0.0
 40
5.0
  1
４０
 41
0.672
  7
EXCADSTD
 72
     5
 11
416.9328
 21
472.9
 31
0.0
100
AcDbText
  0
LINE
  5
461
100
AcDbEntity
  8
LAY-6
  6
CONTINUOUS
 62
     1
100
AcDbLine
 10
393.6
 20
493.8
 30
0.0
 11
393.6
 21
470.9
 31
0.0
  0
LINE
  5
462
100
AcDbEntity
  8
LAY-6
  6
CONTINUOUS
 62
     1
100
AcDbLine
 10
393.6
 20
472.4
 30
0.0
 11
433.6
 21
472.4
 31
0.0
  0
LINE
  5
463
100
AcDbEntity
  8
LAY-6
  6
CONTINUOUS
 62
     1
100
AcDbLine
 10
396.6
 20
472.9
 30
0.0
 11
393.6
 21
472.4
 31
0.0
  0
LINE
  5
464
100
AcDbEntity
  8
LAY-6
  6
CONTINUOUS
 62
     1
100
AcDbLine
 10
393.6
 20
472.4
 30
0.0
 11
396.6
 21
471.9
 31
0.0
  0
LINE
  5
465
100
AcDbEntity
  8
LAY-6
  6
CONTINUOUS
 62
     1
100
AcDbLine
 10
430.6
 20
471.9
 30
0.0
 11
433.6
 21
472.4
 31
0.0
  0
LINE
  5
466
100
AcDbEntity
  8
LAY-6
  6
CONTINUOUS
 62
     1
100
AcDbLine
 10
433.6
 20
472.4
 30
0.0
 11
430.6
 21
472.9
 31
0.0
  0
TEXT
  5
467
100
AcDbEntity
  8
LAY-6
  6
CONTINUOUS
 62
     2
100
AcDbText
 10
495.1
 20
472.9
 30
0.0
 40
5.0
  1
１３５
 41
0.672
  7
EXCADSTD
 72
     5
 11
507.1
 21
472.9
 31
0.0
100
AcDbText
  0
LINE
  5
468
100
AcDbEntity
  8
LAY-6
  6
CONTINUOUS
 62
     1
100
AcDbLine
 10
433.6
 20
492.8
 30
0.0
 11
433.6
 21
470.9
 31
0.0
  0
LINE
  5
469
100
AcDbEntity
  8
LAY-6
  6
CONTINUOUS
 62
     1
100
AcDbLine
 10
568.6
 20
493.8
 30
0.0
 11
568.6
 21
470.9
 31
0.0
  0
LINE
  5
46A
100
AcDbEntity
  8
LAY-6
  6
CONTINUOUS
 62
     1
100
AcDbLine
 10
433.6
 20
472.4
 30
0.0
 11
568.6
 21
472.4
 31
0.0
  0
LINE
  5
46B
100
AcDbEntity
  8
LAY-6
  6
CONTINUOUS
 62
     1
100
AcDbLine
 10
436.6
 20
472.9
 30
0.0
 11
433.6
 21
472.4
 31
0.0
  0
LINE
  5
46C
100
AcDbEntity
  8
LAY-6
  6
CONTINUOUS
 62
     1
100
AcDbLine
 10
433.6
 20
472.4
 30
0.0
 11
436.6
 21
471.9
 31
0.0
  0
LINE
  5
46D
100
AcDbEntity
  8
LAY-6
  6
CONTINUOUS
 62
     1
100
AcDbLine
 10
565.6
 20
471.9
 30
0.0
 11
568.6
 21
472.4
 31
0.0
  0
LINE
  5
46E
100
AcDbEntity
  8
LAY-6
  6
CONTINUOUS
 62
     1
100
AcDbLine
 10
568.6
 20
472.4
 30
0.0
 11
565.6
 21
472.9
 31
0.0
  0
LINE
  5
46F
100
AcDbEntity
  8
LAY-6
  6
CONTINUOUS
 62
     1
100
AcDbLine
 10
55.7
 20
409.7
 30
0.0
 11
55.7
 21
442.0
 31
0.0
  0
LINE
  5
470
100
AcDbEntity
  8
LAY-6
  6
CONTINUOUS
 62
     1
100
AcDbLine
 10
75.7
 20
409.7
 30
0.0
 11
75.7
 21
442.0
 31
0.0
  0
TEXT
  5
471
100
AcDbEntity
  8
LAY-6
  6
CONTINUOUS
 62
     2
100
AcDbText
 10
61.7
 20
441.0
 30
0.0
 40
5.0
  1
２０
 41
0.672
  7
EXCADSTD
 72
     5
 11
69.0328
 21
441.0
 31
0.0
100
AcDbText
  0
LINE
  5
472
100
AcDbEntity
  8
LAY-6
  6
CONTINUOUS
 62
     1
100
AcDbLine
 10
55.7
 20
440.5
 30
0.0
 11
75.7
 21
440.5
 31
0.0
  0
LINE
  5
473
100
AcDbEntity
  8
LAY-6
  6
CONTINUOUS
 62
     1
100
AcDbLine
 10
57.7
 20
440.833333
 30
0.0
 11
55.7
 21
440.5
 31
0.0
  0
LINE
  5
474
100
AcDbEntity
  8
LAY-6
  6
CONTINUOUS
 62
     1
100
AcDbLine
 10
55.7
 20
440.5
 30
0.0
 11
57.7
 21
440.166667
 31
0.0
  0
LINE
  5
475
100
AcDbEntity
  8
LAY-6
  6
CONTINUOUS
 62
     1
100
AcDbLine
 10
73.7
 20
440.166667
 30
0.0
 11
75.7
 21
440.5
 31
0.0
  0
LINE
  5
476
100
AcDbEntity
  8
LAY-6
  6
CONTINUOUS
 62
     1
100
AcDbLine
 10
75.7
 20
440.5
 30
0.0
 11
73.7
 21
440.833333
 31
0.0
  0
LINE
  5
477
100
AcDbEntity
  8
LAY-6
  6
CONTINUOUS
 62
     1
100
AcDbLine
 10
95.7
 20
438.8
 30
0.0
 11
95.7
 21
442.0
 31
0.0
  0
TEXT
  5
478
100
AcDbEntity
  8
LAY-6
  6
CONTINUOUS
 62
     2
100
AcDbText
 10
81.7
 20
441.0
 30
0.0
 40
5.0
  1
２０
 41
0.672
  7
EXCADSTD
 72
     5
 11
89.0328
 21
441.0
 31
0.0
100
AcDbText
  0
LINE
  5
479
100
AcDbEntity
  8
LAY-6
  6
CONTINUOUS
 62
     1
100
AcDbLine
 10
75.7
 20
440.5
 30
0.0
 11
95.7
 21
440.5
 31
0.0
  0
LINE
  5
47A
100
AcDbEntity
  8
LAY-6
  6
CONTINUOUS
 62
     1
100
AcDbLine
 10
77.7
 20
440.833333
 30
0.0
 11
75.7
 21
440.5
 31
0.0
  0
LINE
  5
47B
100
AcDbEntity
  8
LAY-6
  6
CONTINUOUS
 62
     1
100
AcDbLine
 10
75.7
 20
440.5
 30
0.0
 11
77.7
 21
440.166667
 31
0.0
  0
LINE
  5
47C
100
AcDbEntity
  8
LAY-6
  6
CONTINUOUS
 62
     1
100
AcDbLine
 10
93.7
 20
440.166667
 30
0.0
 11
95.7
 21
440.5
 31
0.0
  0
LINE
  5
47D
100
AcDbEntity
  8
LAY-6
  6
CONTINUOUS
 62
     1
100
AcDbLine
 10
95.7
 20
440.5
 30
0.0
 11
93.7
 21
440.833333
 31
0.0
  0
LINE
  5
47E
100
AcDbEntity
  8
LAY-6
  6
CONTINUOUS
 62
     1
100
AcDbLine
 10
211.7
 20
409.7
 30
0.0
 11
211.7
 21
442.0
 31
0.0
  0
TEXT
  5
47F
100
AcDbEntity
  8
LAY-6
  6
CONTINUOUS
 62
     2
100
AcDbText
 10
147.7
 20
441.0
 30
0.0
 40
5.0
  1
１１６
 41
0.672
  7
EXCADSTD
 72
     5
 11
159.7
 21
441.0
 31
0.0
100
AcDbText
  0
LINE
  5
480
100
AcDbEntity
  8
LAY-6
  6
CONTINUOUS
 62
     1
100
AcDbLine
 10
95.7
 20
440.5
 30
0.0
 11
211.7
 21
440.5
 31
0.0
  0
LINE
  5
481
100
AcDbEntity
  8
LAY-6
  6
CONTINUOUS
 62
     1
100
AcDbLine
 10
97.7
 20
440.833333
 30
0.0
 11
95.7
 21
440.5
 31
0.0
  0
LINE
  5
482
100
AcDbEntity
  8
LAY-6
  6
CONTINUOUS
 62
     1
100
AcDbLine
 10
95.7
 20
440.5
 30
0.0
 11
97.7
 21
440.166667
 31
0.0
  0
LINE
  5
483
100
AcDbEntity
  8
LAY-6
  6
CONTINUOUS
 62
     1
100
AcDbLine
 10
209.7
 20
440.166667
 30
0.0
 11
211.7
 21
440.5
 31
0.0
  0
LINE
  5
484
100
AcDbEntity
  8
LAY-6
  6
CONTINUOUS
 62
     1
100
AcDbLine
 10
211.7
 20
440.5
 30
0.0
 11
209.7
 21
440.833333
 31
0.0
  0
LINE
  5
485
100
AcDbEntity
  8
LAY-6
  6
CONTINUOUS
 62
     1
100
AcDbLine
 10
230.7
 20
409.7
 30
0.0
 11
230.7
 21
442.0
 31
0.0
  0
TEXT
  5
486
100
AcDbEntity
  8
LAY-6
  6
CONTINUOUS
 62
     2
100
AcDbText
 10
217.2
 20
441.0
 30
0.0
 40
5.0
  1
１９
 41
0.672
  7
EXCADSTD
 72
     5
 11
224.5328
 21
441.0
 31
0.0
100
AcDbText
  0
LINE
  5
487
100
AcDbEntity
  8
LAY-6
  6
CONTINUOUS
 62
     1
100
AcDbLine
 10
211.7
 20
440.5
 30
0.0
 11
230.7
 21
440.5
 31
0.0
  0
LINE
  5
488
100
AcDbEntity
  8
LAY-6
  6
CONTINUOUS
 62
     1
100
AcDbLine
 10
213.7
 20
440.833333
 30
0.0
 11
211.7
 21
440.5
 31
0.0
  0
LINE
  5
489
100
AcDbEntity
  8
LAY-6
  6
CONTINUOUS
 62
     1
100
AcDbLine
 10
211.7
 20
440.5
 30
0.0
 11
213.7
 21
440.166667
 31
0.0
  0
LINE
  5
48A
100
AcDbEntity
  8
LAY-6
  6
CONTINUOUS
 62
     1
100
AcDbLine
 10
228.7
 20
440.166667
 30
0.0
 11
230.7
 21
440.5
 31
0.0
  0
LINE
  5
48B
100
AcDbEntity
  8
LAY-6
  6
CONTINUOUS
 62
     1
100
AcDbLine
 10
230.7
 20
440.5
 30
0.0
 11
228.7
 21
440.833333
 31
0.0
  0
LINE
  5
48C
100
AcDbEntity
  8
LAY-6
  6
CONTINUOUS
 62
     1
100
AcDbLine
 10
55.7
 20
365.0
 30
0.0
 11
75.7
 21
365.0
 31
0.0
  0
LINE
  5
48D
100
AcDbEntity
  8
LAY-6
  6
CONTINUOUS
 62
     1
100
AcDbLine
 10
57.7
 20
365.333333
 30
0.0
 11
55.7
 21
365.0
 31
0.0
  0
LINE
  5
48E
100
AcDbEntity
  8
LAY-6
  6
CONTINUOUS
 62
     1
100
AcDbLine
 10
55.7
 20
365.0
 30
0.0
 11
57.7
 21
364.666667
 31
0.0
  0
LINE
  5
48F
100
AcDbEntity
  8
LAY-6
  6
CONTINUOUS
 62
     1
100
AcDbLine
 10
73.7
 20
364.666667
 30
0.0
 11
75.7
 21
365.0
 31
0.0
  0
LINE
  5
490
100
AcDbEntity
  8
LAY-6
  6
CONTINUOUS
 62
     1
100
AcDbLine
 10
75.7
 20
365.0
 30
0.0
 11
73.7
 21
365.333333
 31
0.0
  0
TEXT
  5
491
100
AcDbEntity
  8
LAY-6
  6
CONTINUOUS
 62
     2
100
AcDbText
 10
61.7
 20
365.5
 30
0.0
 40
5.0
  1
２０
 41
0.672
  7
EXCADSTD
 72
     5
 11
69.0328
 21
365.5
 31
0.0
100
AcDbText
  0
LINE
  5
492
100
AcDbEntity
  8
LAY-6
  6
CONTINUOUS
 62
     1
100
AcDbLine
 10
55.7
 20
381.9
 30
0.0
 11
55.7
 21
363.5
 31
0.0
  0
LINE
  5
493
100
AcDbEntity
  8
LAY-6
  6
CONTINUOUS
 62
     1
100
AcDbLine
 10
75.7
 20
381.9
 30
0.0
 11
75.7
 21
363.5
 31
0.0
  0
TEXT
  5
494
100
AcDbEntity
  8
LAY-6
  6
CONTINUOUS
 62
     2
100
AcDbText
 10
81.7
 20
365.5
 30
0.0
 40
5.0
  1
２０
 41
0.672
  7
EXCADSTD
 72
     5
 11
89.0328
 21
365.5
 31
0.0
100
AcDbText
  0
LINE
  5
495
100
AcDbEntity
  8
LAY-6
  6
CONTINUOUS
 62
     1
100
AcDbLine
 10
95.7
 20
371.15
 30
0.0
 11
95.7
 21
363.5
 31
0.0
  0
LINE
  5
496
100
AcDbEntity
  8
LAY-6
  6
CONTINUOUS
 62
     1
100
AcDbLine
 10
75.7
 20
365.0
 30
0.0
 11
95.7
 21
365.0
 31
0.0
  0
LINE
  5
497
100
AcDbEntity
  8
LAY-6
  6
CONTINUOUS
 62
     1
100
AcDbLine
 10
77.7
 20
365.333333
 30
0.0
 11
75.7
 21
365.0
 31
0.0
  0
LINE
  5
498
100
AcDbEntity
  8
LAY-6
  6
CONTINUOUS
 62
     1
100
AcDbLine
 10
75.7
 20
365.0
 30
0.0
 11
77.7
 21
364.666667
 31
0.0
  0
LINE
  5
499
100
AcDbEntity
  8
LAY-6
  6
CONTINUOUS
 62
     1
100
AcDbLine
 10
93.7
 20
364.666667
 30
0.0
 11
95.7
 21
365.0
 31
0.0
  0
LINE
  5
49A
100
AcDbEntity
  8
LAY-6
  6
CONTINUOUS
 62
     1
100
AcDbLine
 10
95.7
 20
365.0
 30
0.0
 11
93.7
 21
365.333333
 31
0.0
  0
LINE
  5
49B
100
AcDbEntity
  8
LAY-6
  6
CONTINUOUS
 62
     1
100
AcDbLine
 10
95.7
 20
365.0
 30
0.0
 11
115.7
 21
365.0
 31
0.0
  0
LINE
  5
49C
100
AcDbEntity
  8
LAY-6
  6
CONTINUOUS
 62
     1
100
AcDbLine
 10
97.7
 20
365.333333
 30
0.0
 11
95.7
 21
365.0
 31
0.0
  0
LINE
  5
49D
100
AcDbEntity
  8
LAY-6
  6
CONTINUOUS
 62
     1
100
AcDbLine
 10
95.7
 20
365.0
 30
0.0
 11
97.7
 21
364.666667
 31
0.0
  0
LINE
  5
49E
100
AcDbEntity
  8
LAY-6
  6
CONTINUOUS
 62
     1
100
AcDbLine
 10
113.7
 20
364.666667
 30
0.0
 11
115.7
 21
365.0
 31
0.0
  0
LINE
  5
49F
100
AcDbEntity
  8
LAY-6
  6
CONTINUOUS
 62
     1
100
AcDbLine
 10
115.7
 20
365.0
 30
0.0
 11
113.7
 21
365.333333
 31
0.0
  0
TEXT
  5
4A0
100
AcDbEntity
  8
LAY-6
  6
CONTINUOUS
 62
     2
100
AcDbText
 10
101.7
 20
365.5
 30
0.0
 40
5.0
  1
２０
 41
0.672
  7
EXCADSTD
 72
     5
 11
109.0328
 21
365.5
 31
0.0
100
AcDbText
  0
LINE
  5
4A1
100
AcDbEntity
  8
LAY-6
  6
CONTINUOUS
 62
     1
100
AcDbLine
 10
115.7
 20
381.9
 30
0.0
 11
115.7
 21
363.5
 31
0.0
  0
LINE
  5
4A2
100
AcDbEntity
  8
LAY-6
  6
CONTINUOUS
 62
     1
100
AcDbLine
 10
115.7
 20
365.0
 30
0.0
 11
230.7
 21
365.0
 31
0.0
  0
LINE
  5
4A3
100
AcDbEntity
  8
LAY-6
  6
CONTINUOUS
 62
     1
100
AcDbLine
 10
117.7
 20
365.333333
 30
0.0
 11
115.7
 21
365.0
 31
0.0
  0
LINE
  5
4A4
100
AcDbEntity
  8
LAY-6
  6
CONTINUOUS
 62
     1
100
AcDbLine
 10
115.7
 20
365.0
 30
0.0
 11
117.7
 21
364.666667
 31
0.0
  0
LINE
  5
4A5
100
AcDbEntity
  8
LAY-6
  6
CONTINUOUS
 62
     1
100
AcDbLine
 10
228.7
 20
364.666667
 30
0.0
 11
230.7
 21
365.0
 31
0.0
  0
LINE
  5
4A6
100
AcDbEntity
  8
LAY-6
  6
CONTINUOUS
 62
     1
100
AcDbLine
 10
230.7
 20
365.0
 30
0.0
 11
228.7
 21
365.333333
 31
0.0
  0
TEXT
  5
4A7
100
AcDbEntity
  8
LAY-6
  6
CONTINUOUS
 62
     2
100
AcDbText
 10
167.2
 20
365.5
 30
0.0
 40
5.0
  1
１１５
 41
0.672
  7
EXCADSTD
 72
     5
 11
179.2
 21
365.5
 31
0.0
100
AcDbText
  0
LINE
  5
4A8
100
AcDbEntity
  8
LAY-6
  6
CONTINUOUS
 62
     1
100
AcDbLine
 10
230.7
 20
381.9
 30
0.0
 11
230.7
 21
363.5
 31
0.0
  0
LINE
  5
4A9
100
AcDbEntity
  8
LAY-6
  6
CONTINUOUS
 62
     1
100
AcDbLine
 10
232.2
 20
403.7
 30
0.0
 11
247.9
 21
403.7
 31
0.0
  0
LINE
  5
4AA
100
AcDbEntity
  8
LAY-6
  6
CONTINUOUS
 62
     1
100
AcDbLine
 10
238.2
 20
397.3
 30
0.0
 11
247.9
 21
397.3
 31
0.0
  0
LINE
  5
4AB
100
AcDbEntity
  8
LAY-6
  6
CONTINUOUS
 62
     1
100
AcDbLine
 10
246.4
 20
403.7
 30
0.0
 11
246.4
 21
397.3
 31
0.0
  0
LINE
  5
4AC
100
AcDbEntity
  8
LAY-6
  6
CONTINUOUS
 62
     1
100
AcDbLine
 10
246.733333
 20
401.7
 30
0.0
 11
246.4
 21
403.7
 31
0.0
  0
LINE
  5
4AD
100
AcDbEntity
  8
LAY-6
  6
CONTINUOUS
 62
     1
100
AcDbLine
 10
246.4
 20
403.7
 30
0.0
 11
246.066667
 21
401.7
 31
0.0
  0
LINE
  5
4AE
100
AcDbEntity
  8
LAY-6
  6
CONTINUOUS
 62
     1
100
AcDbLine
 10
246.066667
 20
399.3
 30
0.0
 11
246.4
 21
397.3
 31
0.0
  0
LINE
  5
4AF
100
AcDbEntity
  8
LAY-6
  6
CONTINUOUS
 62
     1
100
AcDbLine
 10
246.4
 20
397.3
 30
0.0
 11
246.733333
 21
399.3
 31
0.0
  0
TEXT
  5
4B0
100
AcDbEntity
  8
LAY-6
  6
CONTINUOUS
 62
     2
100
AcDbText
 10
253.0
 20
397.8
 30
0.0
 40
5.0
  1
６.４
 50
90.0
 41
0.595556
  7
EXCADSTD
 72
     5
 11
253.0
 21
407.8
 31
0.0
100
AcDbText
  0
LINE
  5
4B1
100
AcDbEntity
  8
LAY-6
  6
CONTINUOUS
 62
     1
100
AcDbLine
 10
232.2
 20
394.3
 30
0.0
 11
248.0
 21
394.3
 31
0.0
  0
LINE
  5
4B2
100
AcDbEntity
  8
LAY-6
  6
CONTINUOUS
 62
     1
100
AcDbLine
 10
232.2
 20
387.9
 30
0.0
 11
248.0
 21
387.9
 31
0.0
  0
LINE
  5
4B3
100
AcDbEntity
  8
LAY-6
  6
CONTINUOUS
 62
     1
100
AcDbLine
 10
246.5
 20
394.3
 30
0.0
 11
246.5
 21
387.9
 31
0.0
  0
LINE
  5
4B4
100
AcDbEntity
  8
LAY-6
  6
CONTINUOUS
 62
     1
100
AcDbLine
 10
246.833333
 20
392.3
 30
0.0
 11
246.5
 21
394.3
 31
0.0
  0
LINE
  5
4B5
100
AcDbEntity
  8
LAY-6
  6
CONTINUOUS
 62
     1
100
AcDbLine
 10
246.5
 20
394.3
 30
0.0
 11
246.166667
 21
392.3
 31
0.0
  0
LINE
  5
4B6
100
AcDbEntity
  8
LAY-6
  6
CONTINUOUS
 62
     1
100
AcDbLine
 10
246.166667
 20
389.9
 30
0.0
 11
246.5
 21
387.9
 31
0.0
  0
LINE
  5
4B7
100
AcDbEntity
  8
LAY-6
  6
CONTINUOUS
 62
     1
100
AcDbLine
 10
246.5
 20
387.9
 30
0.0
 11
246.833333
 21
389.9
 31
0.0
  0
TEXT
  5
4B8
100
AcDbEntity
  8
LAY-6
  6
CONTINUOUS
 62
     2
100
AcDbText
 10
252.9
 20
382.6
 30
0.0
 40
5.0
  1
６.４
 50
90.0
 41
0.595556
  7
EXCADSTD
 72
     5
 11
252.9
 21
392.6
 31
0.0
100
AcDbText
  0
TEXT
  5
4B9
100
AcDbEntity
  8
LAY-6
  6
CONTINUOUS
 62
     2
100
AcDbText
 10
219.95
 20
358.3
 30
0.0
 40
5.0
  1
裏板４．５ｔ以上（別途）
 41
0.672
  7
EXCADSTD
 72
     5
 11
267.95
 21
358.3
 31
0.0
100
AcDbText
  0
POLYLINE
  5
4BA
100
AcDbEntity
  8
LAY-6
  6
CONTINUOUS
 62
     1
100
AcDb2dPolyline
 66
     1
 10
0.0
 20
0.0
 30
0.0
 70
   128
  0
VERTEX
  5
4BB
100
AcDbEntity
  8
LAY-6
  6
CONTINUOUS
 62
     1
100
AcDbVertex
100
AcDb2dVertex
 10
203.8
 20
383.4
 30
0.0
  0
VERTEX
  5
4BC
100
AcDbEntity
  8
LAY-6
  6
CONTINUOUS
 62
     1
100
AcDbVertex
100
AcDb2dVertex
 10
219.1
 20
357.6
 30
0.0
  0
VERTEX
  5
4BD
100
AcDbEntity
  8
LAY-6
  6
CONTINUOUS
 62
     1
100
AcDbVertex
100
AcDb2dVertex
 10
266.7
 20
357.6
 30
0.0
  0
SEQEND
  5
4BE
100
AcDbEntity
  8
LAY-6
  6
CONTINUOUS
 62
     1
  0
LINE
  5
4BF
100
AcDbEntity
  8
LAY-6
  6
CONTINUOUS
 62
     1
100
AcDbLine
 10
205.760294
 20
381.074651
 30
0.0
 11
203.8
 21
383.4
 31
0.0
  0
LINE
  5
4C0
100
AcDbEntity
  8
LAY-6
  6
CONTINUOUS
 62
     1
100
AcDbLine
 10
203.8
 20
383.4
 30
0.0
 11
204.900165
 21
380.564575
 31
0.0
  0
POLYLINE
  5
4C1
100
AcDbEntity
  8
LAY-6
  6
CONTINUOUS
 62
     1
100
AcDb2dPolyline
 66
     1
 10
0.0
 20
0.0
 30
0.0
 70
   128
  0
VERTEX
  5
4C2
100
AcDbEntity
  8
LAY-6
  6
CONTINUOUS
 62
     1
100
AcDbVertex
100
AcDb2dVertex
 10
217.7
 20
377.8
 30
0.0
  0
VERTEX
  5
4C3
100
AcDbEntity
  8
LAY-6
  6
CONTINUOUS
 62
     1
100
AcDbVertex
100
AcDb2dVertex
 10
235.5
 20
368.8
 30
0.0
  0
VERTEX
  5
4C4
100
AcDbEntity
  8
LAY-6
  6
CONTINUOUS
 62
     1
100
AcDbVertex
100
AcDb2dVertex
 10
279.9
 20
368.8
 30
0.0
  0
SEQEND
  5
4C5
100
AcDbEntity
  8
LAY-6
  6
CONTINUOUS
 62
     1
  0
LINE
  5
4C6
100
AcDbEntity
  8
LAY-6
  6
CONTINUOUS
 62
     1
100
AcDbLine
 10
220.602848
 20
376.892547
 30
0.0
 11
217.7
 21
377.8
 31
0.0
  0
LINE
  5
4C7
100
AcDbEntity
  8
LAY-6
  6
CONTINUOUS
 62
     1
100
AcDbLine
 10
217.7
 20
377.8
 30
0.0
 11
220.151628
 21
376.000134
 31
0.0
  0
POLYLINE
  5
4C8
100
AcDbEntity
  8
LAY-6
  6
CONTINUOUS
 62
     1
100
AcDb2dPolyline
 66
     1
 10
0.0
 20
0.0
 30
0.0
 70
   128
  0
VERTEX
  5
4C9
100
AcDbEntity
  8
LAY-6
  6
CONTINUOUS
 62
     1
100
AcDbVertex
100
AcDb2dVertex
 10
229.2
 20
405.5
 30
0.0
  0
VERTEX
  5
4CA
100
AcDbEntity
  8
LAY-6
  6
CONTINUOUS
 62
     1
100
AcDbVertex
100
AcDb2dVertex
 10
240.9
 20
415.0
 30
0.0
  0
VERTEX
  5
4CB
100
AcDbEntity
  8
LAY-6
  6
CONTINUOUS
 62
     1
100
AcDbVertex
100
AcDb2dVertex
 10
290.2
 20
415.0
 30
0.0
  0
SEQEND
  5
4CC
100
AcDbEntity
  8
LAY-6
  6
CONTINUOUS
 62
     1
  0
LINE
  5
4CD
100
AcDbEntity
  8
LAY-6
  6
CONTINUOUS
 62
     1
100
AcDbLine
 10
231.213779
 20
407.779187
 30
0.0
 11
229.2
 21
405.5
 31
0.0
  0
LINE
  5
4CE
100
AcDbEntity
  8
LAY-6
  6
CONTINUOUS
 62
     1
100
AcDbLine
 10
229.2
 20
405.5
 30
0.0
 11
231.844122
 21
407.00287
 31
0.0
  0
POLYLINE
  5
4CF
100
AcDbEntity
  8
LAY-6
  6
CONTINUOUS
 62
     1
100
AcDb2dPolyline
 66
     1
 10
0.0
 20
0.0
 30
0.0
 70
   128
  0
VERTEX
  5
4D0
100
AcDbEntity
  8
LAY-6
  6
CONTINUOUS
 62
     1
100
AcDbVertex
100
AcDb2dVertex
 10
217.69997
 20
413.8
 30
0.0
  0
VERTEX
  5
4D1
100
AcDbEntity
  8
LAY-6
  6
CONTINUOUS
 62
     1
100
AcDbVertex
100
AcDb2dVertex
 10
235.5
 20
427.9
 30
0.0
  0
VERTEX
  5
4D2
100
AcDbEntity
  8
LAY-6
  6
CONTINUOUS
 62
     1
100
AcDbVertex
100
AcDb2dVertex
 10
281.2
 20
427.9
 30
0.0
  0
SEQEND
  5
4D3
100
AcDbEntity
  8
LAY-6
  6
CONTINUOUS
 62
     1
  0
LINE
  5
4D4
100
AcDbEntity
  8
LAY-6
  6
CONTINUOUS
 62
     1
100
AcDbLine
 10
219.741109
 20
416.054717
 30
0.0
 11
217.69997
 21
413.8
 31
0.0
  0
LINE
  5
4D5
100
AcDbEntity
  8
LAY-6
  6
CONTINUOUS
 62
     1
100
AcDbLine
 10
217.69997
 20
413.8
 30
0.0
 11
220.362037
 21
415.27085
 31
0.0
  0
POLYLINE
  5
4D6
100
AcDbEntity
  8
LAY-6
  6
CONTINUOUS
 62
     1
100
AcDb2dPolyline
 66
     1
 10
0.0
 20
0.0
 30
0.0
 70
   128
  0
VERTEX
  5
4D7
100
AcDbEntity
  8
LAY-6
  6
CONTINUOUS
 62
     1
100
AcDbVertex
100
AcDb2dVertex
 10
741.724265
 20
271.759675
 30
0.0
  0
VERTEX
  5
4D8
100
AcDbEntity
  8
LAY-6
  6
CONTINUOUS
 62
     1
100
AcDbVertex
100
AcDb2dVertex
 10
754.2
 20
292.8
 30
0.0
  0
VERTEX
  5
4D9
100
AcDbEntity
  8
LAY-6
  6
CONTINUOUS
 62
     1
100
AcDbVertex
100
AcDb2dVertex
 10
800.6
 20
292.8
 30
0.0
  0
SEQEND
  5
4DA
100
AcDbEntity
  8
LAY-6
  6
CONTINUOUS
 62
     1
  0
LINE
  5
4DB
100
AcDbEntity
  8
LAY-6
  6
CONTINUOUS
 62
     1
100
AcDbLine
 10
742.824263
 20
274.595165
 30
0.0
 11
741.724265
 21
271.759675
 31
0.0
  0
LINE
  5
4DC
100
AcDbEntity
  8
LAY-6
  6
CONTINUOUS
 62
     1
100
AcDbLine
 10
741.724265
 20
271.759675
 30
0.0
 11
743.684422
 21
274.085138
 31
0.0
  0
INSERT
  5
4DD
100
AcDbEntity
  8
LAY-6
  6
CONTINUOUS
 62
     0
100
AcDbBlockReference
  2
SYM-1
 10
528.0
 20
113.4
 30
0.0
 50
90.0
  0
INSERT
  5
4DE
100
AcDbEntity
  8
LAY-6
  6
CONTINUOUS
 62
     0
100
AcDbBlockReference
  2
SYM-1
 10
445.97
 20
162.69
 30
0.0
  0
CIRCLE
  5
4DF
100
AcDbEntity
  8
LAY-6
  6
CONTINUOUS
 62
     2
100
AcDbCircle
 10
679.5
 20
365.1
 30
0.0
 40
5.0
  0
TEXT
  5
4E0
100
AcDbEntity
  8
LAY-6
  6
CONTINUOUS
 62
     2
100
AcDbText
 10
677.6
 20
362.5
 30
0.0
 40
5.0
  1
２
 41
0.672
  7
EXCADSTD
 72
     5
 11
680.8
 21
362.5
 31
0.0
100
AcDbText
  0
TEXT
  5
4E1
100
AcDbEntity
  8
LAY-6
  6
CONTINUOUS
 62
     2
100
AcDbText
 10
146.9
 20
171.4
 30
0.0
 40
5.0
  1
６－Ｍ６×２５皿小ネジ
 41
0.672
  7
EXCADSTD
 72
     5
 11
190.9
 21
171.4
 31
0.0
100
AcDbText
  0
TEXT
  5
4E2
100
AcDbEntity
  8
LAY-6
  6
CONTINUOUS
 62
     2
100
AcDbText
 10
204.95
 20
171.2
 30
0.0
 40
5.0
  1
裏板４．５ｔ以上（別途）
 41
0.672
  7
EXCADSTD
 72
     5
 11
252.95
 21
171.2
 31
0.0
100
AcDbText
  0
POLYLINE
  5
4E3
100
AcDbEntity
  8
LAY-6
  6
CONTINUOUS
 62
     1
100
AcDb2dPolyline
 66
     1
 10
0.0
 20
0.0
 30
0.0
 70
   128
  0
VERTEX
  5
4E4
100
AcDbEntity
  8
LAY-6
  6
CONTINUOUS
 62
     1
100
AcDbVertex
100
AcDb2dVertex
 10
135.7
 20
160.8
 30
0.0
  0
VERTEX
  5
4E5
100
AcDbEntity
  8
LAY-6
  6
CONTINUOUS
 62
     1
100
AcDbVertex
100
AcDb2dVertex
 10
145.4
 20
171.2
 30
0.0
  0
VERTEX
  5
4E6
100
AcDbEntity
  8
LAY-6
  6
CONTINUOUS
 62
     1
100
AcDbVertex
100
AcDb2dVertex
 10
191.2
 20
171.2
 30
0.0
  0
SEQEND
  5
4E7
100
AcDbEntity
  8
LAY-6
  6
CONTINUOUS
 62
     1
  0
LINE
  5
4E8
100
AcDbEntity
  8
LAY-6
  6
CONTINUOUS
 62
     1
100
AcDbLine
 10
137.380559
 20
163.334901
 30
0.0
 11
135.7
 21
160.8
 31
0.0
  0
LINE
  5
4E9
100
AcDbEntity
  8
LAY-6
  6
CONTINUOUS
 62
     1
100
AcDbLine
 10
135.7
 20
160.8
 30
0.0
 11
138.111848
 21
162.652833
 31
0.0
  0
TEXT
  5
4EA
100
AcDbEntity
  8
LAY-6
  6
CONTINUOUS
 62
     2
100
AcDbText
 10
213.0
 20
125.8
 30
0.0
 40
5.0
  1
１１
 50
90.0
 41
0.672
  7
EXCADSTD
 72
     5
 11
213.0
 21
133.1328
 31
0.0
100
AcDbText
  0
LINE
  5
4EB
100
AcDbEntity
  8
LAY-6
  6
CONTINUOUS
 62
     1
100
AcDbLine
 10
213.5
 20
124.3
 30
0.0
 11
213.5
 21
135.3
 31
0.0
  0
LINE
  5
4EC
100
AcDbEntity
  8
LAY-6
  6
CONTINUOUS
 62
     1
100
AcDbLine
 10
213.166667
 20
126.3
 30
0.0
 11
213.5
 21
124.3
 31
0.0
  0
LINE
  5
4ED
100
AcDbEntity
  8
LAY-6
  6
CONTINUOUS
 62
     1
100
AcDbLine
 10
213.5
 20
124.3
 30
0.0
 11
213.833333
 21
126.3
 31
0.0
  0
LINE
  5
4EE
100
AcDbEntity
  8
LAY-6
  6
CONTINUOUS
 62
     1
100
AcDbLine
 10
213.833333
 20
133.3
 30
0.0
 11
213.5
 21
135.3
 31
0.0
  0
LINE
  5
4EF
100
AcDbEntity
  8
LAY-6
  6
CONTINUOUS
 62
     1
100
AcDbLine
 10
213.5
 20
135.3
 30
0.0
 11
213.166667
 21
133.3
 31
0.0
  0
LINE
  5
4F0
100
AcDbEntity
  8
LAY-6
  6
CONTINUOUS
 62
     1
100
AcDbLine
 10
213.3
 20
135.3
 30
0.0
 11
215.0
 21
135.3
 31
0.0
  0
TEXT
  5
4F1
100
AcDbEntity
  8
LAY-6
  6
CONTINUOUS
 62
     2
100
AcDbText
 10
213.0
 20
138.8
 30
0.0
 40
5.0
  1
１５
 50
90.0
 41
0.672
  7
EXCADSTD
 72
     5
 11
213.0
 21
146.1328
 31
0.0
100
AcDbText
  0
LINE
  5
4F2
100
AcDbEntity
  8
LAY-6
  6
CONTINUOUS
 62
     1
100
AcDbLine
 10
213.5
 20
135.3
 30
0.0
 11
213.5
 21
150.3
 31
0.0
  0
LINE
  5
4F3
100
AcDbEntity
  8
LAY-6
  6
CONTINUOUS
 62
     1
100
AcDbLine
 10
213.166667
 20
137.3
 30
0.0
 11
213.5
 21
135.3
 31
0.0
  0
LINE
  5
4F4
100
AcDbEntity
  8
LAY-6
  6
CONTINUOUS
 62
     1
100
AcDbLine
 10
213.5
 20
135.3
 30
0.0
 11
213.833333
 21
137.3
 31
0.0
  0
LINE
  5
4F5
100
AcDbEntity
  8
LAY-6
  6
CONTINUOUS
 62
     1
100
AcDbLine
 10
213.833333
 20
148.3
 30
0.0
 11
213.5
 21
150.3
 31
0.0
  0
LINE
  5
4F6
100
AcDbEntity
  8
LAY-6
  6
CONTINUOUS
 62
     1
100
AcDbLine
 10
213.5
 20
150.3
 30
0.0
 11
213.166667
 21
148.3
 31
0.0
  0
LINE
  5
4F7
100
AcDbEntity
  8
LAY-6
  6
CONTINUOUS
 62
     1
100
AcDbLine
 10
213.6
 20
124.3
 30
0.0
 11
223.3
 21
124.3
 31
0.0
  0
LINE
  5
4F8
100
AcDbEntity
  8
LAY-6
  6
CONTINUOUS
 62
     1
100
AcDbLine
 10
213.6
 20
150.3
 30
0.0
 11
223.3
 21
150.3
 31
0.0
  0
LINE
  5
4F9
100
AcDbEntity
  8
LAY-6
  6
CONTINUOUS
 62
     1
100
AcDbLine
 10
221.8
 20
124.3
 30
0.0
 11
221.8
 21
150.3
 31
0.0
  0
LINE
  5
4FA
100
AcDbEntity
  8
LAY-6
  6
CONTINUOUS
 62
     1
100
AcDbLine
 10
221.466667
 20
126.3
 30
0.0
 11
221.8
 21
124.3
 31
0.0
  0
LINE
  5
4FB
100
AcDbEntity
  8
LAY-6
  6
CONTINUOUS
 62
     1
100
AcDbLine
 10
221.8
 20
124.3
 30
0.0
 11
222.133333
 21
126.3
 31
0.0
  0
LINE
  5
4FC
100
AcDbEntity
  8
LAY-6
  6
CONTINUOUS
 62
     1
100
AcDbLine
 10
222.133333
 20
148.3
 30
0.0
 11
221.8
 21
150.3
 31
0.0
  0
LINE
  5
4FD
100
AcDbEntity
  8
LAY-6
  6
CONTINUOUS
 62
     1
100
AcDbLine
 10
221.8
 20
150.3
 30
0.0
 11
221.466667
 21
148.3
 31
0.0
  0
TEXT
  5
4FE
100
AcDbEntity
  8
LAY-6
  6
CONTINUOUS
 62
     2
100
AcDbText
 10
221.3
 20
135.3
 30
0.0
 40
5.0
  1
２６
 50
90.0
 41
0.672
  7
EXCADSTD
 72
     5
 11
221.3
 21
142.6328
 31
0.0
100
AcDbText
  0
TEXT
  5
4FF
100
AcDbEntity
  8
LAY-6
  6
CONTINUOUS
 62
     2
100
AcDbText
 10
221.3
 20
119.3
 30
0.0
 40
5.0
  1
６
 50
90.0
 41
0.672
  7
EXCADSTD
 72
     5
 11
221.3
 21
122.5
 31
0.0
100
AcDbText
  0
LINE
  5
500
100
AcDbEntity
  8
LAY-6
  6
CONTINUOUS
 62
     1
100
AcDbLine
 10
221.8
 20
124.3
 30
0.0
 11
221.8
 21
118.3
 31
0.0
  0
LINE
  5
501
100
AcDbEntity
  8
LAY-6
  6
CONTINUOUS
 62
     1
100
AcDbLine
 10
222.133333
 20
122.3
 30
0.0
 11
221.8
 21
124.3
 31
0.0
  0
LINE
  5
502
100
AcDbEntity
  8
LAY-6
  6
CONTINUOUS
 62
     1
100
AcDbLine
 10
221.8
 20
124.3
 30
0.0
 11
221.466667
 21
122.3
 31
0.0
  0
LINE
  5
503
100
AcDbEntity
  8
LAY-6
  6
CONTINUOUS
 62
     1
100
AcDbLine
 10
221.466667
 20
120.3
 30
0.0
 11
221.8
 21
118.3
 31
0.0
  0
LINE
  5
504
100
AcDbEntity
  8
LAY-6
  6
CONTINUOUS
 62
     1
100
AcDbLine
 10
221.8
 20
118.3
 30
0.0
 11
222.133333
 21
120.3
 31
0.0
  0
LINE
  5
505
100
AcDbEntity
  8
LAY-6
  6
CONTINUOUS
 62
     1
100
AcDbLine
 10
221.8
 20
118.3
 30
0.0
 11
221.8
 21
88.3
 31
0.0
  0
LINE
  5
506
100
AcDbEntity
  8
LAY-6
  6
CONTINUOUS
 62
     1
100
AcDbLine
 10
222.133333
 20
116.3
 30
0.0
 11
221.8
 21
118.3
 31
0.0
  0
LINE
  5
507
100
AcDbEntity
  8
LAY-6
  6
CONTINUOUS
 62
     1
100
AcDbLine
 10
221.8
 20
118.3
 30
0.0
 11
221.466667
 21
116.3
 31
0.0
  0
LINE
  5
508
100
AcDbEntity
  8
LAY-6
  6
CONTINUOUS
 62
     1
100
AcDbLine
 10
221.466667
 20
90.3
 30
0.0
 11
221.8
 21
88.3
 31
0.0
  0
LINE
  5
509
100
AcDbEntity
  8
LAY-6
  6
CONTINUOUS
 62
     1
100
AcDbLine
 10
221.8
 20
88.3
 30
0.0
 11
222.133333
 21
90.3
 31
0.0
  0
TEXT
  5
50A
100
AcDbEntity
  8
LAY-6
  6
CONTINUOUS
 62
     2
100
AcDbText
 10
221.3
 20
99.3
 30
0.0
 40
5.0
  1
３０
 50
90.0
 41
0.672
  7
EXCADSTD
 72
     5
 11
221.3
 21
106.6328
 31
0.0
100
AcDbText
  0
TEXT
  5
50B
100
AcDbEntity
  8
LAY-6
  6
CONTINUOUS
 62
     2
100
AcDbText
 10
175.05
 20
67.6
 30
0.0
 40
5.0
  1
裏板４．５ｔ以上（別途）
 41
0.672
  7
EXCADSTD
 72
     5
 11
223.05
 21
67.6
 31
0.0
100
AcDbText
  0
INSERT
  5
50C
100
AcDbEntity
  8
LAY-6
  6
CONTINUOUS
 62
     0
100
AcDbBlockReference
  2
SYM-2
 10
342.0
 20
299.0
 30
0.0
  0
INSERT
  5
50D
100
AcDbEntity
  8
LAY-6
  6
CONTINUOUS
 62
     0
100
AcDbBlockReference
  2
SYM-3
 10
342.0
 20
434.9
 30
0.0
  0
INSERT
  5
50E
100
AcDbEntity
  8
LAY-6
  6
CONTINUOUS
 62
     0
100
AcDbBlockReference
  2
SYM-4
 10
342.4
 20
167.2
 30
0.0
  0
LINE
  5
50F
100
AcDbEntity
  8
LAY-6
  6
CONTINUOUS
 62
     1
100
AcDbLine
 10
746.09
 20
397.3
 30
0.0
 11
752.2
 21
397.3
 31
0.0
  0
LINE
  5
510
100
AcDbEntity
  8
LAY-6
  6
CONTINUOUS
 62
     1
100
AcDbLine
 10
711.7
 20
438.8
 30
0.0
 11
711.7
 21
445.2
 31
0.0
  0
LINE
  5
511
100
AcDbEntity
  8
LAY-6
  6
CONTINUOUS
 62
     1
100
AcDbLine
 10
739.7
 20
438.8
 30
0.0
 11
739.7
 21
445.2
 31
0.0
  0
TEXT
  5
512
100
AcDbEntity
  8
LAY-6
  6
CONTINUOUS
 62
     2
100
AcDbText
 10
719.7
 20
444.2
 30
0.0
 40
5.0
  1
φ
 41
0.672
  7
EXCADSTD
 72
     5
 11
722.9
 21
444.2
 31
0.0
100
AcDbText
  0
TEXT
  5
513
100
AcDbEntity
  8
LAY-6
  6
CONTINUOUS
 62
     2
100
AcDbText
 10
723.7
 20
444.2
 30
0.0
 40
5.0
  1
２８
 41
0.672
  7
EXCADSTD
 72
     5
 11
731.0328
 21
444.2
 31
0.0
100
AcDbText
  0
LINE
  5
514
100
AcDbEntity
  8
LAY-6
  6
CONTINUOUS
 62
     1
100
AcDbLine
 10
711.7
 20
443.7
 30
0.0
 11
739.7
 21
443.7
 31
0.0
  0
LINE
  5
515
100
AcDbEntity
  8
LAY-6
  6
CONTINUOUS
 62
     1
100
AcDbLine
 10
713.7
 20
444.033333
 30
0.0
 11
711.7
 21
443.7
 31
0.0
  0
LINE
  5
516
100
AcDbEntity
  8
LAY-6
  6
CONTINUOUS
 62
     1
100
AcDbLine
 10
711.7
 20
443.7
 30
0.0
 11
713.7
 21
443.366667
 31
0.0
  0
LINE
  5
517
100
AcDbEntity
  8
LAY-6
  6
CONTINUOUS
 62
     1
100
AcDbLine
 10
737.7
 20
443.366667
 30
0.0
 11
739.7
 21
443.7
 31
0.0
  0
LINE
  5
518
100
AcDbEntity
  8
LAY-6
  6
CONTINUOUS
 62
     1
100
AcDbLine
 10
739.7
 20
443.7
 30
0.0
 11
737.7
 21
444.033333
 31
0.0
  0
LINE
  5
519
100
AcDbEntity
  8
LAY-6
  6
CONTINUOUS
 62
     1
100
AcDbLine
 10
741.2
 20
437.3
 30
0.0
 11
759.4
 21
437.3
 31
0.0
  0
LINE
  5
51A
100
AcDbEntity
  8
LAY-6
  6
CONTINUOUS
 62
     1
100
AcDbLine
 10
747.2
 20
397.3
 30
0.0
 11
759.4
 21
397.3
 31
0.0
  0
TEXT
  5
51B
100
AcDbEntity
  8
LAY-6
  6
CONTINUOUS
 62
     2
100
AcDbText
 10
757.4
 20
413.3
 30
0.0
 40
5.0
  1
４０
 50
90.0
 41
0.672
  7
EXCADSTD
 72
     5
 11
757.4
 21
420.6328
 31
0.0
100
AcDbText
  0
LINE
  5
51C
100
AcDbEntity
  8
LAY-6
  6
CONTINUOUS
 62
     1
100
AcDbLine
 10
757.9
 20
437.3
 30
0.0
 11
757.9
 21
397.3
 31
0.0
  0
LINE
  5
51D
100
AcDbEntity
  8
LAY-6
  6
CONTINUOUS
 62
     1
100
AcDbLine
 10
758.233333
 20
435.3
 30
0.0
 11
757.9
 21
437.3
 31
0.0
  0
LINE
  5
51E
100
AcDbEntity
  8
LAY-6
  6
CONTINUOUS
 62
     1
100
AcDbLine
 10
757.9
 20
437.3
 30
0.0
 11
757.566667
 21
435.3
 31
0.0
  0
LINE
  5
51F
100
AcDbEntity
  8
LAY-6
  6
CONTINUOUS
 62
     1
100
AcDbLine
 10
757.566667
 20
399.3
 30
0.0
 11
757.9
 21
397.3
 31
0.0
  0
LINE
  5
520
100
AcDbEntity
  8
LAY-6
  6
CONTINUOUS
 62
     1
100
AcDbLine
 10
757.9
 20
397.3
 30
0.0
 11
758.233333
 21
399.3
 31
0.0
  0
LINE
  5
521
100
AcDbEntity
  8
LAY-6
  6
CONTINUOUS
 62
     1
100
AcDbLine
 10
708.7
 20
386.4
 30
0.0
 11
708.7
 21
361.4
 31
0.0
  0
TEXT
  5
522
100
AcDbEntity
  8
LAY-6
  6
CONTINUOUS
 62
     2
100
AcDbText
 10
721.7
 20
363.4
 30
0.0
 40
5.0
  1
３４
 41
0.672
  7
EXCADSTD
 72
     5
 11
729.0328
 21
363.4
 31
0.0
100
AcDbText
  0
LINE
  5
523
100
AcDbEntity
  8
LAY-6
  6
CONTINUOUS
 62
     1
100
AcDbLine
 10
742.7
 20
386.4
 30
0.0
 11
742.7
 21
361.4
 31
0.0
  0
LINE
  5
524
100
AcDbEntity
  8
LAY-6
  6
CONTINUOUS
 62
     1
100
AcDbLine
 10
708.7
 20
362.9
 30
0.0
 11
742.7
 21
362.9
 31
0.0
  0
LINE
  5
525
100
AcDbEntity
  8
LAY-6
  6
CONTINUOUS
 62
     1
100
AcDbLine
 10
710.7
 20
363.233333
 30
0.0
 11
708.7
 21
362.9
 31
0.0
  0
LINE
  5
526
100
AcDbEntity
  8
LAY-6
  6
CONTINUOUS
 62
     1
100
AcDbLine
 10
708.7
 20
362.9
 30
0.0
 11
710.7
 21
362.566667
 31
0.0
  0
LINE
  5
527
100
AcDbEntity
  8
LAY-6
  6
CONTINUOUS
 62
     1
100
AcDbLine
 10
740.7
 20
362.566667
 30
0.0
 11
742.7
 21
362.9
 31
0.0
  0
LINE
  5
528
100
AcDbEntity
  8
LAY-6
  6
CONTINUOUS
 62
     1
100
AcDbLine
 10
742.7
 20
362.9
 30
0.0
 11
740.7
 21
363.233333
 31
0.0
  0
CIRCLE
  5
529
100
AcDbEntity
  8
LAY-6
  6
CONTINUOUS
 62
     2
100
AcDbCircle
 10
679.2
 20
443.3
 30
0.0
 40
5.0
  0
TEXT
  5
52A
100
AcDbEntity
  8
LAY-6
  6
CONTINUOUS
 62
     2
100
AcDbText
 10
677.41
 20
440.61
 30
0.0
 40
5.0
  1
１
 41
0.672
  7
EXCADSTD
 72
     5
 11
680.61
 21
440.61
 31
0.0
100
AcDbText
  0
POLYLINE
  5
52B
100
AcDbEntity
  8
LAY-6
  6
CONTINUOUS
 62
     1
100
AcDb2dPolyline
 66
     1
 10
0.0
 20
0.0
 30
0.0
 70
   128
  0
VERTEX
  5
52C
100
AcDbEntity
  8
LAY-6
  6
CONTINUOUS
 62
     1
100
AcDbVertex
100
AcDb2dVertex
 10
715.3
 20
426.9
 30
0.0
  0
VERTEX
  5
52D
100
AcDbEntity
  8
LAY-6
  6
CONTINUOUS
 62
     1
100
AcDbVertex
100
AcDb2dVertex
 10
683.345361
 20
440.504292
 30
0.0
  0
SEQEND
  5
52E
100
AcDbEntity
  8
LAY-6
  6
CONTINUOUS
 62
     1
  0
LINE
  5
52F
100
AcDbEntity
  8
LAY-6
  6
CONTINUOUS
 62
     1
100
AcDbLine
 10
712.343883
 20
427.615103
 30
0.0
 11
715.3
 21
426.9
 31
0.0
  0
LINE
  5
530
100
AcDbEntity
  8
LAY-6
  6
CONTINUOUS
 62
     1
100
AcDbLine
 10
715.3
 20
426.9
 30
0.0
 11
712.735598
 21
428.535189
 31
0.0
  0
INSERT
  5
531
100
AcDbEntity
  8
LAY-6
  6
CONTINUOUS
 62
     0
100
AcDbBlockReference
  2
SYM-1
 10
376.0
 20
503.5
 30
0.0
 50
90.0
  0
INSERT
  5
532
100
AcDbEntity
  8
LAY-6
  6
CONTINUOUS
 62
     0
100
AcDbBlockReference
  2
SYM-5
 10
342.0
 20
558.0
 30
0.0
  0
LINE
  5
533
100
AcDbEntity
  8
LAY-6
  6
CONTINUOUS
 62
     1
100
AcDbLine
 10
708.7
 20
150.3
 30
0.0
 11
708.7
 21
170.5
 31
0.0
  0
LINE
  5
534
100
AcDbEntity
  8
LAY-6
  6
CONTINUOUS
 62
     1
100
AcDbLine
 10
742.7
 20
150.3
 30
0.0
 11
742.7
 21
170.5
 31
0.0
  0
TEXT
  5
535
100
AcDbEntity
  8
LAY-6
  6
CONTINUOUS
 62
     2
100
AcDbText
 10
721.7
 20
169.5
 30
0.0
 40
5.0
  1
３４
 41
0.672
  7
EXCADSTD
 72
     5
 11
729.0328
 21
169.5
 31
0.0
100
AcDbText
  0
LINE
  5
536
100
AcDbEntity
  8
LAY-6
  6
CONTINUOUS
 62
     1
100
AcDbLine
 10
708.7
 20
169.0
 30
0.0
 11
742.7
 21
169.0
 31
0.0
  0
LINE
  5
537
100
AcDbEntity
  8
LAY-6
  6
CONTINUOUS
 62
     1
100
AcDbLine
 10
710.7
 20
169.333333
 30
0.0
 11
708.7
 21
169.0
 31
0.0
  0
LINE
  5
538
100
AcDbEntity
  8
LAY-6
  6
CONTINUOUS
 62
     1
100
AcDbLine
 10
708.7
 20
169.0
 30
0.0
 11
710.7
 21
168.666667
 31
0.0
  0
LINE
  5
539
100
AcDbEntity
  8
LAY-6
  6
CONTINUOUS
 62
     1
100
AcDbLine
 10
740.7
 20
168.666667
 30
0.0
 11
742.7
 21
169.0
 31
0.0
  0
LINE
  5
53A
100
AcDbEntity
  8
LAY-6
  6
CONTINUOUS
 62
     1
100
AcDbLine
 10
742.7
 20
169.0
 30
0.0
 11
740.7
 21
169.333333
 31
0.0
  0
CIRCLE
  5
53B
100
AcDbEntity
  8
LAY-6
  6
CONTINUOUS
 62
     2
100
AcDbCircle
 10
680.4
 20
160.7
 30
0.0
 40
5.0
  0
TEXT
  5
53C
100
AcDbEntity
  8
LAY-6
  6
CONTINUOUS
 62
     2
100
AcDbText
 10
678.5
 20
158.1
 30
0.0
 40
5.0
  1
３
 41
0.672
  7
EXCADSTD
 72
     5
 11
681.7
 21
158.1
 31
0.0
100
AcDbText
  0
CIRCLE
  5
53D
100
AcDbEntity
  8
LAY-6
  6
CONTINUOUS
 62
     2
100
AcDbCircle
 10
680.2
 20
94.0
 30
0.0
 40
5.0
  0
TEXT
  5
53E
100
AcDbEntity
  8
LAY-6
  6
CONTINUOUS
 62
     2
100
AcDbText
 10
678.3
 20
91.4
 30
0.0
 40
5.0
  1
４
 41
0.672
  7
EXCADSTD
 72
     5
 11
681.5
 21
91.4
 31
0.0
100
AcDbText
  0
LINE
  5
53F
100
AcDbEntity
  8
LAY-6
  6
CONTINUOUS
 62
     1
100
AcDbLine
 10
763.2
 20
88.3
 30
0.0
 11
763.2
 21
118.3
 31
0.0
  0
LINE
  5
540
100
AcDbEntity
  8
LAY-6
  6
CONTINUOUS
 62
     1
100
AcDbLine
 10
762.866667
 20
90.3
 30
0.0
 11
763.2
 21
88.3
 31
0.0
  0
LINE
  5
541
100
AcDbEntity
  8
LAY-6
  6
CONTINUOUS
 62
     1
100
AcDbLine
 10
763.2
 20
88.3
 30
0.0
 11
763.533333
 21
90.3
 31
0.0
  0
LINE
  5
542
100
AcDbEntity
  8
LAY-6
  6
CONTINUOUS
 62
     1
100
AcDbLine
 10
763.533333
 20
116.3
 30
0.0
 11
763.2
 21
118.3
 31
0.0
  0
LINE
  5
543
100
AcDbEntity
  8
LAY-6
  6
CONTINUOUS
 62
     1
100
AcDbLine
 10
763.2
 20
118.3
 30
0.0
 11
762.866667
 21
116.3
 31
0.0
  0
TEXT
  5
544
100
AcDbEntity
  8
LAY-6
  6
CONTINUOUS
 62
     2
100
AcDbText
 10
762.7
 20
99.3
 30
0.0
 40
5.0
  1
３０
 50
90.0
 41
0.672
  7
EXCADSTD
 72
     5
 11
762.7
 21
106.6328
 31
0.0
100
AcDbText
  0
LINE
  5
545
100
AcDbEntity
  8
LAY-6
  6
CONTINUOUS
 62
     1
100
AcDbLine
 10
749.2
 20
88.3
 30
0.0
 11
764.7
 21
88.3
 31
0.0
  0
TEXT
  5
546
100
AcDbEntity
  8
LAY-6
  6
CONTINUOUS
 62
     2
100
AcDbText
 10
772.7
 20
119.3
 30
0.0
 40
5.0
  1
６
 50
90.0
 41
0.672
  7
EXCADSTD
 72
     5
 11
772.7
 21
122.5
 31
0.0
100
AcDbText
  0
LINE
  5
547
100
AcDbEntity
  8
LAY-6
  6
CONTINUOUS
 62
     1
100
AcDbLine
 10
742.7
 20
124.3
 30
0.0
 11
774.7
 21
124.3
 31
0.0
  0
LINE
  5
548
100
AcDbEntity
  8
LAY-6
  6
CONTINUOUS
 62
     1
100
AcDbLine
 10
773.2
 20
113.3
 30
0.0
 11
773.2
 21
127.3
 31
0.0
  0
LINE
  5
549
100
AcDbEntity
  8
LAY-6
  6
CONTINUOUS
 62
     1
100
AcDbLine
 10
773.7
 20
115.3
 30
0.0
 11
773.2
 21
118.3
 31
0.0
  0
LINE
  5
54A
100
AcDbEntity
  8
LAY-6
  6
CONTINUOUS
 62
     1
100
AcDbLine
 10
773.2
 20
118.3
 30
0.0
 11
772.7
 21
115.3
 31
0.0
  0
LINE
  5
54B
100
AcDbEntity
  8
LAY-6
  6
CONTINUOUS
 62
     1
100
AcDbLine
 10
772.7
 20
127.3
 30
0.0
 11
773.2
 21
124.3
 31
0.0
  0
LINE
  5
54C
100
AcDbEntity
  8
LAY-6
  6
CONTINUOUS
 62
     1
100
AcDbLine
 10
773.2
 20
124.3
 30
0.0
 11
773.7
 21
127.3
 31
0.0
  0
LINE
  5
54D
100
AcDbEntity
  8
LAY-6
  6
CONTINUOUS
 62
     1
100
AcDbLine
 10
763.2
 20
124.3
 30
0.0
 11
763.2
 21
150.3
 31
0.0
  0
LINE
  5
54E
100
AcDbEntity
  8
LAY-6
  6
CONTINUOUS
 62
     1
100
AcDbLine
 10
762.866667
 20
126.3
 30
0.0
 11
763.2
 21
124.3
 31
0.0
  0
LINE
  5
54F
100
AcDbEntity
  8
LAY-6
  6
CONTINUOUS
 62
     1
100
AcDbLine
 10
763.2
 20
124.3
 30
0.0
 11
763.533333
 21
126.3
 31
0.0
  0
LINE
  5
550
100
AcDbEntity
  8
LAY-6
  6
CONTINUOUS
 62
     1
100
AcDbLine
 10
763.533333
 20
148.3
 30
0.0
 11
763.2
 21
150.3
 31
0.0
  0
LINE
  5
551
100
AcDbEntity
  8
LAY-6
  6
CONTINUOUS
 62
     1
100
AcDbLine
 10
763.2
 20
150.3
 30
0.0
 11
762.866667
 21
148.3
 31
0.0
  0
TEXT
  5
552
100
AcDbEntity
  8
LAY-6
  6
CONTINUOUS
 62
     2
100
AcDbText
 10
762.7
 20
133.3
 30
0.0
 40
5.0
  1
２６
 50
90.0
 41
0.672
  7
EXCADSTD
 72
     5
 11
762.7
 21
140.6328
 31
0.0
100
AcDbText
  0
LINE
  5
553
100
AcDbEntity
  8
LAY-6
  6
CONTINUOUS
 62
     1
100
AcDbLine
 10
742.7
 20
150.3
 30
0.0
 11
764.7
 21
150.3
 31
0.0
  0
POLYLINE
  5
554
100
AcDbEntity
  8
LAY-6
  6
CONTINUOUS
 62
     1
100
AcDb2dPolyline
 66
     1
 10
0.0
 20
0.0
 30
0.0
 70
   128
  0
VERTEX
  5
555
100
AcDbEntity
  8
LAY-6
  6
CONTINUOUS
 62
     1
100
AcDbVertex
100
AcDb2dVertex
 10
712.0
 20
140.2
 30
0.0
  0
VERTEX
  5
556
100
AcDbEntity
  8
LAY-6
  6
CONTINUOUS
 62
     1
100
AcDbVertex
100
AcDb2dVertex
 10
684.121211
 20
157.360451
 30
0.0
  0
SEQEND
  5
557
100
AcDbEntity
  8
LAY-6
  6
CONTINUOUS
 62
     1
  0
LINE
  5
558
100
AcDbEntity
  8
LAY-6
  6
CONTINUOUS
 62
     1
100
AcDbLine
 10
709.183104
 20
141.346776
 30
0.0
 11
712.0
 21
140.2
 31
0.0
  0
LINE
  5
559
100
AcDbEntity
  8
LAY-6
  6
CONTINUOUS
 62
     1
100
AcDbLine
 10
712.0
 20
140.2
 30
0.0
 11
709.707296
 21
142.198376
 31
0.0
  0
POLYLINE
  5
55A
100
AcDbEntity
  8
LAY-6
  6
CONTINUOUS
 62
     1
100
AcDb2dPolyline
 66
     1
 10
0.0
 20
0.0
 30
0.0
 70
   128
  0
VERTEX
  5
55B
100
AcDbEntity
  8
LAY-6
  6
CONTINUOUS
 62
     1
100
AcDbVertex
100
AcDb2dVertex
 10
703.7
 20
102.6
 30
0.0
  0
VERTEX
  5
55C
100
AcDbEntity
  8
LAY-6
  6
CONTINUOUS
 62
     1
100
AcDbVertex
100
AcDb2dVertex
 10
684.815385
 20
95.923077
 30
0.0
  0
SEQEND
  5
55D
100
AcDbEntity
  8
LAY-6
  6
CONTINUOUS
 62
     1
  0
LINE
  5
55E
100
AcDbEntity
  8
LAY-6
  6
CONTINUOUS
 62
     1
100
AcDbLine
 10
701.038254
 20
101.12857
 30
0.0
 11
703.7
 21
102.6
 31
0.0
  0
LINE
  5
55F
100
AcDbEntity
  8
LAY-6
  6
CONTINUOUS
 62
     1
100
AcDbLine
 10
703.7
 20
102.6
 30
0.0
 11
700.704911
 21
102.071376
 31
0.0
  0
LINE
  5
560
100
AcDbEntity
  8
LAY-6
  6
CONTINUOUS
 62
     1
100
AcDbLine
 10
754.55
 20
118.3
 30
0.0
 11
774.7
 21
118.3
 31
0.0
  0
LINE
  5
561
100
AcDbEntity
  8
LAY-6
  6
CONTINUOUS
 62
     1
100
AcDbLine
 10
703.7
 20
86.8
 30
0.0
 11
703.7
 21
66.1
 31
0.0
  0
LINE
  5
562
100
AcDbEntity
  8
LAY-6
  6
CONTINUOUS
 62
     1
100
AcDbLine
 10
747.7
 20
86.8
 30
0.0
 11
747.7
 21
66.1
 31
0.0
  0
TEXT
  5
563
100
AcDbEntity
  8
LAY-6
  6
CONTINUOUS
 62
     2
100
AcDbText
 10
721.7
 20
68.1
 30
0.0
 40
5.0
  1
４４
 41
0.672
  7
EXCADSTD
 72
     5
 11
729.0328
 21
68.1
 31
0.0
100
AcDbText
  0
LINE
  5
564
100
AcDbEntity
  8
LAY-6
  6
CONTINUOUS
 62
     1
100
AcDbLine
 10
703.7
 20
67.6
 30
0.0
 11
747.7
 21
67.6
 31
0.0
  0
LINE
  5
565
100
AcDbEntity
  8
LAY-6
  6
CONTINUOUS
 62
     1
100
AcDbLine
 10
705.7
 20
67.933333
 30
0.0
 11
703.7
 21
67.6
 31
0.0
  0
LINE
  5
566
100
AcDbEntity
  8
LAY-6
  6
CONTINUOUS
 62
     1
100
AcDbLine
 10
703.7
 20
67.6
 30
0.0
 11
705.7
 21
67.266667
 31
0.0
  0
LINE
  5
567
100
AcDbEntity
  8
LAY-6
  6
CONTINUOUS
 62
     1
100
AcDbLine
 10
745.7
 20
67.266667
 30
0.0
 11
747.7
 21
67.6
 31
0.0
  0
LINE
  5
568
100
AcDbEntity
  8
LAY-6
  6
CONTINUOUS
 62
     1
100
AcDbLine
 10
747.7
 20
67.6
 30
0.0
 11
745.7
 21
67.933333
 31
0.0
  0
LINE
  5
569
100
AcDbEntity
  8
LAY-6
  6
CONTINUOUS
 62
     1
100
AcDbLine
 10
716.2
 20
393.8
 30
0.0
 11
716.2
 21
389.6
 31
0.0
  0
LINE
  5
56A
100
AcDbEntity
  8
LAY-6
  6
CONTINUOUS
 62
     1
100
AcDbLine
 10
735.2
 20
393.8
 30
0.0
 11
735.2
 21
389.6
 31
0.0
  0
LINE
  5
56B
100
AcDbEntity
  8
LAY-6
  6
CONTINUOUS
 62
     1
100
AcDbLine
 10
716.2
 20
390.6
 30
0.0
 11
735.2
 21
390.6
 31
0.0
  0
LINE
  5
56C
100
AcDbEntity
  8
LAY-6
  6
CONTINUOUS
 62
     1
100
AcDbLine
 10
718.2
 20
390.933333
 30
0.0
 11
716.2
 21
390.6
 31
0.0
  0
LINE
  5
56D
100
AcDbEntity
  8
LAY-6
  6
CONTINUOUS
 62
     1
100
AcDbLine
 10
716.2
 20
390.6
 30
0.0
 11
718.2
 21
390.266667
 31
0.0
  0
LINE
  5
56E
100
AcDbEntity
  8
LAY-6
  6
CONTINUOUS
 62
     1
100
AcDbLine
 10
733.2
 20
390.266667
 30
0.0
 11
735.2
 21
390.6
 31
0.0
  0
LINE
  5
56F
100
AcDbEntity
  8
LAY-6
  6
CONTINUOUS
 62
     1
100
AcDbLine
 10
735.2
 20
390.6
 30
0.0
 11
733.2
 21
390.933333
 31
0.0
  0
TEXT
  5
570
100
AcDbEntity
  8
LAY-6
  6
CONTINUOUS
 62
     2
100
AcDbText
 10
761.5
 20
356.5
 30
0.0
 40
5.0
  1
φ
 41
0.672
  7
EXCADSTD
 72
     5
 11
764.7
 21
356.5
 31
0.0
100
AcDbText
  0
TEXT
  5
571
100
AcDbEntity
  8
LAY-6
  6
CONTINUOUS
 62
     2
100
AcDbText
 10
765.5
 20
356.5
 30
0.0
 40
5.0
  1
１９
 41
0.672
  7
EXCADSTD
 72
     5
 11
772.8328
 21
356.5
 31
0.0
100
AcDbText
  0
POLYLINE
  5
572
100
AcDbEntity
  8
LAY-6
  6
CONTINUOUS
 62
     1
100
AcDb2dPolyline
 66
     1
 10
0.0
 20
0.0
 30
0.0
 70
   128
  0
VERTEX
  5
573
100
AcDbEntity
  8
LAY-6
  6
CONTINUOUS
 62
     1
100
AcDbVertex
100
AcDb2dVertex
 10
192.922222
 20
154.8
 30
0.0
  0
VERTEX
  5
574
100
AcDbEntity
  8
LAY-6
  6
CONTINUOUS
 62
     1
100
AcDbVertex
100
AcDb2dVertex
 10
203.4
 20
171.2
 30
0.0
  0
VERTEX
  5
575
100
AcDbEntity
  8
LAY-6
  6
CONTINUOUS
 62
     1
100
AcDbVertex
100
AcDb2dVertex
 10
253.7
 20
171.2
 30
0.0
  0
SEQEND
  5
576
100
AcDbEntity
  8
LAY-6
  6
CONTINUOUS
 62
     1
  0
LINE
  5
577
100
AcDbEntity
  8
LAY-6
  6
CONTINUOUS
 62
     1
100
AcDbLine
 10
194.116042
 20
157.597283
 30
0.0
 11
192.922222
 21
154.8
 31
0.0
  0
LINE
  5
578
100
AcDbEntity
  8
LAY-6
  6
CONTINUOUS
 62
     1
100
AcDbLine
 10
192.922222
 20
154.8
 30
0.0
 11
194.958738
 21
157.058894
 31
0.0
  0
POLYLINE
  5
579
100
AcDbEntity
  8
LAY-6
  6
CONTINUOUS
 62
     1
100
AcDb2dPolyline
 66
     1
 10
0.0
 20
0.0
 30
0.0
 70
   128
  0
VERTEX
  5
57A
100
AcDbEntity
  8
LAY-6
  6
CONTINUOUS
 62
     1
100
AcDbVertex
100
AcDb2dVertex
 10
165.272973
 20
83.8
 30
0.0
  0
VERTEX
  5
57B
100
AcDbEntity
  8
LAY-6
  6
CONTINUOUS
 62
     1
100
AcDbVertex
100
AcDb2dVertex
 10
172.9
 20
67.2
 30
0.0
  0
VERTEX
  5
57C
100
AcDbEntity
  8
LAY-6
  6
CONTINUOUS
 62
     1
100
AcDbVertex
100
AcDb2dVertex
 10
221.9
 20
67.2
 30
0.0
  0
SEQEND
  5
57D
100
AcDbEntity
  8
LAY-6
  6
CONTINUOUS
 62
     1
  0
LINE
  5
57E
100
AcDbEntity
  8
LAY-6
  6
CONTINUOUS
 62
     1
100
AcDbLine
 10
166.979812
 20
81.28272
 30
0.0
 11
165.272973
 21
83.8
 31
0.0
  0
LINE
  5
57F
100
AcDbEntity
  8
LAY-6
  6
CONTINUOUS
 62
     1
100
AcDbLine
 10
165.272973
 20
83.8
 30
0.0
 11
166.071135
 21
80.865219
 31
0.0
  0
LINE
  5
580
100
AcDbEntity
  8
LAY-6
  6
CONTINUOUS
 62
     1
100
AcDbLine
 10
70.7
 20
87.8
 30
0.0
 11
70.7
 21
66.4
 31
0.0
  0
LINE
  5
581
100
AcDbEntity
  8
LAY-6
  6
CONTINUOUS
 62
     1
100
AcDbLine
 10
155.7
 20
87.8
 30
0.0
 11
155.7
 21
66.4
 31
0.0
  0
TEXT
  5
582
100
AcDbEntity
  8
LAY-6
  6
CONTINUOUS
 62
     2
100
AcDbText
 10
109.2
 20
67.9
 30
0.0
 40
5.0
  1
８５
 41
0.672
  7
EXCADSTD
 72
     5
 11
116.5328
 21
67.9
 31
0.0
100
AcDbText
  0
LINE
  5
583
100
AcDbEntity
  8
LAY-6
  6
CONTINUOUS
 62
     1
100
AcDbLine
 10
70.7
 20
67.4
 30
0.0
 11
155.7
 21
67.4
 31
0.0
  0
LINE
  5
584
100
AcDbEntity
  8
LAY-6
  6
CONTINUOUS
 62
     1
100
AcDbLine
 10
72.7
 20
67.733333
 30
0.0
 11
70.7
 21
67.4
 31
0.0
  0
LINE
  5
585
100
AcDbEntity
  8
LAY-6
  6
CONTINUOUS
 62
     1
100
AcDbLine
 10
70.7
 20
67.4
 30
0.0
 11
72.7
 21
67.066667
 31
0.0
  0
LINE
  5
586
100
AcDbEntity
  8
LAY-6
  6
CONTINUOUS
 62
     1
100
AcDbLine
 10
153.7
 20
67.066667
 30
0.0
 11
155.7
 21
67.4
 31
0.0
  0
LINE
  5
587
100
AcDbEntity
  8
LAY-6
  6
CONTINUOUS
 62
     1
100
AcDbLine
 10
155.7
 20
67.4
 30
0.0
 11
153.7
 21
67.733333
 31
0.0
  0
TEXT
  5
588
100
AcDbEntity
  8
LAY-6
  6
CONTINUOUS
 62
     2
100
AcDbText
 10
309.25
 20
140.8
 30
0.0
 40
6.0
  1
ド　ア
 41
0.672
  7
EXCADSTD
 72
     5
 11
323.65
 21
140.8
 31
0.0
100
AcDbText
  0
TEXT
  5
589
100
AcDbEntity
  8
LAY-6
  6
CONTINUOUS
 62
     2
100
AcDbText
 10
308.05
 20
95.8
 30
0.0
 40
6.0
  1
沓　摺
 41
0.672
  7
EXCADSTD
 72
     5
 11
322.45
 21
95.8
 31
0.0
100
AcDbText
  0
TEXT
  5
58A
100
AcDbEntity
  8
LAY-6
  6
CONTINUOUS
 62
     2
100
AcDbText
 10
717.7
 20
337.9
 30
0.0
 40
5.0
  1
４５
 41
0.672
  7
EXCADSTD
 72
     5
 11
725.0328
 21
337.9
 31
0.0
100
AcDbText
  0
TEXT
  5
58B
100
AcDbEntity
  8
LAY-6
  6
CONTINUOUS
 62
     2
100
AcDbText
 10
725.7
 20
337.9
 30
0.0
 40
5.0
  1
以上
 41
0.672
  7
EXCADSTD
 72
     5
 11
733.0328
 21
337.9
 31
0.0
100
AcDbText
  0
LINE
  5
58C
100
AcDbEntity
  8
LAY-6
  6
CONTINUOUS
 62
     1
100
AcDbLine
 10
703.2
 20
337.4
 30
0.0
 11
748.2
 21
337.4
 31
0.0
  0
LINE
  5
58D
100
AcDbEntity
  8
LAY-6
  6
CONTINUOUS
 62
     1
100
AcDbLine
 10
706.2
 20
337.9
 30
0.0
 11
703.2
 21
337.4
 31
0.0
  0
LINE
  5
58E
100
AcDbEntity
  8
LAY-6
  6
CONTINUOUS
 62
     1
100
AcDbLine
 10
703.2
 20
337.4
 30
0.0
 11
706.2
 21
336.9
 31
0.0
  0
LINE
  5
58F
100
AcDbEntity
  8
LAY-6
  6
CONTINUOUS
 62
     1
100
AcDbLine
 10
745.2
 20
336.9
 30
0.0
 11
748.2
 21
337.4
 31
0.0
  0
LINE
  5
590
100
AcDbEntity
  8
LAY-6
  6
CONTINUOUS
 62
     1
100
AcDbLine
 10
748.2
 20
337.4
 30
0.0
 11
745.2
 21
337.9
 31
0.0
  0
TEXT
  5
591
100
AcDbEntity
  8
LAY-6
  6
CONTINUOUS
 62
     2
100
AcDbText
 10
718.25
 20
318.8
 30
0.0
 40
6.0
  1
ド　ア
 41
0.672
  7
EXCADSTD
 72
     5
 11
732.65
 21
318.8
 31
0.0
100
AcDbText
  0
TEXT
  5
592
100
AcDbEntity
  8
LAY-6
  6
CONTINUOUS
 62
     2
100
AcDbText
 10
521.0
 20
75.5
 30
0.0
 40
5.0
  1
４－Ｍ６×２５皿小ネジ
 41
0.672
  7
EXCADSTD
 72
     5
 11
565.0
 21
75.5
 31
0.0
100
AcDbText
  0
POLYLINE
  5
593
100
AcDbEntity
  8
LAY-6
  6
CONTINUOUS
 62
     1
100
AcDb2dPolyline
 66
     1
 10
0.0
 20
0.0
 30
0.0
 70
   128
  0
VERTEX
  5
594
100
AcDbEntity
  8
LAY-6
  6
CONTINUOUS
 62
     1
100
AcDbVertex
100
AcDb2dVertex
 10
487.842641
 20
104.057359
 30
0.0
  0
VERTEX
  5
595
100
AcDbEntity
  8
LAY-6
  6
CONTINUOUS
 62
     1
100
AcDbVertex
100
AcDb2dVertex
 10
520.6
 20
75.1
 30
0.0
  0
VERTEX
  5
596
100
AcDbEntity
  8
LAY-6
  6
CONTINUOUS
 62
     1
100
AcDbVertex
100
AcDb2dVertex
 10
565.0
 20
75.1
 30
0.0
  0
SEQEND
  5
597
100
AcDbEntity
  8
LAY-6
  6
CONTINUOUS
 62
     1
  0
LINE
  5
598
100
AcDbEntity
  8
LAY-6
  6
CONTINUOUS
 62
     1
100
AcDbLine
 10
490.421478
 20
102.445033
 30
0.0
 11
487.842641
 21
104.057359
 31
0.0
  0
LINE
  5
599
100
AcDbEntity
  8
LAY-6
  6
CONTINUOUS
 62
     1
100
AcDbLine
 10
487.842641
 20
104.057359
 30
0.0
 11
489.759165
 21
101.695806
 31
0.0
  0
INSERT
  5
59A
100
AcDbEntity
  8
LAY-6
  6
CONTINUOUS
 62
     0
100
AcDbBlockReference
  2
SYM-1
 10
674.2
 20
126.1
 30
0.0
 50
90.0
  0
TEXT
  5
59B
100
AcDbEntity
  8
LAY-6
  6
CONTINUOUS
 62
     2
100
AcDbText
 10
649.25
 20
100.8
 30
0.0
 40
6.0
  1
床　面
 41
0.672
  7
EXCADSTD
 72
     5
 11
663.65
 21
100.8
 31
0.0
100
AcDbText
  0
TEXT
  5
59C
100
AcDbEntity
  8
LAY-6
  6
CONTINUOUS
 62
     2
100
AcDbText
 10
755.15
 20
75.8
 30
0.0
 40
6.0
  1
沓　摺
 41
0.672
  7
EXCADSTD
 72
     5
 11
769.55
 21
75.8
 31
0.0
100
AcDbText
  0
INSERT
  5
59D
100
AcDbEntity
  8
LAY-6
  6
CONTINUOUS
 62
     0
100
AcDbBlockReference
  2
SYM-1
 10
472.07
 20
546.79
 30
0.0
  0
INSERT
  5
59E
100
AcDbEntity
  8
LAY-6
  6
CONTINUOUS
 62
     0
100
AcDbBlockReference
  2
SYM-1
 10
614.37
 20
554.89
 30
0.0
  0
LINE
  5
59F
100
AcDbEntity
  8
LAY-6
  6
CONTINUOUS
 62
     1
100
AcDbLine
 10
48.9
 20
437.3
 30
0.0
 11
48.9
 21
397.3
 31
0.0
  0
LINE
  5
5A0
100
AcDbEntity
  8
LAY-6
  6
CONTINUOUS
 62
     1
100
AcDbLine
 10
49.4
 20
434.3
 30
0.0
 11
48.9
 21
437.3
 31
0.0
  0
LINE
  5
5A1
100
AcDbEntity
  8
LAY-6
  6
CONTINUOUS
 62
     1
100
AcDbLine
 10
48.9
 20
437.3
 30
0.0
 11
48.4
 21
434.3
 31
0.0
  0
LINE
  5
5A2
100
AcDbEntity
  8
LAY-6
  6
CONTINUOUS
 62
     1
100
AcDbLine
 10
48.4
 20
400.3
 30
0.0
 11
48.9
 21
397.3
 31
0.0
  0
LINE
  5
5A3
100
AcDbEntity
  8
LAY-6
  6
CONTINUOUS
 62
     1
100
AcDbLine
 10
48.9
 20
397.3
 30
0.0
 11
49.4
 21
400.3
 31
0.0
  0
TEXT
  5
5A4
100
AcDbEntity
  8
LAY-6
  6
CONTINUOUS
 62
     2
100
AcDbText
 10
48.4
 20
413.3
 30
0.0
 40
5.0
  1
４０
 50
90.0
 41
0.672
  7
EXCADSTD
 72
     5
 11
48.4
 21
420.6328
 31
0.0
100
AcDbText
  0
LINE
  5
5A5
100
AcDbEntity
  8
LAY-6
  6
CONTINUOUS
 62
     1
100
AcDbLine
 10
81.2
 20
437.3
 30
0.0
 11
47.4
 21
437.3
 31
0.0
  0
LINE
  5
5A6
100
AcDbEntity
  8
LAY-6
  6
CONTINUOUS
 62
     1
100
AcDbLine
 10
84.054066
 20
372.3
 30
0.0
 11
47.4
 21
372.3
 31
0.0
  0
LINE
  5
5A7
100
AcDbEntity
  8
LAY-6
  6
CONTINUOUS
 62
     1
100
AcDbLine
 10
48.9
 20
394.3
 30
0.0
 11
48.9
 21
372.3
 31
0.0
  0
LINE
  5
5A8
100
AcDbEntity
  8
LAY-6
  6
CONTINUOUS
 62
     1
100
AcDbLine
 10
49.4
 20
391.3
 30
0.0
 11
48.9
 21
394.3
 31
0.0
  0
LINE
  5
5A9
100
AcDbEntity
  8
LAY-6
  6
CONTINUOUS
 62
     1
100
AcDbLine
 10
48.9
 20
394.3
 30
0.0
 11
48.4
 21
391.3
 31
0.0
  0
LINE
  5
5AA
100
AcDbEntity
  8
LAY-6
  6
CONTINUOUS
 62
     1
100
AcDbLine
 10
48.4
 20
375.3
 30
0.0
 11
48.9
 21
372.3
 31
0.0
  0
LINE
  5
5AB
100
AcDbEntity
  8
LAY-6
  6
CONTINUOUS
 62
     1
100
AcDbLine
 10
48.9
 20
372.3
 30
0.0
 11
49.4
 21
375.3
 31
0.0
  0
TEXT
  5
5AC
100
AcDbEntity
  8
LAY-6
  6
CONTINUOUS
 62
     2
100
AcDbText
 10
48.4
 20
379.3
 30
0.0
 40
5.0
  1
２２
 50
90.0
 41
0.672
  7
EXCADSTD
 72
     5
 11
48.4
 21
386.6328
 31
0.0
100
AcDbText
  0
TEXT
  5
5AD
100
AcDbEntity
  8
LAY-6
  6
CONTINUOUS
 62
     2
100
AcDbText
 10
622.2
 20
255.3
 30
0.0
 40
5.0
  1
８
 50
90.0
 41
0.672
  7
EXCADSTD
 72
     5
 11
622.2
 21
258.5
 31
0.0
100
AcDbText
  0
LINE
  5
5AE
100
AcDbEntity
  8
LAY-6
  6
CONTINUOUS
 62
     1
100
AcDbLine
 10
628.1
 20
253.3
 30
0.0
 11
621.2
 21
253.3
 31
0.0
  0
LINE
  5
5AF
100
AcDbEntity
  8
LAY-6
  6
CONTINUOUS
 62
     1
100
AcDbLine
 10
622.7
 20
248.3
 30
0.0
 11
622.7
 21
261.3
 31
0.0
  0
LINE
  5
5B0
100
AcDbEntity
  8
LAY-6
  6
CONTINUOUS
 62
     1
100
AcDbLine
 10
623.2
 20
250.3
 30
0.0
 11
622.7
 21
253.3
 31
0.0
  0
LINE
  5
5B1
100
AcDbEntity
  8
LAY-6
  6
CONTINUOUS
 62
     1
100
AcDbLine
 10
622.7
 20
253.3
 30
0.0
 11
622.2
 21
250.3
 31
0.0
  0
TEXT
  5
5B2
100
AcDbEntity
  8
LAY-6
  6
CONTINUOUS
 62
     2
100
AcDbText
 10
622.2
 20
263.3
 30
0.0
 40
5.0
  1
８
 50
90.0
 41
0.672
  7
EXCADSTD
 72
     5
 11
622.2
 21
266.5
 31
0.0
100
AcDbText
  0
LINE
  5
5B3
100
AcDbEntity
  8
LAY-6
  6
CONTINUOUS
 62
     1
100
AcDbLine
 10
615.1
 20
269.3
 30
0.0
 11
624.2
 21
269.3
 31
0.0
  0
LINE
  5
5B4
100
AcDbEntity
  8
LAY-6
  6
CONTINUOUS
 62
     1
100
AcDbLine
 10
622.7
 20
261.3
 30
0.0
 11
622.7
 21
274.3
 31
0.0
  0
CIRCLE
  5
5B5
100
AcDbEntity
  8
LAY-6
  6
CONTINUOUS
 62
     1
100
AcDbCircle
 10
622.7
 20
261.3
 30
0.0
 40
0.5
  0
CIRCLE
  5
5B6
100
AcDbEntity
  8
LAY-6
  6
CONTINUOUS
 62
     1
100
AcDbCircle
 10
622.7
 20
261.3
 30
0.0
 40
0.25
  0
LINE
  5
5B7
100
AcDbEntity
  8
LAY-6
  6
CONTINUOUS
 62
     1
100
AcDbLine
 10
622.2
 20
272.3
 30
0.0
 11
622.7
 21
269.3
 31
0.0
  0
LINE
  5
5B8
100
AcDbEntity
  8
LAY-6
  6
CONTINUOUS
 62
     1
100
AcDbLine
 10
622.7
 20
269.3
 30
0.0
 11
623.2
 21
272.3
 31
0.0
  0
POLYLINE
  5
5B9
100
AcDbEntity
  8
LAY-6
  6
CONTINUOUS
 62
     1
100
AcDb2dPolyline
 66
     1
 10
0.0
 20
0.0
 30
0.0
 70
   128
  0
VERTEX
  5
5BA
100
AcDbEntity
  8
LAY-6
  6
CONTINUOUS
 62
     1
100
AcDbVertex
100
AcDb2dVertex
 10
717.7
 20
376.25
 30
0.0
  0
VERTEX
  5
5BB
100
AcDbEntity
  8
LAY-6
  6
CONTINUOUS
 62
     1
100
AcDbVertex
100
AcDb2dVertex
 10
684.260143
 20
366.630046
 30
0.0
  0
SEQEND
  5
5BC
100
AcDbEntity
  8
LAY-6
  6
CONTINUOUS
 62
     1
  0
LINE
  5
5BD
100
AcDbEntity
  8
LAY-6
  6
CONTINUOUS
 62
     1
100
AcDbLine
 10
714.955163
 20
374.940089
 30
0.0
 11
717.7
 21
376.25
 31
0.0
  0
LINE
  5
5BE
100
AcDbEntity
  8
LAY-6
  6
CONTINUOUS
 62
     1
100
AcDbLine
 10
717.7
 20
376.25
 30
0.0
 11
714.678696
 21
375.901112
 31
0.0
  0
POLYLINE
  5
5BF
100
AcDbEntity
  8
LAY-6
  6
CONTINUOUS
 62
     1
100
AcDb2dPolyline
 66
     1
 10
0.0
 20
0.0
 30
0.0
 70
   128
  0
VERTEX
  5
5C0
100
AcDbEntity
  8
LAY-6
  6
CONTINUOUS
 62
     1
100
AcDbVertex
100
AcDb2dVertex
 10
725.5
 20
390.6
 30
0.0
  0
VERTEX
  5
5C1
100
AcDbEntity
  8
LAY-6
  6
CONTINUOUS
 62
     1
100
AcDbVertex
100
AcDb2dVertex
 10
760.5
 20
356.2
 30
0.0
  0
VERTEX
  5
5C2
100
AcDbEntity
  8
LAY-6
  6
CONTINUOUS
 62
     1
100
AcDbVertex
100
AcDb2dVertex
 10
774.5
 20
356.2
 30
0.0
  0
SEQEND
  5
5C3
100
AcDbEntity
  8
LAY-6
  6
CONTINUOUS
 62
     1
  0
CIRCLE
  5
5C4
100
AcDbEntity
  8
LAY-6
  6
CONTINUOUS
 62
     1
100
AcDbCircle
 10
725.5
 20
390.6
 30
0.0
 40
1.5
  0
CIRCLE
  5
5C5
100
AcDbEntity
  8
LAY-6
  6
CONTINUOUS
 62
     1
100
AcDbCircle
 10
725.5
 20
390.6
 30
0.0
 40
0.75
  0
LINE
  5
5C6
100
AcDbEntity
  8
LAY-6
  6
CONTINUOUS
 62
     1
100
AcDbLine
 10
737.345934
 20
372.3
 30
0.0
 11
759.2
 21
372.3
 31
0.0
  0
LINE
  5
5C7
100
AcDbEntity
  8
LAY-6
  6
CONTINUOUS
 62
     1
100
AcDbLine
 10
757.7
 20
394.3
 30
0.0
 11
757.7
 21
372.3
 31
0.0
  0
LINE
  5
5C8
100
AcDbEntity
  8
LAY-6
  6
CONTINUOUS
 62
     1
100
AcDbLine
 10
758.2
 20
391.3
 30
0.0
 11
757.7
 21
394.3
 31
0.0
  0
LINE
  5
5C9
100
AcDbEntity
  8
LAY-6
  6
CONTINUOUS
 62
     1
100
AcDbLine
 10
757.7
 20
394.3
 30
0.0
 11
757.2
 21
391.3
 31
0.0
  0
LINE
  5
5CA
100
AcDbEntity
  8
LAY-6
  6
CONTINUOUS
 62
     1
100
AcDbLine
 10
757.2
 20
375.3
 30
0.0
 11
757.7
 21
372.3
 31
0.0
  0
LINE
  5
5CB
100
AcDbEntity
  8
LAY-6
  6
CONTINUOUS
 62
     1
100
AcDbLine
 10
757.7
 20
372.3
 30
0.0
 11
758.2
 21
375.3
 31
0.0
  0
TEXT
  5
5CC
100
AcDbEntity
  8
LAY-6
  6
CONTINUOUS
 62
     2
100
AcDbText
 10
757.2
 20
379.3
 30
0.0
 40
5.0
  1
２２
 50
90.0
 41
0.672
  7
EXCADSTD
 72
     5
 11
757.2
 21
386.6328
 31
0.0
100
AcDbText
  0
LINE
  5
5CD
100
AcDbEntity
  8
LAY-6
  6
CONTINUOUS
 62
     1
100
AcDbLine
 10
747.2
 20
394.3
 30
0.0
 11
790.2
 21
394.3
 31
0.0
  0
LINE
  5
5CE
100
AcDbEntity
  8
LAY-6
  6
CONTINUOUS
 62
     1
100
AcDbLine
 10
788.7
 20
314.3
 30
0.0
 11
788.7
 21
394.3
 31
0.0
  0
LINE
  5
5CF
100
AcDbEntity
  8
LAY-6
  6
CONTINUOUS
 62
     1
100
AcDbLine
 10
788.2
 20
317.3
 30
0.0
 11
788.7
 21
314.3
 31
0.0
  0
LINE
  5
5D0
100
AcDbEntity
  8
LAY-6
  6
CONTINUOUS
 62
     1
100
AcDbLine
 10
788.7
 20
314.3
 30
0.0
 11
789.2
 21
317.3
 31
0.0
  0
LINE
  5
5D1
100
AcDbEntity
  8
LAY-6
  6
CONTINUOUS
 62
     1
100
AcDbLine
 10
789.2
 20
391.3
 30
0.0
 11
788.7
 21
394.3
 31
0.0
  0
LINE
  5
5D2
100
AcDbEntity
  8
LAY-6
  6
CONTINUOUS
 62
     1
100
AcDbLine
 10
788.7
 20
394.3
 30
0.0
 11
788.2
 21
391.3
 31
0.0
  0
TEXT
  5
5D3
100
AcDbEntity
  8
LAY-6
  6
CONTINUOUS
 62
     2
100
AcDbText
 10
788.2
 20
350.3
 30
0.0
 40
5.0
  1
ＤＨ
 50
90.0
 41
0.672
  7
EXCADSTD
 72
     5
 11
788.2
 21
357.6328
 31
0.0
100
AcDbText
  0
TEXT
  5
5D4
100
AcDbEntity
  8
LAY-6
  6
CONTINUOUS
 62
     2
100
AcDbText
 10
788.2
 20
393.8
 30
0.0
 40
5.0
  1
３
 50
90.0
 41
0.672
  7
EXCADSTD
 72
     5
 11
788.2
 21
397.0
 31
0.0
100
AcDbText
  0
LINE
  5
5D5
100
AcDbEntity
  8
LAY-6
  6
CONTINUOUS
 62
     1
100
AcDbLine
 10
776.2
 20
397.3
 30
0.0
 11
790.2
 21
397.3
 31
0.0
  0
LINE
  5
5D6
100
AcDbEntity
  8
LAY-6
  6
CONTINUOUS
 62
     1
100
AcDbLine
 10
788.7
 20
394.3
 30
0.0
 11
788.7
 21
402.3
 31
0.0
  0
LINE
  5
5D7
100
AcDbEntity
  8
LAY-6
  6
CONTINUOUS
 62
     1
100
AcDbLine
 10
788.2
 20
400.3
 30
0.0
 11
788.7
 21
397.3
 31
0.0
  0
LINE
  5
5D8
100
AcDbEntity
  8
LAY-6
  6
CONTINUOUS
 62
     1
100
AcDbLine
 10
788.7
 20
397.3
 30
0.0
 11
789.2
 21
400.3
 31
0.0
  0
TEXT
  5
5D9
100
AcDbEntity
  8
LAY-6
  6
CONTINUOUS
 62
     2
100
AcDbText
 10
505.35
 20
174.1
 30
0.0
 40
5.0
  1
フロアプレート　１.５ｔ
 41
0.654222
  7
EXCADSTD
 72
     5
 11
551.35
 21
174.1
 31
0.0
100
AcDbText
  0
POLYLINE
  5
5DA
100
AcDbEntity
  8
LAY-6
  6
CONTINUOUS
 62
     1
100
AcDb2dPolyline
 66
     1
 10
0.0
 20
0.0
 30
0.0
 70
   128
  0
VERTEX
  5
5DB
100
AcDbEntity
  8
LAY-6
  6
CONTINUOUS
 62
     1
100
AcDbVertex
100
AcDb2dVertex
 10
498.6
 20
146.3
 30
0.0
  0
VERTEX
  5
5DC
100
AcDbEntity
  8
LAY-6
  6
CONTINUOUS
 62
     1
100
AcDbVertex
100
AcDb2dVertex
 10
504.9
 20
173.6
 30
0.0
  0
VERTEX
  5
5DD
100
AcDbEntity
  8
LAY-6
  6
CONTINUOUS
 62
     1
100
AcDbVertex
100
AcDb2dVertex
 10
551.1
 20
173.6
 30
0.0
  0
SEQEND
  5
5DE
100
AcDbEntity
  8
LAY-6
  6
CONTINUOUS
 62
     1
  0
LINE
  5
5DF
100
AcDbEntity
  8
LAY-6
  6
CONTINUOUS
 62
     1
100
AcDbLine
 10
498.787383
 20
149.335603
 30
0.0
 11
498.6
 21
146.3
 31
0.0
  0
LINE
  5
5E0
100
AcDbEntity
  8
LAY-6
  6
CONTINUOUS
 62
     1
100
AcDbLine
 10
498.6
 20
146.3
 30
0.0
 11
499.761774
 21
149.110744
 31
0.0
  0
INSERT
  5
5E1
100
AcDbEntity
  8
LAY-6
  6
CONTINUOUS
 62
     0
100
AcDbBlockReference
  2
SYM-1
 10
534.47
 20
176.89
 30
0.0
  0
LINE
  5
5E2
100
AcDbEntity
  8
LAY-6
  6
CONTINUOUS
 62
     1
100
AcDbLine
 10
773.2
 20
189.2
 30
0.0
 11
773.2
 21
124.3
 31
0.0
  0
LINE
  5
5E3
100
AcDbEntity
  8
LAY-6
  6
CONTINUOUS
 62
     1
100
AcDbLine
 10
80.7
 20
121.8
 30
0.0
 11
80.7
 21
130.1
 31
0.0
  0
LINE
  5
5E4
100
AcDbEntity
  8
LAY-6
  6
CONTINUOUS
 62
     1
100
AcDbLine
 10
110.7
 20
121.8
 30
0.0
 11
110.7
 21
130.1
 31
0.0
  0
LINE
  5
5E5
100
AcDbEntity
  8
LAY-6
  6
CONTINUOUS
 62
     1
100
AcDbLine
 10
80.7
 20
128.6
 30
0.0
 11
110.7
 21
128.6
 31
0.0
  0
LINE
  5
5E6
100
AcDbEntity
  8
LAY-6
  6
CONTINUOUS
 62
     1
100
AcDbLine
 10
83.7
 20
129.1
 30
0.0
 11
80.7
 21
128.6
 31
0.0
  0
LINE
  5
5E7
100
AcDbEntity
  8
LAY-6
  6
CONTINUOUS
 62
     1
100
AcDbLine
 10
80.7
 20
128.6
 30
0.0
 11
83.7
 21
128.1
 31
0.0
  0
LINE
  5
5E8
100
AcDbEntity
  8
LAY-6
  6
CONTINUOUS
 62
     1
100
AcDbLine
 10
107.7
 20
128.1
 30
0.0
 11
110.7
 21
128.6
 31
0.0
  0
LINE
  5
5E9
100
AcDbEntity
  8
LAY-6
  6
CONTINUOUS
 62
     1
100
AcDbLine
 10
110.7
 20
128.6
 30
0.0
 11
107.7
 21
129.1
 31
0.0
  0
TEXT
  5
5EA
100
AcDbEntity
  8
LAY-6
  6
CONTINUOUS
 62
     2
100
AcDbText
 10
91.7
 20
129.1
 30
0.0
 40
5.0
  1
３０
 41
0.672
  7
EXCADSTD
 72
     5
 11
99.0328
 21
129.1
 31
0.0
100
AcDbText
  0
LINE
  5
5EB
100
AcDbEntity
  8
LAY-9
  6
CONTINUOUS
 62
     1
100
AcDbLine
 10
211.7
 20
408.2
 30
0.0
 11
230.7
 21
408.2
 31
0.0
  0
LINE
  5
5EC
100
AcDbEntity
  8
LAY-9
  6
CONTINUOUS
 62
     1
100
AcDbLine
 10
211.7
 20
403.7
 30
0.0
 11
211.7
 21
408.2
 31
0.0
  0
LINE
  5
5ED
100
AcDbEntity
  8
LAY-9
  6
CONTINUOUS
 62
     1
100
AcDbLine
 10
230.7
 20
408.2
 30
0.0
 11
211.7
 21
403.7
 31
0.0
  0
LINE
  5
5EE
100
AcDbEntity
  8
LAY-9
  6
CONTINUOUS
 62
     1
100
AcDbLine
 10
211.7
 20
408.2
 30
0.0
 11
230.7
 21
403.7
 31
0.0
  0
LINE
  5
5EF
100
AcDbEntity
  8
LAY-9
  6
CONTINUOUS
 62
     1
100
AcDbLine
 10
230.7
 20
403.699
 30
0.0
 11
230.7
 21
408.2
 31
0.0
  0
LINE
  5
5F0
100
AcDbEntity
  8
LAY-9
  6
CONTINUOUS
 62
     1
100
AcDbLine
 10
75.7
 20
403.7
 30
0.0
 11
75.7
 21
408.2
 31
0.0
  0
LINE
  5
5F1
100
AcDbEntity
  8
LAY-9
  6
CONTINUOUS
 62
     1
100
AcDbLine
 10
75.7
 20
408.2
 30
0.0
 11
55.7
 21
408.2
 31
0.0
  0
LINE
  5
5F2
100
AcDbEntity
  8
LAY-9
  6
CONTINUOUS
 62
     1
100
AcDbLine
 10
55.7
 20
403.7
 30
0.0
 11
55.7
 21
408.2
 31
0.0
  0
LINE
  5
5F3
100
AcDbEntity
  8
LAY-9
  6
CONTINUOUS
 62
     1
100
AcDbLine
 10
75.7
 20
408.2
 30
0.0
 11
55.7
 21
403.7
 31
0.0
  0
LINE
  5
5F4
100
AcDbEntity
  8
LAY-9
  6
CONTINUOUS
 62
     1
100
AcDbLine
 10
55.7
 20
408.2
 30
0.0
 11
75.7
 21
403.7
 31
0.0
  0
LINE
  5
5F5
100
AcDbEntity
  8
LAY-9
  6
CONTINUOUS
 62
     1
100
AcDbLine
 10
75.7
 20
387.9
 30
0.0
 11
75.7
 21
383.4
 31
0.0
  0
LINE
  5
5F6
100
AcDbEntity
  8
LAY-9
  6
CONTINUOUS
 62
     1
100
AcDbLine
 10
55.7
 20
387.9
 30
0.0
 11
55.7
 21
383.4
 31
0.0
  0
LINE
  5
5F7
100
AcDbEntity
  8
LAY-9
  6
CONTINUOUS
 62
     1
100
AcDbLine
 10
55.7
 20
383.4
 30
0.0
 11
75.7
 21
383.4
 31
0.0
  0
LINE
  5
5F8
100
AcDbEntity
  8
LAY-9
  6
CONTINUOUS
 62
     1
100
AcDbLine
 10
75.7
 20
387.9
 30
0.0
 11
55.7
 21
383.4
 31
0.0
  0
LINE
  5
5F9
100
AcDbEntity
  8
LAY-9
  6
CONTINUOUS
 62
     1
100
AcDbLine
 10
55.7
 20
387.9
 30
0.0
 11
75.7
 21
383.4
 31
0.0
  0
LINE
  5
5FA
100
AcDbEntity
  8
LAY-9
  6
CONTINUOUS
 62
     1
100
AcDbLine
 10
230.7
 20
387.9
 30
0.0
 11
230.7
 21
383.4
 31
0.0
  0
LINE
  5
5FB
100
AcDbEntity
  8
LAY-9
  6
CONTINUOUS
 62
     1
100
AcDbLine
 10
115.7
 20
387.9
 30
0.0
 11
115.7
 21
383.4
 31
0.0
  0
LINE
  5
5FC
100
AcDbEntity
  8
LAY-9
  6
CONTINUOUS
 62
     1
100
AcDbLine
 10
35.7
 20
394.3
 30
0.0
 11
55.7
 21
394.3
 31
0.0
  0
LINE
  5
5FD
100
AcDbEntity
  8
LAY-9
  6
CONTINUOUS
 62
     1
100
AcDbLine
 10
49.7
 20
397.3
 30
0.0
 11
32.7
 21
397.3
 31
0.0
  0
LINE
  5
5FE
100
AcDbEntity
  8
LAY-9
  6
CONTINUOUS
 62
     1
100
AcDbLine
 10
377.978511
 20
423.8
 30
0.0
 11
613.6
 21
423.8
 31
0.0
  0
LINE
  5
5FF
100
AcDbEntity
  8
LAY-9
  6
CONTINUOUS
 62
     1
100
AcDbLine
 10
377.978511
 20
378.8
 30
0.0
 11
613.6
 21
378.8
 31
0.0
  0
ARC
  5
600
100
AcDbEntity
  8
LAY-9
  6
CONTINUOUS
 62
     1
100
AcDbCircle
 10
433.6
 20
401.3
 30
0.0
 40
60.0
100
AcDbArc
 50
157.975687
 51
202.024313
  0
ARC
  5
601
100
AcDbEntity
  8
LAY-9
  6
CONTINUOUS
 62
     1
100
AcDbCircle
 10
433.6
 20
261.3
 30
0.0
 40
60.0
100
AcDbArc
 50
157.975687
 51
202.024313
  0
LINE
  5
602
100
AcDbEntity
  8
LAY-9
  6
DIVIDE
 62
     1
100
AcDbLine
 10
553.6
 20
83.8
 30
0.0
 11
553.6
 21
158.8
 31
0.0
  0
LINE
  5
603
100
AcDbEntity
  8
LAY-9
  6
DIVIDE
 62
     1
100
AcDbLine
 10
378.6
 20
83.8
 30
0.0
 11
378.6
 21
158.8
 31
0.0
  0
LINE
  5
604
100
AcDbEntity
  8
LAY-9
  6
CONTINUOUS
 62
     1
100
AcDbLine
 10
378.6
 20
148.8
 30
0.0
 11
553.6
 21
148.8
 31
0.0
  0
LINE
  5
605
100
AcDbEntity
  8
LAY-9
  6
CONTINUOUS
 62
     1
100
AcDbLine
 10
378.6
 20
93.8
 30
0.0
 11
553.6
 21
93.8
 31
0.0
  0
LINE
  5
606
100
AcDbEntity
  8
LAY-9
  6
CONTINUOUS
 62
     1
100
AcDbLine
 10
377.978511
 20
283.8
 30
0.0
 11
817.5
 21
283.8
 31
0.0
  0
LINE
  5
607
100
AcDbEntity
  8
LAY-9
  6
CONTINUOUS
 62
     1
100
AcDbLine
 10
377.978511
 20
238.8
 30
0.0
 11
817.5
 21
238.8
 31
0.0
  0
LINE
  5
608
100
AcDbEntity
  8
LAY-9
  6
DIVIDE
 62
     1
100
AcDbLine
 10
711.7
 20
408.2
 30
0.0
 11
739.7
 21
408.2
 31
0.0
  0
LINE
  5
609
100
AcDbEntity
  8
LAY-9
  6
CONTINUOUS
 62
     1
100
AcDbLine
 10
66.5
 20
124.3
 30
0.0
 11
35.7
 21
124.3
 31
0.0
  0
LINE
  5
60A
100
AcDbEntity
  8
LAY-9
  6
CONTINUOUS
 62
     1
100
AcDbLine
 10
32.7
 20
118.3
 30
0.0
 11
70.7
 21
118.3
 31
0.0
  0
LINE
  5
60B
100
AcDbEntity
  8
LAY-9
  6
CONTINUOUS
 62
     1
100
AcDbLine
 10
70.7
 20
88.3
 30
0.0
 11
32.7
 21
88.3
 31
0.0
  0
LINE
  5
60C
100
AcDbEntity
  8
LAY-9
  6
CONTINUOUS
 62
     1
100
AcDbLine
 10
32.7
 20
397.3
 30
0.0
 11
32.7
 21
314.3
 31
0.0
  0
LINE
  5
60D
100
AcDbEntity
  8
LAY-9
  6
CONTINUOUS
 62
     1
100
AcDbLine
 10
35.7
 20
394.3
 30
0.0
 11
35.7
 21
314.3
 31
0.0
  0
LINE
  5
60E
100
AcDbEntity
  8
LAY-9
  6
CONTINUOUS
 62
     1
100
AcDbLine
 10
32.7
 20
214.3
 30
0.0
 11
32.7
 21
83.8
 31
0.0
  0
LINE
  5
60F
100
AcDbEntity
  8
LAY-9
  6
CONTINUOUS
 62
     1
100
AcDbLine
 10
35.7
 20
124.3
 30
0.0
 11
35.7
 21
214.3
 31
0.0
  0
LINE
  5
610
100
AcDbEntity
  8
LAY-9
  6
CONTINUOUS
 62
     1
100
AcDbLine
 10
37.3
 20
214.3
 30
0.0
 11
37.3
 21
124.3
 31
0.0
  0
LINE
  5
611
100
AcDbEntity
  8
LAY-9
  6
CONTINUOUS
 62
     1
100
AcDbLine
 10
39.6
 20
214.3
 30
0.0
 11
39.6
 21
124.3
 31
0.0
  0
LINE
  5
612
100
AcDbEntity
  8
LAY-9
  6
CONTINUOUS
 62
     1
100
AcDbLine
 10
39.6
 20
150.3
 30
0.0
 11
67.3
 21
150.3
 31
0.0
  0
LINE
  5
613
100
AcDbEntity
  8
LAY-9
  6
CONTINUOUS
 62
     1
100
AcDbLine
 10
236.8
 20
397.3
 30
0.0
 11
288.0
 21
397.3
 31
0.0
  0
LINE
  5
614
100
AcDbEntity
  8
LAY-9
  6
CONTINUOUS
 62
     1
100
AcDbLine
 10
230.7
 20
394.3
 30
0.0
 11
288.0
 21
394.3
 31
0.0
  0
LINE
  5
615
100
AcDbEntity
  8
LAY-9
  6
CONTINUOUS
 62
     1
100
AcDbLine
 10
39.6
 20
154.8
 30
0.0
 11
288.0
 21
154.8
 31
0.0
  0
LINE
  5
616
100
AcDbEntity
  8
LAY-9
  6
CONTINUOUS
 62
     1
100
AcDbLine
 10
39.6
 20
157.1
 30
0.0
 11
288.0
 21
157.1
 31
0.0
  0
LINE
  5
617
100
AcDbEntity
  8
LAY-9
  6
CONTINUOUS
 62
     1
100
AcDbLine
 10
124.2
 20
124.3
 30
0.0
 11
288.0
 21
124.3
 31
0.0
  0
LINE
  5
618
100
AcDbEntity
  8
LAY-9
  6
CONTINUOUS
 62
     1
100
AcDbLine
 10
160.8
 20
118.3
 30
0.0
 11
288.0
 21
118.3
 31
0.0
  0
LINE
  5
619
100
AcDbEntity
  8
LAY-9
  6
CONTINUOUS
 62
     1
100
AcDbLine
 10
155.7
 20
88.3
 30
0.0
 11
288.0
 21
88.3
 31
0.0
  0
LINE
  5
61A
100
AcDbEntity
  8
LAY-9
  6
CONTINUOUS
 62
     1
100
AcDbLine
 10
32.7
 20
83.8
 30
0.0
 11
288.0
 21
83.8
 31
0.0
  0
POLYLINE
  5
61B
100
AcDbEntity
  8
LAY-9
  6
CONTINUOUS
 62
     1
100
AcDb2dPolyline
 66
     1
 10
0.0
 20
0.0
 30
0.0
 70
   128
  0
VERTEX
  5
61C
100
AcDbEntity
  8
LAY-9
  6
CONTINUOUS
 62
     1
100
AcDbVertex
100
AcDb2dVertex
 10
288.0
 20
83.8
 30
0.0
  0
VERTEX
  5
61D
100
AcDbEntity
  8
LAY-9
  6
CONTINUOUS
 62
     1
100
AcDbVertex
100
AcDb2dVertex
 10
288.003709
 20
83.859685
 30
0.0
  0
VERTEX
  5
61E
100
AcDbEntity
  8
LAY-9
  6
CONTINUOUS
 62
     1
100
AcDbVertex
100
AcDb2dVertex
 10
288.013354
 20
84.029741
 30
0.0
  0
VERTEX
  5
61F
100
AcDbEntity
  8
LAY-9
  6
CONTINUOUS
 62
     1
100
AcDbVertex
100
AcDb2dVertex
 10
288.026708
 20
84.296672
 30
0.0
  0
VERTEX
  5
620
100
AcDbEntity
  8
LAY-9
  6
CONTINUOUS
 62
     1
100
AcDbVertex
100
AcDb2dVertex
 10
288.041546
 20
84.64698
 30
0.0
  0
VERTEX
  5
621
100
AcDbEntity
  8
LAY-9
  6
CONTINUOUS
 62
     1
100
AcDbVertex
100
AcDb2dVertex
 10
288.055642
 20
85.06717
 30
0.0
  0
VERTEX
  5
622
100
AcDbEntity
  8
LAY-9
  6
CONTINUOUS
 62
     1
100
AcDbVertex
100
AcDb2dVertex
 10
288.06677
 20
85.543745
 30
0.0
  0
VERTEX
  5
623
100
AcDbEntity
  8
LAY-9
  6
CONTINUOUS
 62
     1
100
AcDbVertex
100
AcDb2dVertex
 10
288.072705
 20
86.063207
 30
0.0
  0
VERTEX
  5
624
100
AcDbEntity
  8
LAY-9
  6
CONTINUOUS
 62
     1
100
AcDbVertex
100
AcDb2dVertex
 10
288.071222
 20
86.612061
 30
0.0
  0
VERTEX
  5
625
100
AcDbEntity
  8
LAY-9
  6
CONTINUOUS
 62
     1
100
AcDbVertex
100
AcDb2dVertex
 10
288.060093
 20
87.176808
 30
0.0
  0
VERTEX
  5
626
100
AcDbEntity
  8
LAY-9
  6
CONTINUOUS
 62
     1
100
AcDbVertex
100
AcDb2dVertex
 10
288.037095
 20
87.743954
 30
0.0
  0
VERTEX
  5
627
100
AcDbEntity
  8
LAY-9
  6
CONTINUOUS
 62
     1
100
AcDbVertex
100
AcDb2dVertex
 10
288.0
 20
88.3
 30
0.0
  0
VERTEX
  5
628
100
AcDbEntity
  8
LAY-9
  6
CONTINUOUS
 62
     1
100
AcDbVertex
100
AcDb2dVertex
 10
287.886397
 20
89.298758
 30
0.0
  0
VERTEX
  5
629
100
AcDbEntity
  8
LAY-9
  6
CONTINUOUS
 62
     1
100
AcDbVertex
100
AcDb2dVertex
 10
287.723904
 20
90.218141
 30
0.0
  0
VERTEX
  5
62A
100
AcDbEntity
  8
LAY-9
  6
CONTINUOUS
 62
     1
100
AcDbVertex
100
AcDb2dVertex
 10
287.523058
 20
91.068325
 30
0.0
  0
VERTEX
  5
62B
100
AcDbEntity
  8
LAY-9
  6
CONTINUOUS
 62
     1
100
AcDbVertex
100
AcDb2dVertex
 10
287.294396
 20
91.85949
 30
0.0
  0
VERTEX
  5
62C
100
AcDbEntity
  8
LAY-9
  6
CONTINUOUS
 62
     1
100
AcDbVertex
100
AcDb2dVertex
 10
287.048454
 20
92.601812
 30
0.0
  0
VERTEX
  5
62D
100
AcDbEntity
  8
LAY-9
  6
CONTINUOUS
 62
     1
100
AcDbVertex
100
AcDb2dVertex
 10
286.79577
 20
93.305469
 30
0.0
  0
VERTEX
  5
62E
100
AcDbEntity
  8
LAY-9
  6
CONTINUOUS
 62
     1
100
AcDbVertex
100
AcDb2dVertex
 10
286.54688
 20
93.980639
 30
0.0
  0
VERTEX
  5
62F
100
AcDbEntity
  8
LAY-9
  6
CONTINUOUS
 62
     1
100
AcDbVertex
100
AcDb2dVertex
 10
286.312321
 20
94.637499
 30
0.0
  0
VERTEX
  5
630
100
AcDbEntity
  8
LAY-9
  6
CONTINUOUS
 62
     1
100
AcDbVertex
100
AcDb2dVertex
 10
286.10263
 20
95.286227
 30
0.0
  0
VERTEX
  5
631
100
AcDbEntity
  8
LAY-9
  6
CONTINUOUS
 62
     1
100
AcDbVertex
100
AcDb2dVertex
 10
285.928344
 20
95.937002
 30
0.0
  0
VERTEX
  5
632
100
AcDbEntity
  8
LAY-9
  6
CONTINUOUS
 62
     1
100
AcDbVertex
100
AcDb2dVertex
 10
285.8
 20
96.6
 30
0.0
  0
VERTEX
  5
633
100
AcDbEntity
  8
LAY-9
  6
CONTINUOUS
 62
     1
100
AcDbVertex
100
AcDb2dVertex
 10
285.711228
 20
97.53953
 30
0.0
  0
VERTEX
  5
634
100
AcDbEntity
  8
LAY-9
  6
CONTINUOUS
 62
     1
100
AcDbVertex
100
AcDb2dVertex
 10
285.714245
 20
98.516212
 30
0.0
  0
VERTEX
  5
635
100
AcDbEntity
  8
LAY-9
  6
CONTINUOUS
 62
     1
100
AcDbVertex
100
AcDb2dVertex
 10
285.795282
 20
99.52533
 30
0.0
  0
VERTEX
  5
636
100
AcDbEntity
  8
LAY-9
  6
CONTINUOUS
 62
     1
100
AcDbVertex
100
AcDb2dVertex
 10
285.940568
 20
100.562166
 30
0.0
  0
VERTEX
  5
637
100
AcDbEntity
  8
LAY-9
  6
CONTINUOUS
 62
     1
100
AcDbVertex
100
AcDb2dVertex
 10
286.136337
 20
101.622005
 30
0.0
  0
VERTEX
  5
638
100
AcDbEntity
  8
LAY-9
  6
CONTINUOUS
 62
     1
100
AcDbVertex
100
AcDb2dVertex
 10
286.368818
 20
102.700131
 30
0.0
  0
VERTEX
  5
639
100
AcDbEntity
  8
LAY-9
  6
CONTINUOUS
 62
     1
100
AcDbVertex
100
AcDb2dVertex
 10
286.624242
 20
103.791828
 30
0.0
  0
VERTEX
  5
63A
100
AcDbEntity
  8
LAY-9
  6
CONTINUOUS
 62
     1
100
AcDbVertex
100
AcDb2dVertex
 10
286.888842
 20
104.89238
 30
0.0
  0
VERTEX
  5
63B
100
AcDbEntity
  8
LAY-9
  6
CONTINUOUS
 62
     1
100
AcDbVertex
100
AcDb2dVertex
 10
287.148847
 20
105.997069
 30
0.0
  0
VERTEX
  5
63C
100
AcDbEntity
  8
LAY-9
  6
CONTINUOUS
 62
     1
100
AcDbVertex
100
AcDb2dVertex
 10
287.39049
 20
107.101182
 30
0.0
  0
VERTEX
  5
63D
100
AcDbEntity
  8
LAY-9
  6
CONTINUOUS
 62
     1
100
AcDbVertex
100
AcDb2dVertex
 10
287.6
 20
108.2
 30
0.0
  0
VERTEX
  5
63E
100
AcDbEntity
  8
LAY-9
  6
CONTINUOUS
 62
     1
100
AcDbVertex
100
AcDb2dVertex
 10
287.746104
 20
109.138949
 30
0.0
  0
VERTEX
  5
63F
100
AcDbEntity
  8
LAY-9
  6
CONTINUOUS
 62
     1
100
AcDbVertex
100
AcDb2dVertex
 10
287.861196
 20
110.071293
 30
0.0
  0
VERTEX
  5
640
100
AcDbEntity
  8
LAY-9
  6
CONTINUOUS
 62
     1
100
AcDbVertex
100
AcDb2dVertex
 10
287.948299
 20
110.99785
 30
0.0
  0
VERTEX
  5
641
100
AcDbEntity
  8
LAY-9
  6
CONTINUOUS
 62
     1
100
AcDbVertex
100
AcDb2dVertex
 10
288.010431
 20
111.919436
 30
0.0
  0
VERTEX
  5
642
100
AcDbEntity
  8
LAY-9
  6
CONTINUOUS
 62
     1
100
AcDbVertex
100
AcDb2dVertex
 10
288.050616
 20
112.836869
 30
0.0
  0
VERTEX
  5
643
100
AcDbEntity
  8
LAY-9
  6
CONTINUOUS
 62
     1
100
AcDbVertex
100
AcDb2dVertex
 10
288.071874
 20
113.750965
 30
0.0
  0
VERTEX
  5
644
100
AcDbEntity
  8
LAY-9
  6
CONTINUOUS
 62
     1
100
AcDbVertex
100
AcDb2dVertex
 10
288.077227
 20
114.662543
 30
0.0
  0
VERTEX
  5
645
100
AcDbEntity
  8
LAY-9
  6
CONTINUOUS
 62
     1
100
AcDbVertex
100
AcDb2dVertex
 10
288.069694
 20
115.572418
 30
0.0
  0
VERTEX
  5
646
100
AcDbEntity
  8
LAY-9
  6
CONTINUOUS
 62
     1
100
AcDbVertex
100
AcDb2dVertex
 10
288.052298
 20
116.481407
 30
0.0
  0
VERTEX
  5
647
100
AcDbEntity
  8
LAY-9
  6
CONTINUOUS
 62
     1
100
AcDbVertex
100
AcDb2dVertex
 10
288.02806
 20
117.390329
 30
0.0
  0
VERTEX
  5
648
100
AcDbEntity
  8
LAY-9
  6
CONTINUOUS
 62
     1
100
AcDbVertex
100
AcDb2dVertex
 10
288.0
 20
118.3
 30
0.0
  0
VERTEX
  5
649
100
AcDbEntity
  8
LAY-9
  6
CONTINUOUS
 62
     1
100
AcDbVertex
100
AcDb2dVertex
 10
287.982822
 20
118.840652
 30
0.0
  0
VERTEX
  5
64A
100
AcDbEntity
  8
LAY-9
  6
CONTINUOUS
 62
     1
100
AcDbVertex
100
AcDb2dVertex
 10
287.966291
 20
119.381958
 30
0.0
  0
VERTEX
  5
64B
100
AcDbEntity
  8
LAY-9
  6
CONTINUOUS
 62
     1
100
AcDbVertex
100
AcDb2dVertex
 10
287.951336
 20
119.924021
 30
0.0
  0
VERTEX
  5
64C
100
AcDbEntity
  8
LAY-9
  6
CONTINUOUS
 62
     1
100
AcDbVertex
100
AcDb2dVertex
 10
287.938889
 20
120.466941
 30
0.0
  0
VERTEX
  5
64D
100
AcDbEntity
  8
LAY-9
  6
CONTINUOUS
 62
     1
100
AcDbVertex
100
AcDb2dVertex
 10
287.929877
 20
121.010822
 30
0.0
  0
VERTEX
  5
64E
100
AcDbEntity
  8
LAY-9
  6
CONTINUOUS
 62
     1
100
AcDbVertex
100
AcDb2dVertex
 10
287.92523
 20
121.555766
 30
0.0
  0
VERTEX
  5
64F
100
AcDbEntity
  8
LAY-9
  6
CONTINUOUS
 62
     1
100
AcDbVertex
100
AcDb2dVertex
 10
287.925877
 20
122.101875
 30
0.0
  0
VERTEX
  5
650
100
AcDbEntity
  8
LAY-9
  6
CONTINUOUS
 62
     1
100
AcDbVertex
100
AcDb2dVertex
 10
287.932748
 20
122.64925
 30
0.0
  0
VERTEX
  5
651
100
AcDbEntity
  8
LAY-9
  6
CONTINUOUS
 62
     1
100
AcDbVertex
100
AcDb2dVertex
 10
287.946773
 20
123.197995
 30
0.0
  0
VERTEX
  5
652
100
AcDbEntity
  8
LAY-9
  6
CONTINUOUS
 62
     1
100
AcDbVertex
100
AcDb2dVertex
 10
287.96888
 20
123.748211
 30
0.0
  0
VERTEX
  5
653
100
AcDbEntity
  8
LAY-9
  6
CONTINUOUS
 62
     1
100
AcDbVertex
100
AcDb2dVertex
 10
288.0
 20
124.3
 30
0.0
  0
VERTEX
  5
654
100
AcDbEntity
  8
LAY-9
  6
CONTINUOUS
 62
     1
100
AcDbVertex
100
AcDb2dVertex
 10
288.080526
 20
125.31557
 30
0.0
  0
VERTEX
  5
655
100
AcDbEntity
  8
LAY-9
  6
CONTINUOUS
 62
     1
100
AcDbVertex
100
AcDb2dVertex
 10
288.182086
 20
126.334586
 30
0.0
  0
VERTEX
  5
656
100
AcDbEntity
  8
LAY-9
  6
CONTINUOUS
 62
     1
100
AcDbVertex
100
AcDb2dVertex
 10
288.292301
 20
127.35486
 30
0.0
  0
VERTEX
  5
657
100
AcDbEntity
  8
LAY-9
  6
CONTINUOUS
 62
     1
100
AcDbVertex
100
AcDb2dVertex
 10
288.39879
 20
128.374207
 30
0.0
  0
VERTEX
  5
658
100
AcDbEntity
  8
LAY-9
  6
CONTINUOUS
 62
     1
100
AcDbVertex
100
AcDb2dVertex
 10
288.489175
 20
129.39044
 30
0.0
  0
VERTEX
  5
659
100
AcDbEntity
  8
LAY-9
  6
CONTINUOUS
 62
     1
100
AcDbVertex
100
AcDb2dVertex
 10
288.551074
 20
130.401373
 30
0.0
  0
VERTEX
  5
65A
100
AcDbEntity
  8
LAY-9
  6
CONTINUOUS
 62
     1
100
AcDbVertex
100
AcDb2dVertex
 10
288.572109
 20
131.404818
 30
0.0
  0
VERTEX
  5
65B
100
AcDbEntity
  8
LAY-9
  6
CONTINUOUS
 62
     1
100
AcDbVertex
100
AcDb2dVertex
 10
288.539899
 20
132.39859
 30
0.0
  0
VERTEX
  5
65C
100
AcDbEntity
  8
LAY-9
  6
CONTINUOUS
 62
     1
100
AcDbVertex
100
AcDb2dVertex
 10
288.442064
 20
133.380502
 30
0.0
  0
VERTEX
  5
65D
100
AcDbEntity
  8
LAY-9
  6
CONTINUOUS
 62
     1
100
AcDbVertex
100
AcDb2dVertex
 10
288.266224
 20
134.348367
 30
0.0
  0
VERTEX
  5
65E
100
AcDbEntity
  8
LAY-9
  6
CONTINUOUS
 62
     1
100
AcDbVertex
100
AcDb2dVertex
 10
288.0
 20
135.3
 30
0.0
  0
VERTEX
  5
65F
100
AcDbEntity
  8
LAY-9
  6
CONTINUOUS
 62
     1
100
AcDbVertex
100
AcDb2dVertex
 10
287.828017
 20
135.775322
 30
0.0
  0
VERTEX
  5
660
100
AcDbEntity
  8
LAY-9
  6
CONTINUOUS
 62
     1
100
AcDbVertex
100
AcDb2dVertex
 10
287.635771
 20
136.246971
 30
0.0
  0
VERTEX
  5
661
100
AcDbEntity
  8
LAY-9
  6
CONTINUOUS
 62
     1
100
AcDbVertex
100
AcDb2dVertex
 10
287.42936
 20
136.715997
 30
0.0
  0
VERTEX
  5
662
100
AcDbEntity
  8
LAY-9
  6
CONTINUOUS
 62
     1
100
AcDbVertex
100
AcDb2dVertex
 10
287.214883
 20
137.183453
 30
0.0
  0
VERTEX
  5
663
100
AcDbEntity
  8
LAY-9
  6
CONTINUOUS
 62
     1
100
AcDbVertex
100
AcDb2dVertex
 10
286.998439
 20
137.65039
 30
0.0
  0
VERTEX
  5
664
100
AcDbEntity
  8
LAY-9
  6
CONTINUOUS
 62
     1
100
AcDbVertex
100
AcDb2dVertex
 10
286.786127
 20
138.117859
 30
0.0
  0
VERTEX
  5
665
100
AcDbEntity
  8
LAY-9
  6
CONTINUOUS
 62
     1
100
AcDbVertex
100
AcDb2dVertex
 10
286.584046
 20
138.586913
 30
0.0
  0
VERTEX
  5
666
100
AcDbEntity
  8
LAY-9
  6
CONTINUOUS
 62
     1
100
AcDbVertex
100
AcDb2dVertex
 10
286.398294
 20
139.058602
 30
0.0
  0
VERTEX
  5
667
100
AcDbEntity
  8
LAY-9
  6
CONTINUOUS
 62
     1
100
AcDbVertex
100
AcDb2dVertex
 10
286.234969
 20
139.533979
 30
0.0
  0
VERTEX
  5
668
100
AcDbEntity
  8
LAY-9
  6
CONTINUOUS
 62
     1
100
AcDbVertex
100
AcDb2dVertex
 10
286.100172
 20
140.014094
 30
0.0
  0
VERTEX
  5
669
100
AcDbEntity
  8
LAY-9
  6
CONTINUOUS
 62
     1
100
AcDbVertex
100
AcDb2dVertex
 10
286.0
 20
140.5
 30
0.0
  0
VERTEX
  5
66A
100
AcDbEntity
  8
LAY-9
  6
CONTINUOUS
 62
     1
100
AcDbVertex
100
AcDb2dVertex
 10
285.917258
 20
141.388279
 30
0.0
  0
VERTEX
  5
66B
100
AcDbEntity
  8
LAY-9
  6
CONTINUOUS
 62
     1
100
AcDbVertex
100
AcDb2dVertex
 10
285.946183
 20
142.293229
 30
0.0
  0
VERTEX
  5
66C
100
AcDbEntity
  8
LAY-9
  6
CONTINUOUS
 62
     1
100
AcDbVertex
100
AcDb2dVertex
 10
286.06719
 20
143.209466
 30
0.0
  0
VERTEX
  5
66D
100
AcDbEntity
  8
LAY-9
  6
CONTINUOUS
 62
     1
100
AcDbVertex
100
AcDb2dVertex
 10
286.260694
 20
144.131611
 30
0.0
  0
VERTEX
  5
66E
100
AcDbEntity
  8
LAY-9
  6
CONTINUOUS
 62
     1
100
AcDbVertex
100
AcDb2dVertex
 10
286.507111
 20
145.054281
 30
0.0
  0
VERTEX
  5
66F
100
AcDbEntity
  8
LAY-9
  6
CONTINUOUS
 62
     1
100
AcDbVertex
100
AcDb2dVertex
 10
286.786854
 20
145.972096
 30
0.0
  0
VERTEX
  5
670
100
AcDbEntity
  8
LAY-9
  6
CONTINUOUS
 62
     1
100
AcDbVertex
100
AcDb2dVertex
 10
287.080339
 20
146.879675
 30
0.0
  0
VERTEX
  5
671
100
AcDbEntity
  8
LAY-9
  6
CONTINUOUS
 62
     1
100
AcDbVertex
100
AcDb2dVertex
 10
287.367981
 20
147.771636
 30
0.0
  0
VERTEX
  5
672
100
AcDbEntity
  8
LAY-9
  6
CONTINUOUS
 62
     1
100
AcDbVertex
100
AcDb2dVertex
 10
287.630195
 20
148.642598
 30
0.0
  0
VERTEX
  5
673
100
AcDbEntity
  8
LAY-9
  6
CONTINUOUS
 62
     1
100
AcDbVertex
100
AcDb2dVertex
 10
287.847397
 20
149.48718
 30
0.0
  0
VERTEX
  5
674
100
AcDbEntity
  8
LAY-9
  6
CONTINUOUS
 62
     1
100
AcDbVertex
100
AcDb2dVertex
 10
288.0
 20
150.3
 30
0.0
  0
VERTEX
  5
675
100
AcDbEntity
  8
LAY-9
  6
CONTINUOUS
 62
     1
100
AcDbVertex
100
AcDb2dVertex
 10
288.04302
 20
150.654751
 30
0.0
  0
VERTEX
  5
676
100
AcDbEntity
  8
LAY-9
  6
CONTINUOUS
 62
     1
100
AcDbVertex
100
AcDb2dVertex
 10
288.07111
 20
151.00658
 30
0.0
  0
VERTEX
  5
677
100
AcDbEntity
  8
LAY-9
  6
CONTINUOUS
 62
     1
100
AcDbVertex
100
AcDb2dVertex
 10
288.086377
 20
151.360084
 30
0.0
  0
VERTEX
  5
678
100
AcDbEntity
  8
LAY-9
  6
CONTINUOUS
 62
     1
100
AcDbVertex
100
AcDb2dVertex
 10
288.090931
 20
151.71986
 30
0.0
  0
VERTEX
  5
679
100
AcDbEntity
  8
LAY-9
  6
CONTINUOUS
 62
     1
100
AcDbVertex
100
AcDb2dVertex
 10
288.086881
 20
152.090503
 30
0.0
  0
VERTEX
  5
67A
100
AcDbEntity
  8
LAY-9
  6
CONTINUOUS
 62
     1
100
AcDbVertex
100
AcDb2dVertex
 10
288.076336
 20
152.476611
 30
0.0
  0
VERTEX
  5
67B
100
AcDbEntity
  8
LAY-9
  6
CONTINUOUS
 62
     1
100
AcDbVertex
100
AcDb2dVertex
 10
288.061404
 20
152.88278
 30
0.0
  0
VERTEX
  5
67C
100
AcDbEntity
  8
LAY-9
  6
CONTINUOUS
 62
     1
100
AcDbVertex
100
AcDb2dVertex
 10
288.044196
 20
153.313607
 30
0.0
  0
VERTEX
  5
67D
100
AcDbEntity
  8
LAY-9
  6
CONTINUOUS
 62
     1
100
AcDbVertex
100
AcDb2dVertex
 10
288.02682
 20
153.773688
 30
0.0
  0
VERTEX
  5
67E
100
AcDbEntity
  8
LAY-9
  6
CONTINUOUS
 62
     1
100
AcDbVertex
100
AcDb2dVertex
 10
288.011385
 20
154.26762
 30
0.0
  0
VERTEX
  5
67F
100
AcDbEntity
  8
LAY-9
  6
CONTINUOUS
 62
     1
100
AcDbVertex
100
AcDb2dVertex
 10
288.0
 20
154.8
 30
0.0
  0
VERTEX
  5
680
100
AcDbEntity
  8
LAY-9
  6
CONTINUOUS
 62
     1
100
AcDbVertex
100
AcDb2dVertex
 10
287.996343
 20
155.087216
 30
0.0
  0
VERTEX
  5
681
100
AcDbEntity
  8
LAY-9
  6
CONTINUOUS
 62
     1
100
AcDbVertex
100
AcDb2dVertex
 10
287.994076
 20
155.37896
 30
0.0
  0
VERTEX
  5
682
100
AcDbEntity
  8
LAY-9
  6
CONTINUOUS
 62
     1
100
AcDbVertex
100
AcDb2dVertex
 10
287.992979
 20
155.668513
 30
0.0
  0
VERTEX
  5
683
100
AcDbEntity
  8
LAY-9
  6
CONTINUOUS
 62
     1
100
AcDbVertex
100
AcDb2dVertex
 10
287.992833
 20
155.949159
 30
0.0
  0
VERTEX
  5
684
100
AcDbEntity
  8
LAY-9
  6
CONTINUOUS
 62
     1
100
AcDbVertex
100
AcDb2dVertex
 10
287.993418
 20
156.21418
 30
0.0
  0
VERTEX
  5
685
100
AcDbEntity
  8
LAY-9
  6
CONTINUOUS
 62
     1
100
AcDbVertex
100
AcDb2dVertex
 10
287.994515
 20
156.456858
 30
0.0
  0
VERTEX
  5
686
100
AcDbEntity
  8
LAY-9
  6
CONTINUOUS
 62
     1
100
AcDbVertex
100
AcDb2dVertex
 10
287.995904
 20
156.670476
 30
0.0
  0
VERTEX
  5
687
100
AcDbEntity
  8
LAY-9
  6
CONTINUOUS
 62
     1
100
AcDbVertex
100
AcDb2dVertex
 10
287.997367
 20
156.848316
 30
0.0
  0
VERTEX
  5
688
100
AcDbEntity
  8
LAY-9
  6
CONTINUOUS
 62
     1
100
AcDbVertex
100
AcDb2dVertex
 10
287.998684
 20
156.983662
 30
0.0
  0
VERTEX
  5
689
100
AcDbEntity
  8
LAY-9
  6
CONTINUOUS
 62
     1
100
AcDbVertex
100
AcDb2dVertex
 10
287.999634
 20
157.069796
 30
0.0
  0
VERTEX
  5
68A
100
AcDbEntity
  8
LAY-9
  6
CONTINUOUS
 62
     1
100
AcDbVertex
100
AcDb2dVertex
 10
288.0
 20
157.1
 30
0.0
  0
SEQEND
  5
68B
100
AcDbEntity
  8
LAY-9
  6
CONTINUOUS
 62
     1
  0
LINE
  5
68C
100
AcDbEntity
  8
LAY-9
  6
CONTINUOUS
 62
     1
100
AcDbLine
 10
37.3
 20
394.3
 30
0.0
 11
37.3
 21
314.3
 31
0.0
  0
LINE
  5
68D
100
AcDbEntity
  8
LAY-9
  6
CONTINUOUS
 62
     1
100
AcDbLine
 10
39.6
 20
394.3
 30
0.0
 11
39.6
 21
314.3
 31
0.0
  0
LINE
  5
68E
100
AcDbEntity
  8
LAY-9
  6
CONTINUOUS
 62
     1
100
AcDbLine
 10
39.6
 20
392.7
 30
0.0
 11
55.7
 21
392.7
 31
0.0
  0
LINE
  5
68F
100
AcDbEntity
  8
LAY-9
  6
CONTINUOUS
 62
     1
100
AcDbLine
 10
230.7
 20
392.7
 30
0.0
 11
288.1
 21
392.7
 31
0.0
  0
POLYLINE
  5
690
100
AcDbEntity
  8
LAY-9
  6
CONTINUOUS
 62
     1
100
AcDb2dPolyline
 66
     1
 10
0.0
 20
0.0
 30
0.0
 70
   128
  0
VERTEX
  5
691
100
AcDbEntity
  8
LAY-9
  6
CONTINUOUS
 62
     1
100
AcDbVertex
100
AcDb2dVertex
 10
288.0
 20
394.3
 30
0.0
  0
VERTEX
  5
692
100
AcDbEntity
  8
LAY-9
  6
CONTINUOUS
 62
     1
100
AcDbVertex
100
AcDb2dVertex
 10
288.003062
 20
394.279292
 30
0.0
  0
VERTEX
  5
693
100
AcDbEntity
  8
LAY-9
  6
CONTINUOUS
 62
     1
100
AcDbVertex
100
AcDb2dVertex
 10
288.011354
 20
394.220161
 30
0.0
  0
VERTEX
  5
694
100
AcDbEntity
  8
LAY-9
  6
CONTINUOUS
 62
     1
100
AcDbVertex
100
AcDb2dVertex
 10
288.023534
 20
394.1271
 30
0.0
  0
VERTEX
  5
695
100
AcDbEntity
  8
LAY-9
  6
CONTINUOUS
 62
     1
100
AcDbVertex
100
AcDb2dVertex
 10
288.038261
 20
394.004598
 30
0.0
  0
VERTEX
  5
696
100
AcDbEntity
  8
LAY-9
  6
CONTINUOUS
 62
     1
100
AcDbVertex
100
AcDb2dVertex
 10
288.054194
 20
393.857146
 30
0.0
  0
VERTEX
  5
697
100
AcDbEntity
  8
LAY-9
  6
CONTINUOUS
 62
     1
100
AcDbVertex
100
AcDb2dVertex
 10
288.069992
 20
393.689237
 30
0.0
  0
VERTEX
  5
698
100
AcDbEntity
  8
LAY-9
  6
CONTINUOUS
 62
     1
100
AcDbVertex
100
AcDb2dVertex
 10
288.084312
 20
393.50536
 30
0.0
  0
VERTEX
  5
699
100
AcDbEntity
  8
LAY-9
  6
CONTINUOUS
 62
     1
100
AcDbVertex
100
AcDb2dVertex
 10
288.095815
 20
393.310007
 30
0.0
  0
VERTEX
  5
69A
100
AcDbEntity
  8
LAY-9
  6
CONTINUOUS
 62
     1
100
AcDbVertex
100
AcDb2dVertex
 10
288.103158
 20
393.107668
 30
0.0
  0
VERTEX
  5
69B
100
AcDbEntity
  8
LAY-9
  6
CONTINUOUS
 62
     1
100
AcDbVertex
100
AcDb2dVertex
 10
288.105
 20
392.902836
 30
0.0
  0
VERTEX
  5
69C
100
AcDbEntity
  8
LAY-9
  6
CONTINUOUS
 62
     1
100
AcDbVertex
100
AcDb2dVertex
 10
288.1
 20
392.7
 30
0.0
  0
VERTEX
  5
69D
100
AcDbEntity
  8
LAY-9
  6
CONTINUOUS
 62
     1
100
AcDbVertex
100
AcDb2dVertex
 10
288.022716
 20
392.043118
 30
0.0
  0
VERTEX
  5
69E
100
AcDbEntity
  8
LAY-9
  6
CONTINUOUS
 62
     1
100
AcDbVertex
100
AcDb2dVertex
 10
287.862823
 20
391.455728
 30
0.0
  0
VERTEX
  5
69F
100
AcDbEntity
  8
LAY-9
  6
CONTINUOUS
 62
     1
100
AcDbVertex
100
AcDb2dVertex
 10
287.636039
 20
390.929367
 30
0.0
  0
VERTEX
  5
6A0
100
AcDbEntity
  8
LAY-9
  6
CONTINUOUS
 62
     1
100
AcDbVertex
100
AcDb2dVertex
 10
287.358084
 20
390.455572
 30
0.0
  0
VERTEX
  5
6A1
100
AcDbEntity
  8
LAY-9
  6
CONTINUOUS
 62
     1
100
AcDbVertex
100
AcDb2dVertex
 10
287.044677
 20
390.025881
 30
0.0
  0
VERTEX
  5
6A2
100
AcDbEntity
  8
LAY-9
  6
CONTINUOUS
 62
     1
100
AcDbVertex
100
AcDb2dVertex
 10
286.711536
 20
389.631832
 30
0.0
  0
VERTEX
  5
6A3
100
AcDbEntity
  8
LAY-9
  6
CONTINUOUS
 62
     1
100
AcDbVertex
100
AcDb2dVertex
 10
286.374381
 20
389.26496
 30
0.0
  0
VERTEX
  5
6A4
100
AcDbEntity
  8
LAY-9
  6
CONTINUOUS
 62
     1
100
AcDbVertex
100
AcDb2dVertex
 10
286.048931
 20
388.916804
 30
0.0
  0
VERTEX
  5
6A5
100
AcDbEntity
  8
LAY-9
  6
CONTINUOUS
 62
     1
100
AcDbVertex
100
AcDb2dVertex
 10
285.750905
 20
388.5789
 30
0.0
  0
VERTEX
  5
6A6
100
AcDbEntity
  8
LAY-9
  6
CONTINUOUS
 62
     1
100
AcDbVertex
100
AcDb2dVertex
 10
285.496022
 20
388.242787
 30
0.0
  0
VERTEX
  5
6A7
100
AcDbEntity
  8
LAY-9
  6
CONTINUOUS
 62
     1
100
AcDbVertex
100
AcDb2dVertex
 10
285.3
 20
387.9
 30
0.0
  0
VERTEX
  5
6A8
100
AcDbEntity
  8
LAY-9
  6
CONTINUOUS
 62
     1
100
AcDbVertex
100
AcDb2dVertex
 10
285.143265
 20
387.396351
 30
0.0
  0
VERTEX
  5
6A9
100
AcDbEntity
  8
LAY-9
  6
CONTINUOUS
 62
     1
100
AcDbVertex
100
AcDb2dVertex
 10
285.108956
 20
386.860644
 30
0.0
  0
VERTEX
  5
6AA
100
AcDbEntity
  8
LAY-9
  6
CONTINUOUS
 62
     1
100
AcDbVertex
100
AcDb2dVertex
 10
285.17338
 20
386.290476
 30
0.0
  0
VERTEX
  5
6AB
100
AcDbEntity
  8
LAY-9
  6
CONTINUOUS
 62
     1
100
AcDbVertex
100
AcDb2dVertex
 10
285.312844
 20
385.683441
 30
0.0
  0
VERTEX
  5
6AC
100
AcDbEntity
  8
LAY-9
  6
CONTINUOUS
 62
     1
100
AcDbVertex
100
AcDb2dVertex
 10
285.503654
 20
385.037136
 30
0.0
  0
VERTEX
  5
6AD
100
AcDbEntity
  8
LAY-9
  6
CONTINUOUS
 62
     1
100
AcDbVertex
100
AcDb2dVertex
 10
285.722119
 20
384.349157
 30
0.0
  0
VERTEX
  5
6AE
100
AcDbEntity
  8
LAY-9
  6
CONTINUOUS
 62
     1
100
AcDbVertex
100
AcDb2dVertex
 10
285.944545
 20
383.617099
 30
0.0
  0
VERTEX
  5
6AF
100
AcDbEntity
  8
LAY-9
  6
CONTINUOUS
 62
     1
100
AcDbVertex
100
AcDb2dVertex
 10
286.147238
 20
382.838559
 30
0.0
  0
VERTEX
  5
6B0
100
AcDbEntity
  8
LAY-9
  6
CONTINUOUS
 62
     1
100
AcDbVertex
100
AcDb2dVertex
 10
286.306508
 20
382.011131
 30
0.0
  0
VERTEX
  5
6B1
100
AcDbEntity
  8
LAY-9
  6
CONTINUOUS
 62
     1
100
AcDbVertex
100
AcDb2dVertex
 10
286.398659
 20
381.132413
 30
0.0
  0
VERTEX
  5
6B2
100
AcDbEntity
  8
LAY-9
  6
CONTINUOUS
 62
     1
100
AcDbVertex
100
AcDb2dVertex
 10
286.4
 20
380.2
 30
0.0
  0
VERTEX
  5
6B3
100
AcDbEntity
  8
LAY-9
  6
CONTINUOUS
 62
     1
100
AcDbVertex
100
AcDb2dVertex
 10
286.359387
 20
379.703049
 30
0.0
  0
VERTEX
  5
6B4
100
AcDbEntity
  8
LAY-9
  6
CONTINUOUS
 62
     1
100
AcDbVertex
100
AcDb2dVertex
 10
286.29467
 20
379.202196
 30
0.0
  0
VERTEX
  5
6B5
100
AcDbEntity
  8
LAY-9
  6
CONTINUOUS
 62
     1
100
AcDbVertex
100
AcDb2dVertex
 10
286.211742
 20
378.708235
 30
0.0
  0
VERTEX
  5
6B6
100
AcDbEntity
  8
LAY-9
  6
CONTINUOUS
 62
     1
100
AcDbVertex
100
AcDb2dVertex
 10
286.116498
 20
378.23196
 30
0.0
  0
VERTEX
  5
6B7
100
AcDbEntity
  8
LAY-9
  6
CONTINUOUS
 62
     1
100
AcDbVertex
100
AcDb2dVertex
 10
286.01483
 20
377.784166
 30
0.0
  0
VERTEX
  5
6B8
100
AcDbEntity
  8
LAY-9
  6
CONTINUOUS
 62
     1
100
AcDbVertex
100
AcDb2dVertex
 10
285.912634
 20
377.375648
 30
0.0
  0
VERTEX
  5
6B9
100
AcDbEntity
  8
LAY-9
  6
CONTINUOUS
 62
     1
100
AcDbVertex
100
AcDb2dVertex
 10
285.815803
 20
377.0172
 30
0.0
  0
VERTEX
  5
6BA
100
AcDbEntity
  8
LAY-9
  6
CONTINUOUS
 62
     1
100
AcDbVertex
100
AcDb2dVertex
 10
285.73023
 20
376.719617
 30
0.0
  0
VERTEX
  5
6BB
100
AcDbEntity
  8
LAY-9
  6
CONTINUOUS
 62
     1
100
AcDbVertex
100
AcDb2dVertex
 10
285.661809
 20
376.493693
 30
0.0
  0
VERTEX
  5
6BC
100
AcDbEntity
  8
LAY-9
  6
CONTINUOUS
 62
     1
100
AcDbVertex
100
AcDb2dVertex
 10
285.616435
 20
376.350222
 30
0.0
  0
VERTEX
  5
6BD
100
AcDbEntity
  8
LAY-9
  6
CONTINUOUS
 62
     1
100
AcDbVertex
100
AcDb2dVertex
 10
285.6
 20
376.3
 30
0.0
  0
SEQEND
  5
6BE
100
AcDbEntity
  8
LAY-9
  6
CONTINUOUS
 62
     1
  0
POLYLINE
  5
6BF
100
AcDbEntity
  8
LAY-9
  6
CONTINUOUS
 62
     1
100
AcDb2dPolyline
 66
     1
 10
0.0
 20
0.0
 30
0.0
 70
   128
  0
VERTEX
  5
6C0
100
AcDbEntity
  8
LAY-9
  6
CONTINUOUS
 62
     1
100
AcDbVertex
100
AcDb2dVertex
 10
288.0
 20
397.3
 30
0.0
  0
VERTEX
  5
6C1
100
AcDbEntity
  8
LAY-9
  6
CONTINUOUS
 62
     1
100
AcDbVertex
100
AcDb2dVertex
 10
287.982225
 20
397.337687
 30
0.0
  0
VERTEX
  5
6C2
100
AcDbEntity
  8
LAY-9
  6
CONTINUOUS
 62
     1
100
AcDbVertex
100
AcDb2dVertex
 10
287.932375
 20
397.444928
 30
0.0
  0
VERTEX
  5
6C3
100
AcDbEntity
  8
LAY-9
  6
CONTINUOUS
 62
     1
100
AcDbVertex
100
AcDb2dVertex
 10
287.855659
 20
397.612996
 30
0.0
  0
VERTEX
  5
6C4
100
AcDbEntity
  8
LAY-9
  6
CONTINUOUS
 62
     1
100
AcDbVertex
100
AcDb2dVertex
 10
287.757288
 20
397.833164
 30
0.0
  0
VERTEX
  5
6C5
100
AcDbEntity
  8
LAY-9
  6
CONTINUOUS
 62
     1
100
AcDbVertex
100
AcDb2dVertex
 10
287.642471
 20
398.096704
 30
0.0
  0
VERTEX
  5
6C6
100
AcDbEntity
  8
LAY-9
  6
CONTINUOUS
 62
     1
100
AcDbVertex
100
AcDb2dVertex
 10
287.51642
 20
398.394888
 30
0.0
  0
VERTEX
  5
6C7
100
AcDbEntity
  8
LAY-9
  6
CONTINUOUS
 62
     1
100
AcDbVertex
100
AcDb2dVertex
 10
287.384344
 20
398.718988
 30
0.0
  0
VERTEX
  5
6C8
100
AcDbEntity
  8
LAY-9
  6
CONTINUOUS
 62
     1
100
AcDbVertex
100
AcDb2dVertex
 10
287.251454
 20
399.060277
 30
0.0
  0
VERTEX
  5
6C9
100
AcDbEntity
  8
LAY-9
  6
CONTINUOUS
 62
     1
100
AcDbVertex
100
AcDb2dVertex
 10
287.12296
 20
399.410027
 30
0.0
  0
VERTEX
  5
6CA
100
AcDbEntity
  8
LAY-9
  6
CONTINUOUS
 62
     1
100
AcDbVertex
100
AcDb2dVertex
 10
287.004072
 20
399.759511
 30
0.0
  0
VERTEX
  5
6CB
100
AcDbEntity
  8
LAY-9
  6
CONTINUOUS
 62
     1
100
AcDbVertex
100
AcDb2dVertex
 10
286.9
 20
400.1
 30
0.0
  0
VERTEX
  5
6CC
100
AcDbEntity
  8
LAY-9
  6
CONTINUOUS
 62
     1
100
AcDbVertex
100
AcDb2dVertex
 10
286.75837
 20
400.681954
 30
0.0
  0
VERTEX
  5
6CD
100
AcDbEntity
  8
LAY-9
  6
CONTINUOUS
 62
     1
100
AcDbVertex
100
AcDb2dVertex
 10
286.67554
 20
401.215252
 30
0.0
  0
VERTEX
  5
6CE
100
AcDbEntity
  8
LAY-9
  6
CONTINUOUS
 62
     1
100
AcDbVertex
100
AcDb2dVertex
 10
286.643169
 20
401.710648
 30
0.0
  0
VERTEX
  5
6CF
100
AcDbEntity
  8
LAY-9
  6
CONTINUOUS
 62
     1
100
AcDbVertex
100
AcDb2dVertex
 10
286.652919
 20
402.178897
 30
0.0
  0
VERTEX
  5
6D0
100
AcDbEntity
  8
LAY-9
  6
CONTINUOUS
 62
     1
100
AcDbVertex
100
AcDb2dVertex
 10
286.696449
 20
402.630756
 30
0.0
  0
VERTEX
  5
6D1
100
AcDbEntity
  8
LAY-9
  6
CONTINUOUS
 62
     1
100
AcDbVertex
100
AcDb2dVertex
 10
286.765419
 20
403.076979
 30
0.0
  0
VERTEX
  5
6D2
100
AcDbEntity
  8
LAY-9
  6
CONTINUOUS
 62
     1
100
AcDbVertex
100
AcDb2dVertex
 10
286.851491
 20
403.528322
 30
0.0
  0
VERTEX
  5
6D3
100
AcDbEntity
  8
LAY-9
  6
CONTINUOUS
 62
     1
100
AcDbVertex
100
AcDb2dVertex
 10
286.946325
 20
403.99554
 30
0.0
  0
VERTEX
  5
6D4
100
AcDbEntity
  8
LAY-9
  6
CONTINUOUS
 62
     1
100
AcDbVertex
100
AcDb2dVertex
 10
287.041581
 20
404.489389
 30
0.0
  0
VERTEX
  5
6D5
100
AcDbEntity
  8
LAY-9
  6
CONTINUOUS
 62
     1
100
AcDbVertex
100
AcDb2dVertex
 10
287.128919
 20
405.020624
 30
0.0
  0
VERTEX
  5
6D6
100
AcDbEntity
  8
LAY-9
  6
CONTINUOUS
 62
     1
100
AcDbVertex
100
AcDb2dVertex
 10
287.2
 20
405.6
 30
0.0
  0
VERTEX
  5
6D7
100
AcDbEntity
  8
LAY-9
  6
CONTINUOUS
 62
     1
100
AcDbVertex
100
AcDb2dVertex
 10
287.244239
 20
406.160412
 30
0.0
  0
VERTEX
  5
6D8
100
AcDbEntity
  8
LAY-9
  6
CONTINUOUS
 62
     1
100
AcDbVertex
100
AcDb2dVertex
 10
287.271667
 20
406.750033
 30
0.0
  0
VERTEX
  5
6D9
100
AcDbEntity
  8
LAY-9
  6
CONTINUOUS
 62
     1
100
AcDbVertex
100
AcDb2dVertex
 10
287.284938
 20
407.351462
 30
0.0
  0
VERTEX
  5
6DA
100
AcDbEntity
  8
LAY-9
  6
CONTINUOUS
 62
     1
100
AcDbVertex
100
AcDb2dVertex
 10
287.286708
 20
407.9473
 30
0.0
  0
VERTEX
  5
6DB
100
AcDbEntity
  8
LAY-9
  6
CONTINUOUS
 62
     1
100
AcDbVertex
100
AcDb2dVertex
 10
287.27963
 20
408.520147
 30
0.0
  0
VERTEX
  5
6DC
100
AcDbEntity
  8
LAY-9
  6
CONTINUOUS
 62
     1
100
AcDbVertex
100
AcDb2dVertex
 10
287.266358
 20
409.052601
 30
0.0
  0
VERTEX
  5
6DD
100
AcDbEntity
  8
LAY-9
  6
CONTINUOUS
 62
     1
100
AcDbVertex
100
AcDb2dVertex
 10
287.249547
 20
409.527265
 30
0.0
  0
VERTEX
  5
6DE
100
AcDbEntity
  8
LAY-9
  6
CONTINUOUS
 62
     1
100
AcDbVertex
100
AcDb2dVertex
 10
287.231852
 20
409.926736
 30
0.0
  0
VERTEX
  5
6DF
100
AcDbEntity
  8
LAY-9
  6
CONTINUOUS
 62
     1
100
AcDbVertex
100
AcDb2dVertex
 10
287.215926
 20
410.233616
 30
0.0
  0
VERTEX
  5
6E0
100
AcDbEntity
  8
LAY-9
  6
CONTINUOUS
 62
     1
100
AcDbVertex
100
AcDb2dVertex
 10
287.204424
 20
410.430504
 30
0.0
  0
VERTEX
  5
6E1
100
AcDbEntity
  8
LAY-9
  6
CONTINUOUS
 62
     1
100
AcDbVertex
100
AcDb2dVertex
 10
287.2
 20
410.5
 30
0.0
  0
SEQEND
  5
6E2
100
AcDbEntity
  8
LAY-9
  6
CONTINUOUS
 62
     1
  0
LINE
  5
6E3
100
AcDbEntity
  8
LAY-9
  6
CONTINUOUS
 62
     1
100
AcDbLine
 10
703.2
 20
392.8
 30
0.0
 11
703.2
 21
314.3
 31
0.0
  0
LINE
  5
6E4
100
AcDbEntity
  8
LAY-9
  6
CONTINUOUS
 62
     1
100
AcDbLine
 10
708.7
 20
394.3
 30
0.0
 11
704.7
 21
394.3
 31
0.0
  0
ARC
  5
6E5
100
AcDbEntity
  8
LAY-9
  6
CONTINUOUS
 62
     1
100
AcDbCircle
 10
704.7
 20
392.8
 30
0.0
 40
1.5
100
AcDbArc
 50
90.0
 51
180.0
  0
LINE
  5
6E6
100
AcDbEntity
  8
LAY-9
  6
CONTINUOUS
 62
     1
100
AcDbLine
 10
742.7
 20
394.3
 30
0.0
 11
746.7
 21
394.3
 31
0.0
  0
ARC
  5
6E7
100
AcDbEntity
  8
LAY-9
  6
CONTINUOUS
 62
     1
100
AcDbCircle
 10
746.7
 20
392.8
 30
0.0
 40
1.5
100
AcDbArc
 50
0.0
 51
90.0
  0
LINE
  5
6E8
100
AcDbEntity
  8
LAY-9
  6
CONTINUOUS
 62
     1
100
AcDbLine
 10
742.7
 20
392.7
 30
0.0
 11
746.6
 21
392.7
 31
0.0
  0
LINE
  5
6E9
100
AcDbEntity
  8
LAY-9
  6
CONTINUOUS
 62
     1
100
AcDbLine
 10
704.8
 20
392.7
 30
0.0
 11
708.7
 21
392.7
 31
0.0
  0
LINE
  5
6EA
100
AcDbEntity
  8
LAY-9
  6
CONTINUOUS
 62
     1
100
AcDbLine
 10
707.1
 20
390.4
 30
0.0
 11
707.1
 21
377.7
 31
0.0
  0
LINE
  5
6EB
100
AcDbEntity
  8
LAY-9
  6
CONTINUOUS
 62
     1
100
AcDbLine
 10
744.3
 20
390.4
 30
0.0
 11
744.3
 21
377.7
 31
0.0
  0
LINE
  5
6EC
100
AcDbEntity
  8
LAY-9
  6
CONTINUOUS
 62
     1
100
AcDbLine
 10
744.3
 20
377.7
 30
0.0
 11
746.6
 21
377.7
 31
0.0
  0
LINE
  5
6ED
100
AcDbEntity
  8
LAY-9
  6
CONTINUOUS
 62
     1
100
AcDbLine
 10
704.8
 20
377.7
 30
0.0
 11
707.1
 21
377.7
 31
0.0
  0
LINE
  5
6EE
100
AcDbEntity
  8
LAY-9
  6
CONTINUOUS
 62
     1
100
AcDbLine
 10
742.7
 20
390.4
 30
0.0
 11
744.3
 21
390.4
 31
0.0
  0
LINE
  5
6EF
100
AcDbEntity
  8
LAY-9
  6
CONTINUOUS
 62
     1
100
AcDbLine
 10
707.1
 20
390.4
 30
0.0
 11
708.7
 21
390.4
 31
0.0
  0
ARC
  5
6F0
100
AcDbEntity
  8
LAY-9
  6
CONTINUOUS
 62
     1
100
AcDbCircle
 10
706.8
 20
390.7
 30
0.0
 40
2.0
100
AcDbArc
 50
90.0
 51
180.0
  0
ARC
  5
6F1
100
AcDbEntity
  8
LAY-9
  6
CONTINUOUS
 62
     1
100
AcDbCircle
 10
744.6
 20
390.7
 30
0.0
 40
2.0
100
AcDbArc
 50
0.0
 51
90.0
  0
LINE
  5
6F2
100
AcDbEntity
  8
LAY-9
  6
CONTINUOUS
 62
     1
100
AcDbLine
 10
704.8
 20
392.7
 30
0.0
 11
704.8
 21
314.3
 31
0.0
  0
LINE
  5
6F3
100
AcDbEntity
  8
LAY-9
  6
CONTINUOUS
 62
     1
100
AcDbLine
 10
705.7
 20
397.3
 30
0.0
 11
675.7
 21
397.3
 31
0.0
  0
LINE
  5
6F4
100
AcDbEntity
  8
LAY-9
  6
CONTINUOUS
 62
     1
100
AcDbLine
 10
745.7
 20
397.3
 30
0.0
 11
775.7
 21
397.3
 31
0.0
  0
LINE
  5
6F5
100
AcDbEntity
  8
LAY-9
  6
CONTINUOUS
 62
     1
100
AcDbLine
 10
744.7
 20
403.7
 30
0.0
 11
744.7
 21
408.2
 31
0.0
  0
LINE
  5
6F6
100
AcDbEntity
  8
LAY-9
  6
CONTINUOUS
 62
     1
100
AcDbLine
 10
708.7
 20
403.7
 30
0.0
 11
706.7
 21
403.7
 31
0.0
  0
LINE
  5
6F7
100
AcDbEntity
  8
LAY-9
  6
CONTINUOUS
 62
     1
100
AcDbLine
 10
706.7
 20
408.2
 30
0.0
 11
711.7
 21
408.2
 31
0.0
  0
LINE
  5
6F8
100
AcDbEntity
  8
LAY-9
  6
CONTINUOUS
 62
     1
100
AcDbLine
 10
706.7
 20
403.7
 30
0.0
 11
706.7
 21
408.2
 31
0.0
  0
LINE
  5
6F9
100
AcDbEntity
  8
LAY-9
  6
CONTINUOUS
 62
     1
100
AcDbLine
 10
739.7
 20
408.2
 30
0.0
 11
744.7
 21
408.2
 31
0.0
  0
LINE
  5
6FA
100
AcDbEntity
  8
LAY-9
  6
CONTINUOUS
 62
     1
100
AcDbLine
 10
742.7
 20
403.7
 30
0.0
 11
744.7
 21
403.7
 31
0.0
  0
LINE
  5
6FB
100
AcDbEntity
  8
LAY-9
  6
DIVIDE
 62
     1
100
AcDbLine
 10
744.7
 20
408.2
 30
0.0
 11
706.7
 21
403.7
 31
0.0
  0
LINE
  5
6FC
100
AcDbEntity
  8
LAY-9
  6
DIVIDE
 62
     1
100
AcDbLine
 10
706.7
 20
408.2
 30
0.0
 11
744.7
 21
403.7
 31
0.0
  0
LINE
  5
6FD
100
AcDbEntity
  8
LAY-9
  6
CONTINUOUS
 62
     1
100
AcDbLine
 10
746.6
 20
124.3
 30
0.0
 11
748.2
 21
124.3
 31
0.0
  0
LINE
  5
6FE
100
AcDbEntity
  8
LAY-9
  6
CONTINUOUS
 62
     1
100
AcDbLine
 10
703.2
 20
124.3
 30
0.0
 11
704.8
 21
124.3
 31
0.0
  0
LINE
  5
6FF
100
AcDbEntity
  8
LAY-9
  6
CONTINUOUS
 62
     1
100
AcDbLine
 10
744.3
 20
126.3
 30
0.0
 11
746.6
 21
126.3
 31
0.0
  0
LINE
  5
700
100
AcDbEntity
  8
LAY-9
  6
CONTINUOUS
 62
     1
100
AcDbLine
 10
704.8
 20
126.3
 30
0.0
 11
707.1
 21
126.3
 31
0.0
  0
LINE
  5
701
100
AcDbEntity
  8
LAY-9
  6
CONTINUOUS
 62
     1
100
AcDbLine
 10
707.1
 20
154.8
 30
0.0
 11
744.3
 21
154.8
 31
0.0
  0
LINE
  5
702
100
AcDbEntity
  8
LAY-9
  6
CONTINUOUS
 62
     1
100
AcDbLine
 10
744.3
 20
150.3
 30
0.0
 11
741.4
 21
150.3
 31
0.0
  0
LINE
  5
703
100
AcDbEntity
  8
LAY-9
  6
CONTINUOUS
 62
     1
100
AcDbLine
 10
707.1
 20
150.3
 30
0.0
 11
710.2
 21
150.3
 31
0.0
  0
LINE
  5
704
100
AcDbEntity
  8
LAY-9
  6
CONTINUOUS
 62
     1
100
AcDbLine
 10
744.3
 20
154.8
 30
0.0
 11
707.1
 21
150.3
 31
0.0
  0
LINE
  5
705
100
AcDbEntity
  8
LAY-9
  6
CONTINUOUS
 62
     1
100
AcDbLine
 10
707.1
 20
154.8
 30
0.0
 11
744.3
 21
150.3
 31
0.0
  0
LINE
  5
706
100
AcDbEntity
  8
LAY-9
  6
CONTINUOUS
 62
     1
100
AcDbLine
 10
744.3
 20
154.8
 30
0.0
 11
744.3
 21
126.3
 31
0.0
  0
LINE
  5
707
100
AcDbEntity
  8
LAY-9
  6
CONTINUOUS
 62
     1
100
AcDbLine
 10
707.1
 20
154.8
 30
0.0
 11
707.1
 21
126.3
 31
0.0
  0
ARC
  5
708
100
AcDbEntity
  8
LAY-9
  6
CONTINUOUS
 62
     1
100
AcDbCircle
 10
706.8
 20
155.1
 30
0.0
 40
2.0
100
AcDbArc
 50
90.0
 51
180.0
  0
ARC
  5
709
100
AcDbEntity
  8
LAY-9
  6
CONTINUOUS
 62
     1
100
AcDbCircle
 10
744.6
 20
155.1
 30
0.0
 40
2.0
100
AcDbArc
 50
0.0
 51
90.0
  0
LINE
  5
70A
100
AcDbEntity
  8
LAY-9
  6
CONTINUOUS
 62
     1
100
AcDbLine
 10
706.8
 20
157.1
 30
0.0
 11
744.6
 21
157.1
 31
0.0
  0
LINE
  5
70B
100
AcDbEntity
  8
LAY-9
  6
CONTINUOUS
 62
     1
100
AcDbLine
 10
748.2
 20
189.2
 30
0.0
 11
748.2
 21
124.3
 31
0.0
  0
LINE
  5
70C
100
AcDbEntity
  8
LAY-9
  6
CONTINUOUS
 62
     1
100
AcDbLine
 10
746.6
 20
189.2
 30
0.0
 11
746.6
 21
124.3
 31
0.0
  0
LINE
  5
70D
100
AcDbEntity
  8
LAY-9
  6
CONTINUOUS
 62
     1
100
AcDbLine
 10
704.8
 20
189.2
 30
0.0
 11
704.8
 21
124.3
 31
0.0
  0
LINE
  5
70E
100
AcDbEntity
  8
LAY-9
  6
CONTINUOUS
 62
     1
100
AcDbLine
 10
703.2
 20
124.3
 30
0.0
 11
703.2
 21
189.2
 31
0.0
  0
LINE
  5
70F
100
AcDbEntity
  8
LAY-9
  6
CONTINUOUS
 62
     1
100
AcDbLine
 10
747.7
 20
116.3
 30
0.0
 11
751.2
 21
116.3
 31
0.0
  0
LINE
  5
710
100
AcDbEntity
  8
LAY-9
  6
CONTINUOUS
 62
     1
100
AcDbLine
 10
750.7
 20
118.3
 30
0.0
 11
751.2
 21
118.3
 31
0.0
  0
ARC
  5
711
100
AcDbEntity
  8
LAY-9
  6
CONTINUOUS
 62
     1
100
AcDbCircle
 10
751.2
 20
116.3
 30
0.0
 40
2.0
100
AcDbArc
 50
0.0
 51
90.0
  0
LINE
  5
712
100
AcDbEntity
  8
LAY-9
  6
CONTINUOUS
 62
     1
100
AcDbLine
 10
753.2
 20
116.3
 30
0.0
 11
753.2
 21
78.3
 31
0.0
  0
LINE
  5
713
100
AcDbEntity
  8
LAY-9
  6
CONTINUOUS
 62
     1
100
AcDbLine
 10
751.2
 20
116.3
 30
0.0
 11
751.2
 21
78.3
 31
0.0
  0
LINE
  5
714
100
AcDbEntity
  8
LAY-9
  6
CONTINUOUS
 62
     1
100
AcDbLine
 10
751.2
 20
78.3
 30
0.0
 11
753.2
 21
78.3
 31
0.0
  0
LINE
  5
715
100
AcDbEntity
  8
LAY-9
  6
CONTINUOUS
 62
     1
100
AcDbLine
 10
703.7
 20
116.3
 30
0.0
 11
700.2
 21
116.3
 31
0.0
  0
LINE
  5
716
100
AcDbEntity
  8
LAY-9
  6
CONTINUOUS
 62
     1
100
AcDbLine
 10
700.7
 20
118.3
 30
0.0
 11
700.2
 21
118.3
 31
0.0
  0
ARC
  5
717
100
AcDbEntity
  8
LAY-9
  6
CONTINUOUS
 62
     1
100
AcDbCircle
 10
700.2
 20
116.3
 30
0.0
 40
2.0
100
AcDbArc
 50
90.0
 51
180.0
  0
LINE
  5
718
100
AcDbEntity
  8
LAY-9
  6
CONTINUOUS
 62
     1
100
AcDbLine
 10
703.7
 20
116.3
 30
0.0
 11
700.2
 21
116.3
 31
0.0
  0
LINE
  5
719
100
AcDbEntity
  8
LAY-9
  6
CONTINUOUS
 62
     1
100
AcDbLine
 10
700.7
 20
118.3
 30
0.0
 11
700.2
 21
118.3
 31
0.0
  0
ARC
  5
71A
100
AcDbEntity
  8
LAY-9
  6
CONTINUOUS
 62
     1
100
AcDbCircle
 10
700.2
 20
116.3
 30
0.0
 40
2.0
100
AcDbArc
 50
90.0
 51
180.0
  0
LINE
  5
71B
100
AcDbEntity
  8
LAY-9
  6
CONTINUOUS
 62
     1
100
AcDbLine
 10
700.2
 20
116.3
 30
0.0
 11
700.2
 21
78.3
 31
0.0
  0
LINE
  5
71C
100
AcDbEntity
  8
LAY-9
  6
CONTINUOUS
 62
     1
100
AcDbLine
 10
698.2
 20
116.3
 30
0.0
 11
698.2
 21
78.3
 31
0.0
  0
LINE
  5
71D
100
AcDbEntity
  8
LAY-9
  6
CONTINUOUS
 62
     1
100
AcDbLine
 10
700.2
 20
78.3
 30
0.0
 11
698.2
 21
78.3
 31
0.0
  0
LINE
  5
71E
100
AcDbEntity
  8
LAY-9
  6
CONTINUOUS
 62
     1
100
AcDbLine
 10
700.3
 20
83.8
 30
0.0
 11
751.2
 21
83.8
 31
0.0
  0
LINE
  5
71F
100
AcDbEntity
  8
LAY-9
  6
CONTINUOUS
 62
     1
100
AcDbLine
 10
747.7
 20
88.3
 30
0.0
 11
751.2
 21
88.3
 31
0.0
  0
LINE
  5
720
100
AcDbEntity
  8
LAY-9
  6
CONTINUOUS
 62
     1
100
AcDbLine
 10
700.2
 20
88.3
 30
0.0
 11
703.7
 21
88.3
 31
0.0
  0
LINE
  5
721
100
AcDbEntity
  8
LAY-9
  6
CONTINUOUS
 62
     1
100
AcDbLine
 10
751.2
 20
88.3
 30
0.0
 11
700.3
 21
83.8
 31
0.0
  0
LINE
  5
722
100
AcDbEntity
  8
LAY-9
  6
CONTINUOUS
 62
     1
100
AcDbLine
 10
700.2
 20
88.3
 30
0.0
 11
751.2
 21
83.8
 31
0.0
  0
LINE
  5
723
100
AcDbEntity
  8
LAY-9
  6
CONTINUOUS
 62
     1
100
AcDbLine
 10
748.2
 20
392.8
 30
0.0
 11
748.2
 21
314.3
 31
0.0
  0
LINE
  5
724
100
AcDbEntity
  8
LAY-9
  6
CONTINUOUS
 62
     1
100
AcDbLine
 10
746.6
 20
392.7
 30
0.0
 11
746.6
 21
314.3
 31
0.0
  0
POLYLINE
  5
725
100
AcDbEntity
  8
LAY-9
  6
CONTINUOUS
 62
     1
100
AcDb2dPolyline
 66
     1
 10
0.0
 20
0.0
 30
0.0
 70
   128
  0
VERTEX
  5
726
100
AcDbEntity
  8
LAY-9
  6
CONTINUOUS
 62
     1
100
AcDbVertex
100
AcDb2dVertex
 10
641.2
 20
115.3
 30
0.0
  0
VERTEX
  5
727
100
AcDbEntity
  8
LAY-9
  6
CONTINUOUS
 62
     1
100
AcDbVertex
100
AcDb2dVertex
 10
641.138491
 20
115.161044
 30
0.0
  0
VERTEX
  5
728
100
AcDbEntity
  8
LAY-9
  6
CONTINUOUS
 62
     1
100
AcDbVertex
100
AcDb2dVertex
 10
640.969999
 20
114.767776
 30
0.0
  0
VERTEX
  5
729
100
AcDbEntity
  8
LAY-9
  6
CONTINUOUS
 62
     1
100
AcDbVertex
100
AcDb2dVertex
 10
640.718573
 20
114.155591
 30
0.0
  0
VERTEX
  5
72A
100
AcDbEntity
  8
LAY-9
  6
CONTINUOUS
 62
     1
100
AcDbVertex
100
AcDb2dVertex
 10
640.408263
 20
113.359887
 30
0.0
  0
VERTEX
  5
72B
100
AcDbEntity
  8
LAY-9
  6
CONTINUOUS
 62
     1
100
AcDbVertex
100
AcDb2dVertex
 10
640.063118
 20
112.416061
 30
0.0
  0
VERTEX
  5
72C
100
AcDbEntity
  8
LAY-9
  6
CONTINUOUS
 62
     1
100
AcDbVertex
100
AcDb2dVertex
 10
639.70719
 20
111.35951
 30
0.0
  0
VERTEX
  5
72D
100
AcDbEntity
  8
LAY-9
  6
CONTINUOUS
 62
     1
100
AcDbVertex
100
AcDb2dVertex
 10
639.364527
 20
110.225631
 30
0.0
  0
VERTEX
  5
72E
100
AcDbEntity
  8
LAY-9
  6
CONTINUOUS
 62
     1
100
AcDbVertex
100
AcDb2dVertex
 10
639.05918
 20
109.049822
 30
0.0
  0
VERTEX
  5
72F
100
AcDbEntity
  8
LAY-9
  6
CONTINUOUS
 62
     1
100
AcDbVertex
100
AcDb2dVertex
 10
638.815198
 20
107.867478
 30
0.0
  0
VERTEX
  5
730
100
AcDbEntity
  8
LAY-9
  6
CONTINUOUS
 62
     1
100
AcDbVertex
100
AcDb2dVertex
 10
638.656632
 20
106.713997
 30
0.0
  0
VERTEX
  5
731
100
AcDbEntity
  8
LAY-9
  6
CONTINUOUS
 62
     1
100
AcDbVertex
100
AcDb2dVertex
 10
638.607532
 20
105.624777
 30
0.0
  0
VERTEX
  5
732
100
AcDbEntity
  8
LAY-9
  6
CONTINUOUS
 62
     1
100
AcDbVertex
100
AcDb2dVertex
 10
638.674514
 20
104.692415
 30
0.0
  0
VERTEX
  5
733
100
AcDbEntity
  8
LAY-9
  6
CONTINUOUS
 62
     1
100
AcDbVertex
100
AcDb2dVertex
 10
638.835858
 20
103.830485
 30
0.0
  0
VERTEX
  5
734
100
AcDbEntity
  8
LAY-9
  6
CONTINUOUS
 62
     1
100
AcDbVertex
100
AcDb2dVertex
 10
639.070267
 20
103.023092
 30
0.0
  0
VERTEX
  5
735
100
AcDbEntity
  8
LAY-9
  6
CONTINUOUS
 62
     1
100
AcDbVertex
100
AcDb2dVertex
 10
639.356445
 20
102.25434
 30
0.0
  0
VERTEX
  5
736
100
AcDbEntity
  8
LAY-9
  6
CONTINUOUS
 62
     1
100
AcDbVertex
100
AcDb2dVertex
 10
639.673098
 20
101.508335
 30
0.0
  0
VERTEX
  5
737
100
AcDbEntity
  8
LAY-9
  6
CONTINUOUS
 62
     1
100
AcDbVertex
100
AcDb2dVertex
 10
639.998928
 20
100.76918
 30
0.0
  0
VERTEX
  5
738
100
AcDbEntity
  8
LAY-9
  6
CONTINUOUS
 62
     1
100
AcDbVertex
100
AcDb2dVertex
 10
640.312641
 20
100.02098
 30
0.0
  0
VERTEX
  5
739
100
AcDbEntity
  8
LAY-9
  6
CONTINUOUS
 62
     1
100
AcDbVertex
100
AcDb2dVertex
 10
640.592941
 20
99.24784
 30
0.0
  0
VERTEX
  5
73A
100
AcDbEntity
  8
LAY-9
  6
CONTINUOUS
 62
     1
100
AcDbVertex
100
AcDb2dVertex
 10
640.818531
 20
98.433865
 30
0.0
  0
VERTEX
  5
73B
100
AcDbEntity
  8
LAY-9
  6
CONTINUOUS
 62
     1
100
AcDbVertex
100
AcDb2dVertex
 10
640.968117
 20
97.563158
 30
0.0
  0
VERTEX
  5
73C
100
AcDbEntity
  8
LAY-9
  6
CONTINUOUS
 62
     1
100
AcDbVertex
100
AcDb2dVertex
 10
641.020401
 20
96.619826
 30
0.0
  0
VERTEX
  5
73D
100
AcDbEntity
  8
LAY-9
  6
CONTINUOUS
 62
     1
100
AcDbVertex
100
AcDb2dVertex
 10
640.961445
 20
95.597902
 30
0.0
  0
VERTEX
  5
73E
100
AcDbEntity
  8
LAY-9
  6
CONTINUOUS
 62
     1
100
AcDbVertex
100
AcDb2dVertex
 10
640.805856
 20
94.520059
 30
0.0
  0
VERTEX
  5
73F
100
AcDbEntity
  8
LAY-9
  6
CONTINUOUS
 62
     1
100
AcDbVertex
100
AcDb2dVertex
 10
640.575177
 20
93.418586
 30
0.0
  0
VERTEX
  5
740
100
AcDbEntity
  8
LAY-9
  6
CONTINUOUS
 62
     1
100
AcDbVertex
100
AcDb2dVertex
 10
640.290953
 20
92.325771
 30
0.0
  0
VERTEX
  5
741
100
AcDbEntity
  8
LAY-9
  6
CONTINUOUS
 62
     1
100
AcDbVertex
100
AcDb2dVertex
 10
639.974727
 20
91.273905
 30
0.0
  0
VERTEX
  5
742
100
AcDbEntity
  8
LAY-9
  6
CONTINUOUS
 62
     1
100
AcDbVertex
100
AcDb2dVertex
 10
639.648044
 20
90.295276
 30
0.0
  0
VERTEX
  5
743
100
AcDbEntity
  8
LAY-9
  6
CONTINUOUS
 62
     1
100
AcDbVertex
100
AcDb2dVertex
 10
639.332448
 20
89.422173
 30
0.0
  0
VERTEX
  5
744
100
AcDbEntity
  8
LAY-9
  6
CONTINUOUS
 62
     1
100
AcDbVertex
100
AcDb2dVertex
 10
639.049481
 20
88.686887
 30
0.0
  0
VERTEX
  5
745
100
AcDbEntity
  8
LAY-9
  6
CONTINUOUS
 62
     1
100
AcDbVertex
100
AcDb2dVertex
 10
638.820689
 20
88.121705
 30
0.0
  0
VERTEX
  5
746
100
AcDbEntity
  8
LAY-9
  6
CONTINUOUS
 62
     1
100
AcDbVertex
100
AcDb2dVertex
 10
638.667614
 20
87.758917
 30
0.0
  0
VERTEX
  5
747
100
AcDbEntity
  8
LAY-9
  6
CONTINUOUS
 62
     1
100
AcDbVertex
100
AcDb2dVertex
 10
638.611802
 20
87.630812
 30
0.0
  0
SEQEND
  5
748
100
AcDbEntity
  8
LAY-9
  6
CONTINUOUS
 62
     1
  0
LINE
  5
749
100
AcDbEntity
  8
LAY-9
  6
CONTINUOUS
 62
     1
100
AcDbLine
 10
698.2
 20
115.3
 30
0.0
 11
641.2
 21
115.3
 31
0.0
  0
POLYLINE
  5
74A
100
AcDbEntity
  8
LAY-9
  6
CONTINUOUS
 62
     1
100
AcDb2dPolyline
 66
     1
 10
0.0
 20
0.0
 30
0.0
 70
   128
  0
VERTEX
  5
74B
100
AcDbEntity
  8
LAY-9
  6
CONTINUOUS
 62
     1
100
AcDbVertex
100
AcDb2dVertex
 10
803.6
 20
115.3
 30
0.0
  0
VERTEX
  5
74C
100
AcDbEntity
  8
LAY-9
  6
CONTINUOUS
 62
     1
100
AcDbVertex
100
AcDb2dVertex
 10
803.538491
 20
115.161044
 30
0.0
  0
VERTEX
  5
74D
100
AcDbEntity
  8
LAY-9
  6
CONTINUOUS
 62
     1
100
AcDbVertex
100
AcDb2dVertex
 10
803.369999
 20
114.767776
 30
0.0
  0
VERTEX
  5
74E
100
AcDbEntity
  8
LAY-9
  6
CONTINUOUS
 62
     1
100
AcDbVertex
100
AcDb2dVertex
 10
803.118573
 20
114.155591
 30
0.0
  0
VERTEX
  5
74F
100
AcDbEntity
  8
LAY-9
  6
CONTINUOUS
 62
     1
100
AcDbVertex
100
AcDb2dVertex
 10
802.808263
 20
113.359887
 30
0.0
  0
VERTEX
  5
750
100
AcDbEntity
  8
LAY-9
  6
CONTINUOUS
 62
     1
100
AcDbVertex
100
AcDb2dVertex
 10
802.463118
 20
112.416061
 30
0.0
  0
VERTEX
  5
751
100
AcDbEntity
  8
LAY-9
  6
CONTINUOUS
 62
     1
100
AcDbVertex
100
AcDb2dVertex
 10
802.10719
 20
111.35951
 30
0.0
  0
VERTEX
  5
752
100
AcDbEntity
  8
LAY-9
  6
CONTINUOUS
 62
     1
100
AcDbVertex
100
AcDb2dVertex
 10
801.764527
 20
110.225631
 30
0.0
  0
VERTEX
  5
753
100
AcDbEntity
  8
LAY-9
  6
CONTINUOUS
 62
     1
100
AcDbVertex
100
AcDb2dVertex
 10
801.45918
 20
109.049822
 30
0.0
  0
VERTEX
  5
754
100
AcDbEntity
  8
LAY-9
  6
CONTINUOUS
 62
     1
100
AcDbVertex
100
AcDb2dVertex
 10
801.215198
 20
107.867478
 30
0.0
  0
VERTEX
  5
755
100
AcDbEntity
  8
LAY-9
  6
CONTINUOUS
 62
     1
100
AcDbVertex
100
AcDb2dVertex
 10
801.056632
 20
106.713997
 30
0.0
  0
VERTEX
  5
756
100
AcDbEntity
  8
LAY-9
  6
CONTINUOUS
 62
     1
100
AcDbVertex
100
AcDb2dVertex
 10
801.007532
 20
105.624777
 30
0.0
  0
VERTEX
  5
757
100
AcDbEntity
  8
LAY-9
  6
CONTINUOUS
 62
     1
100
AcDbVertex
100
AcDb2dVertex
 10
801.074514
 20
104.692415
 30
0.0
  0
VERTEX
  5
758
100
AcDbEntity
  8
LAY-9
  6
CONTINUOUS
 62
     1
100
AcDbVertex
100
AcDb2dVertex
 10
801.235858
 20
103.830485
 30
0.0
  0
VERTEX
  5
759
100
AcDbEntity
  8
LAY-9
  6
CONTINUOUS
 62
     1
100
AcDbVertex
100
AcDb2dVertex
 10
801.470267
 20
103.023092
 30
0.0
  0
VERTEX
  5
75A
100
AcDbEntity
  8
LAY-9
  6
CONTINUOUS
 62
     1
100
AcDbVertex
100
AcDb2dVertex
 10
801.756445
 20
102.25434
 30
0.0
  0
VERTEX
  5
75B
100
AcDbEntity
  8
LAY-9
  6
CONTINUOUS
 62
     1
100
AcDbVertex
100
AcDb2dVertex
 10
802.073098
 20
101.508335
 30
0.0
  0
VERTEX
  5
75C
100
AcDbEntity
  8
LAY-9
  6
CONTINUOUS
 62
     1
100
AcDbVertex
100
AcDb2dVertex
 10
802.398928
 20
100.76918
 30
0.0
  0
VERTEX
  5
75D
100
AcDbEntity
  8
LAY-9
  6
CONTINUOUS
 62
     1
100
AcDbVertex
100
AcDb2dVertex
 10
802.712641
 20
100.02098
 30
0.0
  0
VERTEX
  5
75E
100
AcDbEntity
  8
LAY-9
  6
CONTINUOUS
 62
     1
100
AcDbVertex
100
AcDb2dVertex
 10
802.992941
 20
99.24784
 30
0.0
  0
VERTEX
  5
75F
100
AcDbEntity
  8
LAY-9
  6
CONTINUOUS
 62
     1
100
AcDbVertex
100
AcDb2dVertex
 10
803.218531
 20
98.433865
 30
0.0
  0
VERTEX
  5
760
100
AcDbEntity
  8
LAY-9
  6
CONTINUOUS
 62
     1
100
AcDbVertex
100
AcDb2dVertex
 10
803.368117
 20
97.563158
 30
0.0
  0
VERTEX
  5
761
100
AcDbEntity
  8
LAY-9
  6
CONTINUOUS
 62
     1
100
AcDbVertex
100
AcDb2dVertex
 10
803.420401
 20
96.619826
 30
0.0
  0
VERTEX
  5
762
100
AcDbEntity
  8
LAY-9
  6
CONTINUOUS
 62
     1
100
AcDbVertex
100
AcDb2dVertex
 10
803.361445
 20
95.597902
 30
0.0
  0
VERTEX
  5
763
100
AcDbEntity
  8
LAY-9
  6
CONTINUOUS
 62
     1
100
AcDbVertex
100
AcDb2dVertex
 10
803.205856
 20
94.520059
 30
0.0
  0
VERTEX
  5
764
100
AcDbEntity
  8
LAY-9
  6
CONTINUOUS
 62
     1
100
AcDbVertex
100
AcDb2dVertex
 10
802.975177
 20
93.418586
 30
0.0
  0
VERTEX
  5
765
100
AcDbEntity
  8
LAY-9
  6
CONTINUOUS
 62
     1
100
AcDbVertex
100
AcDb2dVertex
 10
802.690953
 20
92.325771
 30
0.0
  0
VERTEX
  5
766
100
AcDbEntity
  8
LAY-9
  6
CONTINUOUS
 62
     1
100
AcDbVertex
100
AcDb2dVertex
 10
802.374727
 20
91.273905
 30
0.0
  0
VERTEX
  5
767
100
AcDbEntity
  8
LAY-9
  6
CONTINUOUS
 62
     1
100
AcDbVertex
100
AcDb2dVertex
 10
802.048044
 20
90.295276
 30
0.0
  0
VERTEX
  5
768
100
AcDbEntity
  8
LAY-9
  6
CONTINUOUS
 62
     1
100
AcDbVertex
100
AcDb2dVertex
 10
801.732448
 20
89.422173
 30
0.0
  0
VERTEX
  5
769
100
AcDbEntity
  8
LAY-9
  6
CONTINUOUS
 62
     1
100
AcDbVertex
100
AcDb2dVertex
 10
801.449481
 20
88.686887
 30
0.0
  0
VERTEX
  5
76A
100
AcDbEntity
  8
LAY-9
  6
CONTINUOUS
 62
     1
100
AcDbVertex
100
AcDb2dVertex
 10
801.220689
 20
88.121705
 30
0.0
  0
VERTEX
  5
76B
100
AcDbEntity
  8
LAY-9
  6
CONTINUOUS
 62
     1
100
AcDbVertex
100
AcDb2dVertex
 10
801.067614
 20
87.758917
 30
0.0
  0
VERTEX
  5
76C
100
AcDbEntity
  8
LAY-9
  6
CONTINUOUS
 62
     1
100
AcDbVertex
100
AcDb2dVertex
 10
801.011802
 20
87.630812
 30
0.0
  0
SEQEND
  5
76D
100
AcDbEntity
  8
LAY-9
  6
CONTINUOUS
 62
     1
  0
LINE
  5
76E
100
AcDbEntity
  8
LAY-9
  6
CONTINUOUS
 62
     1
100
AcDbLine
 10
803.6
 20
115.3
 30
0.0
 11
753.2
 21
115.3
 31
0.0
  0
LINE
  5
76F
100
AcDbEntity
  8
LAY-9
  6
CONTINUOUS
 62
     1
100
AcDbLine
 10
115.7
 20
383.4
 30
0.0
 11
230.7
 21
383.4
 31
0.0
  0
LINE
  5
770
100
AcDbEntity
  8
LAY-9
  6
CONTINUOUS
 62
     1
100
AcDbLine
 10
115.7
 20
387.9
 30
0.0
 11
230.7
 21
383.4
 31
0.0
  0
LINE
  5
771
100
AcDbEntity
  8
LAY-9
  6
CONTINUOUS
 62
     1
100
AcDbLine
 10
230.7
 20
387.9
 30
0.0
 11
115.7
 21
383.4
 31
0.0
  0
LINE
  5
772
100
AcDbEntity
  8
LAY-10
  6
CONTINUOUS
 62
     5
100
AcDbLine
 10
15.0
 20
15.0
 30
0.0
 11
826.0
 21
15.0
 31
0.0
  0
LINE
  5
773
100
AcDbEntity
  8
LAY-10
  6
CONTINUOUS
 62
     5
100
AcDbLine
 10
826.0
 20
15.0
 30
0.0
 11
826.0
 21
579.0
 31
0.0
  0
LINE
  5
774
100
AcDbEntity
  8
LAY-10
  6
CONTINUOUS
 62
     5
100
AcDbLine
 10
15.0
 20
15.0
 30
0.0
 11
15.0
 21
579.0
 31
0.0
  0
LINE
  5
775
100
AcDbEntity
  8
LAY-10
  6
CONTINUOUS
 62
     5
100
AcDbLine
 10
15.0
 20
579.0
 30
0.0
 11
826.0
 21
579.0
 31
0.0
  0
LINE
  5
776
100
AcDbEntity
  8
LAY-10
  6
CONTINUOUS
 62
     5
100
AcDbLine
 10
15.0
 20
40.0
 30
0.0
 11
826.0
 21
40.0
 31
0.0
  0
LINE
  5
777
100
AcDbEntity
  8
LAY-10
  6
CONTINUOUS
 62
     1
100
AcDbLine
 10
224.0
 20
40.0
 30
0.0
 11
224.0
 21
15.0
 31
0.0
  0
LINE
  5
778
100
AcDbEntity
  8
LAY-10
  6
CONTINUOUS
 62
     1
100
AcDbLine
 10
249.5
 20
40.0
 30
0.0
 11
249.5
 21
15.0
 31
0.0
  0
LINE
  5
779
100
AcDbEntity
  8
LAY-10
  6
CONTINUOUS
 62
     1
100
AcDbLine
 10
275.0
 20
40.0
 30
0.0
 11
275.0
 21
15.0
 31
0.0
  0
LINE
  5
77A
100
AcDbEntity
  8
LAY-10
  6
CONTINUOUS
 62
     1
100
AcDbLine
 10
300.5
 20
40.0
 30
0.0
 11
300.5
 21
15.0
 31
0.0
  0
LINE
  5
77B
100
AcDbEntity
  8
LAY-10
  6
CONTINUOUS
 62
     1
100
AcDbLine
 10
326.0
 20
40.0
 30
0.0
 11
326.0
 21
15.0
 31
0.0
  0
LINE
  5
77C
100
AcDbEntity
  8
LAY-10
  6
CONTINUOUS
 62
     1
100
AcDbLine
 10
377.0
 20
40.0
 30
0.0
 11
377.0
 21
15.0
 31
0.0
  0
LINE
  5
77D
100
AcDbEntity
  8
LAY-10
  6
CONTINUOUS
 62
     1
100
AcDbLine
 10
738.0
 20
40.0
 30
0.0
 11
738.0
 21
15.0
 31
0.0
  0
LINE
  5
77E
100
AcDbEntity
  8
LAY-10
  6
CONTINUOUS
 62
     1
100
AcDbLine
 10
224.0
 20
32.0
 30
0.0
 11
377.0
 21
32.0
 31
0.0
  0
TEXT
  5
77F
100
AcDbEntity
  8
LAY-10
  6
CONTINUOUS
 62
     4
100
AcDbText
 10
227.5
 20
33.0
 30
0.0
 40
6.0
  1
検　  図
 41
0.57856
  7
EXCADSTD
 72
     5
 11
246.700001
 21
33.0
 31
0.0
100
AcDbText
  0
TEXT
  5
780
100
AcDbEntity
  8
LAY-10
  6
CONTINUOUS
 62
     4
100
AcDbText
 10
253.2
 20
33.0
 30
0.0
 40
6.0
  1
担　　当
 41
0.672
  7
EXCADSTD
 72
     5
 11
272.400001
 21
33.0
 31
0.0
100
AcDbText
  0
TEXT
  5
781
100
AcDbEntity
  8
LAY-10
  6
CONTINUOUS
 62
     4
100
AcDbText
 10
278.4
 20
33.0
 30
0.0
 40
6.0
  1
製　　図
 41
0.672
  7
EXCADSTD
 72
     5
 11
297.600001
 21
33.0
 31
0.0
100
AcDbText
  0
TEXT
  5
782
100
AcDbEntity
  8
LAY-10
  6
CONTINUOUS
 62
     4
100
AcDbText
 10
303.9
 20
33.0
 30
0.0
 40
6.0
  1
尺　　度
 41
0.672
  7
EXCADSTD
 72
     5
 11
323.100001
 21
33.0
 31
0.0
100
AcDbText
  0
TEXT
  5
783
100
AcDbEntity
  8
LAY-10
  6
CONTINUOUS
 62
     4
100
AcDbText
 10
339.5
 20
33.0
 30
0.0
 40
6.0
  1
作成年月日
 41
0.672
  7
EXCADSTD
 72
     5
 11
363.500001
 21
33.0
 31
0.0
100
AcDbText
  0
TEXT
  5
784
100
AcDbEntity
  8
LAY-10
  6
CONTINUOUS
 62
   134
100
AcDbText
 10
42.98
 20
20.91
 30
0.0
 40
13.0
  1
日本ドアーチエック製造株式会社
 41
0.653908
  7
EXCADSTD
 72
     5
 11
194.779994
 21
20.91
 31
0.0
100
AcDbText
  0
LINE
  5
785
100
AcDbEntity
  8
LAY-10
  6
CONTINUOUS
 62
     1
100
AcDbLine
 10
841.0
 20
0.0
 30
0.0
 11
841.0
 21
2.0
 31
0.0
  0
LINE
  5
786
100
AcDbEntity
  8
LAY-10
  6
CONTINUOUS
 62
     1
100
AcDbLine
 10
841.0
 20
592.0
 30
0.0
 11
841.0
 21
594.0
 31
0.0
  0
LINE
  5
787
100
AcDbEntity
  8
LAY-10
  6
CONTINUOUS
 62
     1
100
AcDbLine
 10
841.0
 20
594.0
 30
0.0
 11
839.0
 21
594.0
 31
0.0
  0
LINE
  5
788
100
AcDbEntity
  8
LAY-10
  6
CONTINUOUS
 62
     1
100
AcDbLine
 10
2.0
 20
594.0
 30
0.0
 11
0.0
 21
594.0
 31
0.0
  0
LINE
  5
789
100
AcDbEntity
  8
LAY-10
  6
CONTINUOUS
 62
     1
100
AcDbLine
 10
0.0
 20
594.0
 30
0.0
 11
0.0
 21
592.0
 31
0.0
  0
LINE
  5
78A
100
AcDbEntity
  8
LAY-10
  6
CONTINUOUS
 62
     1
100
AcDbLine
 10
0.0
 20
2.0
 30
0.0
 11
0.0
 21
0.0
 31
0.0
  0
LINE
  5
78B
100
AcDbEntity
  8
LAY-10
  6
CONTINUOUS
 62
     1
100
AcDbLine
 10
0.0
 20
0.0
 30
0.0
 11
2.0
 21
0.0
 31
0.0
  0
LINE
  5
78C
100
AcDbEntity
  8
LAY-10
  6
CONTINUOUS
 62
     1
100
AcDbLine
 10
839.0
 20
0.0
 30
0.0
 11
841.0
 21
0.0
 31
0.0
  0
TEXT
  5
78D
100
AcDbEntity
  8
LAY-10
  6
CONTINUOUS
 62
     4
100
AcDbText
 10
383.0
 20
33.0
 30
0.0
 40
6.0
  1
図 面 名
 41
0.57856
  7
EXCADSTD
 72
     5
 11
402.200001
 21
33.0
 31
0.0
100
AcDbText
  0
TEXT
  5
78E
100
AcDbEntity
  8
LAY-10
  6
CONTINUOUS
 62
     4
100
AcDbText
 10
744.0
 20
33.0
 30
0.0
 40
6.0
  1
図面番号
 41
0.672
  7
EXCADSTD
 72
     5
 11
763.200001
 21
33.0
 31
0.0
100
AcDbText
  0
TEXT
  5
78F
100
AcDbEntity
  8
LAY-10
  6
CONTINUOUS
 62
     2
100
AcDbText
 10
306.5
 20
20.2
 30
0.0
 40
6.0
  1
１／１
 41
0.672
  7
EXCADSTD
 72
     5
 11
320.900001
 21
20.2
 31
0.0
100
AcDbText
  0
TEXT
  5
790
100
AcDbEntity
  8
LAY-10
  6
CONTINUOUS
 62
     2
100
AcDbText
 10
406.828367
 20
19.274519
 30
0.0
 40
10.0
  1
ピボットヒンジ　Ｃ－３(沓摺格納型 )　納まり図
 41
0.653429
  7
EXCADSTD
 72
     5
 11
582.828367
 21
19.274519
 31
0.0
100
AcDbText
  0
ENDSEC
  0
SECTION
  2
OBJECTS
  0
DICTIONARY
  5
19
100
AcDbDictionary
  3
ACAD_GROUP
350
1A
  3
ACAD_MLINESTYLE
350
1B
  0
DICTIONARY
  5
1A
102
{ACAD_REACTORS
330
19
102
}
100
AcDbDictionary
  0
DICTIONARY
  5
1B
102
{ACAD_REACTORS
330
19
102
}
100
AcDbDictionary
  3
STANDARD
350
1C
  0
MLINESTYLE
  5
1C
102
{ACAD_REACTORS
330
1B
102
}
100
AcDbMlineStyle
  2
Standard
 70
     0
  3

 62
     0
 51
90.0
 52
90.0
 71
     2
 49
0.5
 62
   256
  6
ByLayer
 49
-0.5
 62
   256
  6
ByLayer
  0
ENDSEC
  0
EOF
