  0
SECTION
  2
HEADER
  9
$ACADVER
  1
AC1014
  9
$ACADMAINTVER
 70
     0
  9
$DWGCODEPAGE
  3
ANSI_932
  9
$INSBASE
 10
0.0
 20
0.0
 30
0.0
  9
$EXTMIN
 10
0.0
 20
0.0
 30
0.0
  9
$EXTMAX
 10
841.0
 20
594.0
 30
0.0
  9
$LIMMIN
 10
0.0
 20
0.0
  9
$LIMMAX
 10
841.0
 20
594.0
  9
$ORTHOMODE
 70
     0
  9
$REGENMODE
 70
     1
  9
$FILLMODE
 70
     1
  9
$QTEXTMODE
 70
     0
  9
$MIRRTEXT
 70
     1
  9
$DRAGMODE
 70
     2
  9
$LTSCALE
 40
1.0
  9
$OSMODE
 70
     0
  9
$ATTMODE
 70
     1
  9
$TEXTSIZE
 40
0.2
  9
$TRACEWID
 40
0.05
  9
$TEXTSTYLE
  7
STANDARD
  9
$CLAYER
  8
LAY-1
  9
$CELTYPE
  6
CONTINUOUS
  9
$CECOLOR
 62
   256
  9
$CELTSCALE
 40
1.0
  9
$DELOBJ
 70
     1
  9
$DISPSILH
 70
     0
  9
$DIMSCALE
 40
1.0
  9
$DIMASZ
 40
0.18
  9
$DIMEXO
 40
0.0625
  9
$DIMDLI
 40
0.38
  9
$DIMRND
 40
0.0
  9
$DIMDLE
 40
0.0
  9
$DIMEXE
 40
0.18
  9
$DIMTP
 40
0.0
  9
$DIMTM
 40
0.0
  9
$DIMTXT
 40
0.18
  9
$DIMCEN
 40
0.09
  9
$DIMTSZ
 40
0.0
  9
$DIMTOL
 70
     0
  9
$DIMLIM
 70
     0
  9
$DIMTIH
 70
     1
  9
$DIMTOH
 70
     1
  9
$DIMSE1
 70
     0
  9
$DIMSE2
 70
     0
  9
$DIMTAD
 70
     0
  9
$DIMZIN
 70
     0
  9
$DIMBLK
  1

  9
$DIMASO
 70
     1
  9
$DIMSHO
 70
     1
  9
$DIMPOST
  1

  9
$DIMAPOST
  1

  9
$DIMALT
 70
     0
  9
$DIMALTD
 70
     2
  9
$DIMALTF
 40
25.4
  9
$DIMLFAC
 40
1.0
  9
$DIMTOFL
 70
     0
  9
$DIMTVP
 40
0.0
  9
$DIMTIX
 70
     0
  9
$DIMSOXD
 70
     0
  9
$DIMSAH
 70
     0
  9
$DIMBLK1
  1

  9
$DIMBLK2
  1

  9
$DIMSTYLE
  2
STANDARD
  9
$DIMCLRD
 70
     0
  9
$DIMCLRE
 70
     0
  9
$DIMCLRT
 70
     0
  9
$DIMTFAC
 40
1.0
  9
$DIMGAP
 40
0.09
  9
$DIMJUST
 70
     0
  9
$DIMSD1
 70
     0
  9
$DIMSD2
 70
     0
  9
$DIMTOLJ
 70
     1
  9
$DIMTZIN
 70
     0
  9
$DIMALTZ
 70
     0
  9
$DIMALTTZ
 70
     0
  9
$DIMFIT
 70
     3
  9
$DIMUPT
 70
     0
  9
$DIMUNIT
 70
     2
  9
$DIMDEC
 70
     4
  9
$DIMTDEC
 70
     4
  9
$DIMALTU
 70
     2
  9
$DIMALTTD
 70
     2
  9
$DIMTXSTY
  7
STANDARD
  9
$DIMAUNIT
 70
     0
  9
$LUNITS
 70
     2
  9
$LUPREC
 70
     4
  9
$SKETCHINC
 40
0.1
  9
$FILLETRAD
 40
0.0
  9
$AUNITS
 70
     0
  9
$AUPREC
 70
     0
  9
$MENU
  1
acad
  9
$ELEVATION
 40
0.0
  9
$PELEVATION
 40
0.0
  9
$THICKNESS
 40
0.0
  9
$LIMCHECK
 70
     0
  9
$BLIPMODE
 70
     1
  9
$CHAMFERA
 40
0.0
  9
$CHAMFERB
 40
0.0
  9
$CHAMFERC
 40
0.0
  9
$CHAMFERD
 40
0.0
  9
$SKPOLY
 70
     0
  9
$TDCREATE
 40
2455606.810554919
  9
$TDUPDATE
 40
2455606.810554919
  9
$TDINDWG
 40
0.0000000000
  9
$TDUSRTIMER
 40
0.0000000000
  9
$USRTIMER
 70
     1
  9
$ANGBASE
 50
0.0
  9
$ANGDIR
 70
     0
  9
$PDMODE
 70
     0
  9
$PDSIZE
 40
0.0
  9
$PLINEWID
 40
0.0
  9
$COORDS
 70
     1
  9
$SPLFRAME
 70
     0
  9
$SPLINETYPE
 70
     6
  9
$SPLINESEGS
 70
     8
  9
$ATTDIA
 70
     0
  9
$ATTREQ
 70
     1
  9
$HANDLING
 70
     1
  9
$HANDSEED
  5
6D6
  9
$SURFTAB1
 70
     6
  9
$SURFTAB2
 70
     6
  9
$SURFTYPE
 70
     6
  9
$SURFU
 70
     6
  9
$SURFV
 70
     6
  9
$UCSNAME
  2

  9
$UCSORG
 10
0.0
 20
0.0
 30
0.0
  9
$UCSXDIR
 10
1.0
 20
0.0
 30
0.0
  9
$UCSYDIR
 10
0.0
 20
1.0
 30
0.0
  9
$PUCSNAME
  2

  9
$PUCSORG
 10
0.0
 20
0.0
 30
0.0
  9
$PUCSXDIR
 10
1.0
 20
0.0
 30
0.0
  9
$PUCSYDIR
 10
0.0
 20
1.0
 30
0.0
  9
$USERI1
 70
     0
  9
$USERI2
 70
     0
  9
$USERI3
 70
     0
  9
$USERI4
 70
     0
  9
$USERI5
 70
     0
  9
$USERR1
 40
0.0
  9
$USERR2
 40
0.0
  9
$USERR3
 40
0.0
  9
$USERR4
 40
0.0
  9
$USERR5
 40
0.0
  9
$WORLDVIEW
 70
     1
  9
$SHADEDGE
 70
     3
  9
$SHADEDIF
 70
    70
  9
$TILEMODE
 70
     1
  9
$MAXACTVP
 70
    16
  9
$PINSBASE
 10
0.0
 20
0.0
 30
0.0
  9
$PLIMCHECK
 70
     0
  9
$PEXTMIN
 10
1.000000E+20
 20
1.000000E+20
 30
1.000000E+20
  9
$PEXTMAX
 10
-1.000000E+20
 20
-1.000000E+20
 30
-1.000000E+20
  9
$PLIMMIN
 10
0.0
 20
0.0
  9
$PLIMMAX
 10
12.0
 20
9.0
  9
$UNITMODE
 70
     0
  9
$VISRETAIN
 70
     0
  9
$PLINEGEN
 70
     1
  9
$PSLTSCALE
 70
     0
  9
$TREEDEPTH
 70
  3020
  9
$PICKSTYLE
 70
     1
  9
$CMLSTYLE
  2
Standard
  9
$CMLJUST
 70
     0
  9
$CMLSCALE
 40
1.0
  9
$PROXYGRAPHICS
 70
     0
  9
$MEASUREMENT
 70
     0
  0
ENDSEC
  0
SECTION
  2
CLASSES
  0
CLASS
  1
LWPOLYLINE
  2
AcDbPolyline
  3
"AutoCAD"
 90
        0
280
     0
281
     1
  0
CLASS
  1
IMAGE
  2
AcDbRasterImage
  3
ISM
 90
      127
280
     0
281
     1
  0
CLASS
  1
OLE2FRAME
  2
AcDbOle2Frame
  3
""
 90
        0
280
     0
281
     1
  0
CLASS
  1
HATCH
  2
AcDbHatch
  3
"ACAD_SEDONA"
 90
        0
280
     0
281
     1
  0
CLASS
  1
DICTIONARYVAR
  2
AcDbDictionaryVar
  3
"AutoCAD"
 90
        0
280
     0
281
     0
  0
CLASS
  1
RASTERVARIABLES
  2
AcDbRasterVariables
  3
ISM
 90
        0
280
     0
281
     0
  0
CLASS
  1
IMAGEDEF
  2
AcDbRasterImageDef
  3
ISM
 90
        0
280
     0
281
     0
  0
CLASS
  1
IMAGEDEF_REACTOR
  2
AcDbRasterImageDefReactor
  3
ISM
 90
        1
280
     0
281
     0
  0
CLASS
  1
IDBUFFER
  2
AcDbIdBuffer
  3
"Acad"
 90
        0
280
     0
281
     0
  0
CLASS
  1
SPATIAL_FILTER
  2
AcDbSpatialFilter
  3
"Acad"
 90
        0
280
     0
281
     0
  0
CLASS
  1
XRECORD
  2
AcDbXrecord
  3
"<Built In>"
 90
        0
280
     0
281
     0
  0
CLASS
  1
SORTENTSTABLE
  2
AcDbSortentsTable
  3
"AutoCAD"
 90
        0
280
     0
281
     0
  0
CLASS
  1
LAYER_INDEX
  2
AcDbLayerIndex
  3
"Acad"
 90
        0
280
     0
281
     0
  0
CLASS
  1
SPATIAL_INDEX
  2
AcDbSpatialIndex
  3
"Acad"
 90
        0
280
     0
281
     0
  0
CLASS
  1
OBJECT_PTR
  2
CAseDLPNTableRecord
  3
"ASE-LPNTableRecord"
 90
        1
280
     0
281
     0
  0
CLASS
  1
LAYOUT
  2
AcDbLayout
  3
"AutoCAD 2000"
 90
        0
280
     0
281
     0
  0
CLASS
  1
PLOTSETTINGS
  2
AcDbPlotSettings
  3
"AutoCAD 2000"
 90
        0
280
     0
281
     0
  0
CLASS
  1
ACDBDICTIONARYWDFLT
  2
AcDbDictionaryWithDefault
  3
"AutoCAD 2000"
 90
        0
280
     0
281
     0
  0
CLASS
  1
ACDBPLACEHOLDER
  2
AcDbPlaceHolder
  3
"AutoCAD 2000"
 90
        0
280
     0
281
     0
  0
CLASS
  1
VBA_PROJECT
  2
AcDbVbaProject
  3
"acadvba"
 90
        0
280
     0
281
     0
  0
CLASS
  1
WIPEOUT
  2
AcDbWipeout
  3
WipeOut|AutoCAD Express Tool|expresstools@autodesk.com
 90
      127
280
     0
281
     1
  0
CLASS
  1
WIPEOUTVARIABLES
  2
AcDbWipeoutVariables
  3
WipeOut|AutoCAD Express Tool|expresstools@autodesk.com
 90
        0
280
     0
281
     0
  0
CLASS
  1
RTEXT
  2
RText
  3
RText|AutoCAD Express Tool|expresstools@autodesk.com
 90
        0
280
     0
281
     1
  0
CLASS
  1
ARCALIGNEDTEXT
  2
AcDbArcAlignedText
  3
ATEXT|AutoCAD Express Tool|expresstools@autodesk.com
 90
        0
280
     0
281
     1
  0
ENDSEC
  0
SECTION
  2
TABLES
  0
TABLE
  2
VPORT
  5
7
100
AcDbSymbolTable
 70
     1
  0
VPORT
  5
15
100
AcDbSymbolTableRecord
100
AcDbViewportTableRecord
  2
*ACTIVE
 70
     0
 10
0.0
 20
0.0
 11
1.0
 21
1.0
 12
420.5
 22
297.0
 13
0.0
 23
0.0
 14
1.0
 24
1.0
 15
0.0
 25
0.0
 16
0.0
 26
0.0
 36
1.0
 17
0.0
 27
0.0
 37
0.0
 40
594.0
 41
1.722533
 42
50.0
 43
0.0
 44
0.0
 50
0.0
 51
0.0
 71
     0
 72
   100
 73
     1
 74
     1
 75
     0
 76
     0
 77
     0
 78
     0
  0
ENDTAB
  0
TABLE
  2
LTYPE
  5
4
100
AcDbSymbolTable
 70
     9
  0
LTYPE
  5
11
100
AcDbSymbolTableRecord
100
AcDbLinetypeTableRecord
  2
BYBLOCK
 70
    64
  3

 72
    65
 73
     0
 40
0.0
  0
LTYPE
  5
12
100
AcDbSymbolTableRecord
100
AcDbLinetypeTableRecord
  2
BYLAYER
 70
    64
  3

 72
    65
 73
     0
 40
0.0
  0
LTYPE
  5
13
100
AcDbSymbolTableRecord
100
AcDbLinetypeTableRecord
  2
CONTINUOUS
 70
    64
  3
実線
 72
    65
 73
     0
 40
0.0
  0
LTYPE
  5
1D
100
AcDbSymbolTableRecord
100
AcDbLinetypeTableRecord
  2
DASHED
 70
    64
  3
Dashed __ __ __ __ __ __ __ __ __ __ __ __ __ _
 72
    65
 73
     2
 40
19.05
 49
12.7
 74
     0
 49
-6.35
 74
     0
  0
LTYPE
  5
1E
100
AcDbSymbolTableRecord
100
AcDbLinetypeTableRecord
  2
DASHED2
 70
    64
  3
Dashed (.5x) _ _ _ _ _ _ _ _ _ _ _ _ _ _ _ _ _ 
 72
    65
 73
     2
 40
9.525
 49
6.35
 74
     0
 49
-3.175
 74
     0
  0
LTYPE
  5
1F
100
AcDbSymbolTableRecord
100
AcDbLinetypeTableRecord
  2
DASHDOT
 70
    64
  3
Dash dot __ . __ . __ . __ . __ . __ . __ . __
 72
    65
 73
     4
 40
25.4
 49
12.7
 74
     0
 49
-6.35
 74
     0
 49
0.0
 74
     0
 49
-6.35
 74
     0
  0
LTYPE
  5
20
100
AcDbSymbolTableRecord
100
AcDbLinetypeTableRecord
  2
DIVIDE
 70
    64
  3
Divide ____ . . ____ . . ____ . . ____ . . ____
 72
    65
 73
     6
 40
31.75
 49
12.7
 74
     0
 49
-6.35
 74
     0
 49
0.0
 74
     0
 49
-6.35
 74
     0
 49
0.0
 74
     0
 49
-6.35
 74
     0
  0
LTYPE
  5
21
100
AcDbSymbolTableRecord
100
AcDbLinetypeTableRecord
  2
ACAD_ISO06W100
 70
    64
  3
ISO long-dash triple-dot ____ ... ____ ... ____
 72
    65
 73
     8
 40
36.0
 49
24.0
 74
     0
 49
-3.0
 74
     0
 49
0.0
 74
     0
 49
-3.0
 74
     0
 49
0.0
 74
     0
 49
-3.0
 74
     0
 49
0.0
 74
     0
 49
-3.0
 74
     0
  0
LTYPE
  5
22
100
AcDbSymbolTableRecord
100
AcDbLinetypeTableRecord
  2
ACAD_ISO15W100
 70
    64
  3
ISO double-dash triple-dot __ __ . . . __ __ . .
 72
    65
 73
    10
 40
39.0
 49
12.0
 74
     0
 49
-3.0
 74
     0
 49
12.0
 74
     0
 49
-3.0
 74
     0
 49
0.0
 74
     0
 49
-3.0
 74
     0
 49
0.0
 74
     0
 49
-3.0
 74
     0
 49
0.0
 74
     0
 49
-3.0
 74
     0
  0
ENDTAB
  0
TABLE
  2
LAYER
  5
2
100
AcDbSymbolTable
 70
     9
  0
LAYER
  5
14
100
AcDbSymbolTableRecord
100
AcDbLayerTableRecord
  2
0
 70
     0
 62
     7
  6
CONTINUOUS
  0
LAYER
  5
25
100
AcDbSymbolTableRecord
100
AcDbLayerTableRecord
  2
LAY-1
 70
    64
 62
     3
  6
CONTINUOUS
  0
LAYER
  5
26
100
AcDbSymbolTableRecord
100
AcDbLayerTableRecord
  2
LAY-2
 70
    64
 62
     3
  6
CONTINUOUS
  0
LAYER
  5
27
100
AcDbSymbolTableRecord
100
AcDbLayerTableRecord
  2
LAY-3
 70
    64
 62
     3
  6
CONTINUOUS
  0
LAYER
  5
28
100
AcDbSymbolTableRecord
100
AcDbLayerTableRecord
  2
LAY-4
 70
    64
 62
     3
  6
CONTINUOUS
  0
LAYER
  5
29
100
AcDbSymbolTableRecord
100
AcDbLayerTableRecord
  2
LAY-5
 70
    64
 62
     1
  6
DASHDOT
  0
LAYER
  5
2A
100
AcDbSymbolTableRecord
100
AcDbLayerTableRecord
  2
LAY-6
 70
    64
 62
     2
  6
CONTINUOUS
  0
LAYER
  5
2B
100
AcDbSymbolTableRecord
100
AcDbLayerTableRecord
  2
LAY-9
 70
    64
 62
     1
  6
CONTINUOUS
  0
LAYER
  5
2C
100
AcDbSymbolTableRecord
100
AcDbLayerTableRecord
  2
LAY-10
 70
    64
 62
     5
  6
CONTINUOUS
  0
ENDTAB
  0
TABLE
  2
STYLE
  5
3
100
AcDbSymbolTable
 70
     3
  0
STYLE
  5
17
100
AcDbSymbolTableRecord
100
AcDbTextStyleTableRecord
  2
STANDARD
 70
     0
 40
0.0
 41
1.0
 50
0.0
 71
     0
 42
0.0
  3
monotxt
  4
extfont
  0
STYLE
  5
23
100
AcDbSymbolTableRecord
100
AcDbTextStyleTableRecord
  2
EXCADSTD
 70
    64
 40
0.0
 41
1.0
 50
0.0
 71
     0
 42
0.2
  3
monotxt
  4
extfont
  0
STYLE
  5
24
100
AcDbSymbolTableRecord
100
AcDbTextStyleTableRecord
  2
EXCADVERT
 70
    68
 40
0.0
 41
1.0
 50
0.0
 71
     0
 42
0.286885
  3
monotxt
  4
extfont
  0
ENDTAB
  0
TABLE
  2
VIEW
  5
5
100
AcDbSymbolTable
 70
     0
  0
ENDTAB
  0
TABLE
  2
UCS
  5
6
100
AcDbSymbolTable
 70
     0
  0
ENDTAB
  0
TABLE
  2
APPID
  5
8
100
AcDbSymbolTable
 70
     1
  0
APPID
  5
16
100
AcDbSymbolTableRecord
100
AcDbRegAppTableRecord
  2
ACAD
 70
     0
  0
ENDTAB
  0
TABLE
  2
DIMSTYLE
  5
9
100
AcDbSymbolTable
 70
     1
  0
DIMSTYLE
105
18
100
AcDbSymbolTableRecord
100
AcDbDimStyleTableRecord
  2
STANDARD
 70
     0
  3

  4

  5

  6

  7

 40
1.0
 41
0.18
 42
0.0625
 43
0.38
 44
0.18
 45
0.0
 46
0.0
 47
0.0
 48
0.0
 71
     0
 72
     0
 73
     1
 74
     1
 75
     0
 76
     0
 77
     0
 78
     0
140
0.18
141
0.09
142
0.0
143
25.4
144
1.0
145
0.0
146
1.0
147
0.09
170
     0
171
     2
172
     1
173
     0
174
     0
175
     0
176
     0
177
     0
178
     0
270
     2
271
     4
272
     4
273
     2
274
     2
275
     0
280
     0
281
     0
282
     0
283
     1
284
     0
285
     0
286
     0
287
     3
288
     0
340
17
  0
ENDTAB
  0
TABLE
  2
BLOCK_RECORD
  5
1
100
AcDbSymbolTable
 70
    18
  0
BLOCK_RECORD
  5
A
100
AcDbSymbolTableRecord
100
AcDbBlockTableRecord
  2
*MODEL_SPACE
  0
BLOCK_RECORD
  5
B
100
AcDbSymbolTableRecord
100
AcDbBlockTableRecord
  2
*PAPER_SPACE
  0
BLOCK_RECORD
  5
2D
100
AcDbSymbolTableRecord
100
AcDbBlockTableRecord
  2
_EX_NORM
  0
BLOCK_RECORD
  5
2E
100
AcDbSymbolTableRecord
100
AcDbBlockTableRecord
  2
_EX_BNORM
  0
BLOCK_RECORD
  5
2F
100
AcDbSymbolTableRecord
100
AcDbBlockTableRecord
  2
_EX_BCIR
  0
BLOCK_RECORD
  5
30
100
AcDbSymbolTableRecord
100
AcDbBlockTableRecord
  2
_EX_RCIVIL
  0
BLOCK_RECORD
  5
31
100
AcDbSymbolTableRecord
100
AcDbBlockTableRecord
  2
_EX_SLANT
  0
BLOCK_RECORD
  5
32
100
AcDbSymbolTableRecord
100
AcDbBlockTableRecord
  2
_EX_NONE
  0
BLOCK_RECORD
  5
33
100
AcDbSymbolTableRecord
100
AcDbBlockTableRecord
  2
_EX_CIVIL
  0
BLOCK_RECORD
  5
34
100
AcDbSymbolTableRecord
100
AcDbBlockTableRecord
  2
_EX_WCIR
  0
BLOCK_RECORD
  5
35
100
AcDbSymbolTableRecord
100
AcDbBlockTableRecord
  2
_EX_WCIR2
  0
BLOCK_RECORD
  5
36
100
AcDbSymbolTableRecord
100
AcDbBlockTableRecord
  2
_EX_WNORM
  0
BLOCK_RECORD
  5
37
100
AcDbSymbolTableRecord
100
AcDbBlockTableRecord
  2
_EX_NNORM
  0
BLOCK_RECORD
  5
38
100
AcDbSymbolTableRecord
100
AcDbBlockTableRecord
  2
_EX_BBOX
  0
BLOCK_RECORD
  5
39
100
AcDbSymbolTableRecord
100
AcDbBlockTableRecord
  2
_EX_WBOX
  0
BLOCK_RECORD
  5
3A
100
AcDbSymbolTableRecord
100
AcDbBlockTableRecord
  2
_EX_INTEGRAL
  0
BLOCK_RECORD
  5
3B
100
AcDbSymbolTableRecord
100
AcDbBlockTableRecord
  2
SYM-1
  0
BLOCK_RECORD
  5
3C
100
AcDbSymbolTableRecord
100
AcDbBlockTableRecord
  2
SYM-2
  0
BLOCK_RECORD
  5
3D
100
AcDbSymbolTableRecord
100
AcDbBlockTableRecord
  2
SYM-3
  0
BLOCK_RECORD
  5
3E
100
AcDbSymbolTableRecord
100
AcDbBlockTableRecord
  2
SYM-4
  0
ENDTAB
  0
ENDSEC
  0
SECTION
  2
BLOCKS
  0
BLOCK
  5
D
100
AcDbEntity
  8
0
100
AcDbBlockBegin
  2
*MODEL_SPACE
 70
     0
 10
0.0
 20
0.0
 30
0.0
  3
*MODEL_SPACE
  1

  0
ENDBLK
  5
E
100
AcDbEntity
  8
0
100
AcDbBlockEnd
  0
BLOCK
  5
F
100
AcDbEntity
 67
     1
  8
0
100
AcDbBlockBegin
  2
*PAPER_SPACE
 70
     0
 10
0.0
 20
0.0
 30
0.0
  3
*PAPER_SPACE
  1

  0
ENDBLK
  5
10
100
AcDbEntity
 67
     1
  8
0
100
AcDbBlockEnd
  0
BLOCK
  5
3F
100
AcDbEntity
  8
0
100
AcDbBlockBegin
  2
_EX_NORM
 70
     0
 10
0.0
 20
0.0
 30
0.0
  3
_EX_NORM
  1

  0
LINE
  5
40
100
AcDbEntity
  8
0
  6
CONTINUOUS
 62
     0
100
AcDbLine
 10
0.0
 20
0.0
 30
0.0
 11
-1.0
 21
0.0
 31
0.0
  0
LINE
  5
41
100
AcDbEntity
  8
0
  6
CONTINUOUS
 62
     0
100
AcDbLine
 10
0.0
 20
0.0
 30
0.0
 11
-1.0
 21
0.166667
 31
0.0
  0
LINE
  5
42
100
AcDbEntity
  8
0
  6
CONTINUOUS
 62
     0
100
AcDbLine
 10
0.0
 20
0.0
 30
0.0
 11
-1.0
 21
-0.166667
 31
0.0
  0
ENDBLK
  5
43
100
AcDbEntity
  8
0
100
AcDbBlockEnd
  0
BLOCK
  5
44
100
AcDbEntity
  8
0
100
AcDbBlockBegin
  2
_EX_BNORM
 70
     0
 10
0.0
 20
0.0
 30
0.0
  3
_EX_BNORM
  1

  0
LINE
  5
45
100
AcDbEntity
  8
0
  6
CONTINUOUS
 62
     0
100
AcDbLine
 10
0.0
 20
0.0
 30
0.0
 11
-1.0
 21
0.0
 31
0.0
  0
LINE
  5
46
100
AcDbEntity
  8
0
  6
CONTINUOUS
 62
     0
100
AcDbLine
 10
0.0
 20
0.0
 30
0.0
 11
-1.0
 21
0.166667
 31
0.0
  0
LINE
  5
47
100
AcDbEntity
  8
0
  6
CONTINUOUS
 62
     0
100
AcDbLine
 10
0.0
 20
0.0
 30
0.0
 11
-1.0
 21
-0.166667
 31
0.0
  0
LINE
  5
48
100
AcDbEntity
  8
0
  6
CONTINUOUS
 62
     0
100
AcDbLine
 10
0.0
 20
0.0
 30
0.0
 11
-1.0
 21
0.083333
 31
0.0
  0
LINE
  5
49
100
AcDbEntity
  8
0
  6
CONTINUOUS
 62
     0
100
AcDbLine
 10
0.0
 20
0.0
 30
0.0
 11
-1.0
 21
-0.083333
 31
0.0
  0
LINE
  5
4A
100
AcDbEntity
  8
0
  6
CONTINUOUS
 62
     0
100
AcDbLine
 10
-1.0
 20
0.166667
 30
0.0
 11
-1.0
 21
-0.166667
 31
0.0
  0
ENDBLK
  5
4B
100
AcDbEntity
  8
0
100
AcDbBlockEnd
  0
BLOCK
  5
4C
100
AcDbEntity
  8
0
100
AcDbBlockBegin
  2
_EX_BCIR
 70
     0
 10
0.0
 20
0.0
 30
0.0
  3
_EX_BCIR
  1

  0
LINE
  5
4D
100
AcDbEntity
  8
0
  6
CONTINUOUS
 62
     0
100
AcDbLine
 10
0.0
 20
0.0
 30
0.0
 11
-1.0
 21
0.0
 31
0.0
  0
CIRCLE
  5
4E
100
AcDbEntity
  8
0
  6
CONTINUOUS
 62
     0
100
AcDbCircle
 10
0.0
 20
0.0
 30
0.0
 40
0.5
  0
CIRCLE
  5
4F
100
AcDbEntity
  8
0
  6
CONTINUOUS
 62
     0
100
AcDbCircle
 10
0.0
 20
0.0
 30
0.0
 40
0.25
  0
ENDBLK
  5
50
100
AcDbEntity
  8
0
100
AcDbBlockEnd
  0
BLOCK
  5
51
100
AcDbEntity
  8
0
100
AcDbBlockBegin
  2
_EX_RCIVIL
 70
     0
 10
0.0
 20
0.0
 30
0.0
  3
_EX_RCIVIL
  1

  0
LINE
  5
52
100
AcDbEntity
  8
0
  6
CONTINUOUS
 62
     0
100
AcDbLine
 10
0.0
 20
0.0
 30
0.0
 11
-1.0
 21
0.0
 31
0.0
  0
LINE
  5
53
100
AcDbEntity
  8
0
  6
CONTINUOUS
 62
     0
100
AcDbLine
 10
-1.0
 20
-0.25
 30
0.0
 11
0.0
 21
-0.25
 31
0.0
  0
LINE
  5
54
100
AcDbEntity
  8
0
  6
CONTINUOUS
 62
     0
100
AcDbLine
 10
-1.0
 20
-0.125
 30
0.0
 11
0.0
 21
-0.125
 31
0.0
  0
ENDBLK
  5
55
100
AcDbEntity
  8
0
100
AcDbBlockEnd
  0
BLOCK
  5
56
100
AcDbEntity
  8
0
100
AcDbBlockBegin
  2
_EX_SLANT
 70
     0
 10
0.0
 20
0.0
 30
0.0
  3
_EX_SLANT
  1

  0
LINE
  5
57
100
AcDbEntity
  8
0
  6
CONTINUOUS
 62
     0
100
AcDbLine
 10
0.0
 20
0.0
 30
0.0
 11
-1.0
 21
0.0
 31
0.0
  0
LINE
  5
58
100
AcDbEntity
  8
0
  6
CONTINUOUS
 62
     0
100
AcDbLine
 10
0.707107
 20
0.707107
 30
0.0
 11
-0.707107
 21
-0.707107
 31
0.0
  0
ENDBLK
  5
59
100
AcDbEntity
  8
0
100
AcDbBlockEnd
  0
BLOCK
  5
5A
100
AcDbEntity
  8
0
100
AcDbBlockBegin
  2
_EX_NONE
 70
     0
 10
0.0
 20
0.0
 30
0.0
  3
_EX_NONE
  1

  0
LINE
  5
5B
100
AcDbEntity
  8
0
  6
CONTINUOUS
 62
     0
100
AcDbLine
 10
0.0
 20
0.0
 30
0.0
 11
-1.0
 21
0.0
 31
0.0
  0
ENDBLK
  5
5C
100
AcDbEntity
  8
0
100
AcDbBlockEnd
  0
BLOCK
  5
5D
100
AcDbEntity
  8
0
100
AcDbBlockBegin
  2
_EX_CIVIL
 70
     0
 10
0.0
 20
0.0
 30
0.0
  3
_EX_CIVIL
  1

  0
LINE
  5
5E
100
AcDbEntity
  8
0
  6
CONTINUOUS
 62
     0
100
AcDbLine
 10
0.0
 20
0.0
 30
0.0
 11
-1.0
 21
0.0
 31
0.0
  0
LINE
  5
5F
100
AcDbEntity
  8
0
  6
CONTINUOUS
 62
     0
100
AcDbLine
 10
-1.0
 20
0.25
 30
0.0
 11
0.0
 21
0.25
 31
0.0
  0
LINE
  5
60
100
AcDbEntity
  8
0
  6
CONTINUOUS
 62
     0
100
AcDbLine
 10
-1.0
 20
0.125
 30
0.0
 11
0.0
 21
0.125
 31
0.0
  0
ENDBLK
  5
61
100
AcDbEntity
  8
0
100
AcDbBlockEnd
  0
BLOCK
  5
62
100
AcDbEntity
  8
0
100
AcDbBlockBegin
  2
_EX_WCIR
 70
     0
 10
0.0
 20
0.0
 30
0.0
  3
_EX_WCIR
  1

  0
LINE
  5
63
100
AcDbEntity
  8
0
  6
CONTINUOUS
 62
     0
100
AcDbLine
 10
0.0
 20
0.0
 30
0.0
 11
-1.0
 21
0.0
 31
0.0
  0
CIRCLE
  5
64
100
AcDbEntity
  8
0
  6
CONTINUOUS
 62
     0
100
AcDbCircle
 10
0.0
 20
0.0
 30
0.0
 40
0.5
  0
ENDBLK
  5
65
100
AcDbEntity
  8
0
100
AcDbBlockEnd
  0
BLOCK
  5
66
100
AcDbEntity
  8
0
100
AcDbBlockBegin
  2
_EX_WCIR2
 70
     0
 10
0.0
 20
0.0
 30
0.0
  3
_EX_WCIR2
  1

  0
LINE
  5
67
100
AcDbEntity
  8
0
  6
CONTINUOUS
 62
     0
100
AcDbLine
 10
-0.5
 20
0.0
 30
0.0
 11
-1.0
 21
0.0
 31
0.0
  0
CIRCLE
  5
68
100
AcDbEntity
  8
0
  6
CONTINUOUS
 62
     0
100
AcDbCircle
 10
0.0
 20
0.0
 30
0.0
 40
0.5
  0
ENDBLK
  5
69
100
AcDbEntity
  8
0
100
AcDbBlockEnd
  0
BLOCK
  5
6A
100
AcDbEntity
  8
0
100
AcDbBlockBegin
  2
_EX_WNORM
 70
     0
 10
0.0
 20
0.0
 30
0.0
  3
_EX_WNORM
  1

  0
LINE
  5
6B
100
AcDbEntity
  8
0
  6
CONTINUOUS
 62
     0
100
AcDbLine
 10
-1.0
 20
0.0
 30
0.0
 11
-1.0
 21
0.0
 31
0.0
  0
LINE
  5
6C
100
AcDbEntity
  8
0
  6
CONTINUOUS
 62
     0
100
AcDbLine
 10
0.0
 20
0.0
 30
0.0
 11
-1.0
 21
0.166667
 31
0.0
  0
LINE
  5
6D
100
AcDbEntity
  8
0
  6
CONTINUOUS
 62
     0
100
AcDbLine
 10
0.0
 20
0.0
 30
0.0
 11
-1.0
 21
-0.166667
 31
0.0
  0
LINE
  5
6E
100
AcDbEntity
  8
0
  6
CONTINUOUS
 62
     0
100
AcDbLine
 10
-1.0
 20
0.166667
 30
0.0
 11
-1.0
 21
-0.166667
 31
0.0
  0
ENDBLK
  5
6F
100
AcDbEntity
  8
0
100
AcDbBlockEnd
  0
BLOCK
  5
70
100
AcDbEntity
  8
0
100
AcDbBlockBegin
  2
_EX_NNORM
 70
     0
 10
0.0
 20
0.0
 30
0.0
  3
_EX_NNORM
  1

  0
LINE
  5
71
100
AcDbEntity
  8
0
  6
CONTINUOUS
 62
     0
100
AcDbLine
 10
0.0
 20
0.0
 30
0.0
 11
-1.0
 21
0.0
 31
0.0
  0
LINE
  5
72
100
AcDbEntity
  8
0
  6
CONTINUOUS
 62
     0
100
AcDbLine
 10
0.0
 20
0.0
 30
0.0
 11
-1.0
 21
0.166667
 31
0.0
  0
LINE
  5
73
100
AcDbEntity
  8
0
  6
CONTINUOUS
 62
     0
100
AcDbLine
 10
0.0
 20
0.0
 30
0.0
 11
-1.0
 21
-0.166667
 31
0.0
  0
LINE
  5
74
100
AcDbEntity
  8
0
  6
CONTINUOUS
 62
     0
100
AcDbLine
 10
-1.0
 20
0.166667
 30
0.0
 11
-1.0
 21
-0.166667
 31
0.0
  0
ENDBLK
  5
75
100
AcDbEntity
  8
0
100
AcDbBlockEnd
  0
BLOCK
  5
76
100
AcDbEntity
  8
0
100
AcDbBlockBegin
  2
_EX_BBOX
 70
     0
 10
0.0
 20
0.0
 30
0.0
  3
_EX_BBOX
  1

  0
LINE
  5
77
100
AcDbEntity
  8
0
  6
CONTINUOUS
 62
     0
100
AcDbLine
 10
0.0
 20
0.0
 30
0.0
 11
-1.0
 21
0.0
 31
0.0
  0
LINE
  5
78
100
AcDbEntity
  8
0
  6
CONTINUOUS
 62
     0
100
AcDbLine
 10
-0.5
 20
0.5
 30
0.0
 11
0.5
 21
0.5
 31
0.0
  0
LINE
  5
79
100
AcDbEntity
  8
0
  6
CONTINUOUS
 62
     0
100
AcDbLine
 10
0.5
 20
0.5
 30
0.0
 11
0.5
 21
-0.5
 31
0.0
  0
LINE
  5
7A
100
AcDbEntity
  8
0
  6
CONTINUOUS
 62
     0
100
AcDbLine
 10
0.5
 20
-0.5
 30
0.0
 11
-0.5
 21
-0.5
 31
0.0
  0
LINE
  5
7B
100
AcDbEntity
  8
0
  6
CONTINUOUS
 62
     0
100
AcDbLine
 10
-0.5
 20
-0.5
 30
0.0
 11
-0.5
 21
0.5
 31
0.0
  0
LINE
  5
7C
100
AcDbEntity
  8
0
  6
CONTINUOUS
 62
     0
100
AcDbLine
 10
-0.25
 20
0.25
 30
0.0
 11
0.25
 21
0.25
 31
0.0
  0
LINE
  5
7D
100
AcDbEntity
  8
0
  6
CONTINUOUS
 62
     0
100
AcDbLine
 10
0.25
 20
0.25
 30
0.0
 11
0.25
 21
-0.25
 31
0.0
  0
LINE
  5
7E
100
AcDbEntity
  8
0
  6
CONTINUOUS
 62
     0
100
AcDbLine
 10
0.25
 20
-0.25
 30
0.0
 11
-0.25
 21
-0.25
 31
0.0
  0
LINE
  5
7F
100
AcDbEntity
  8
0
  6
CONTINUOUS
 62
     0
100
AcDbLine
 10
-0.25
 20
-0.25
 30
0.0
 11
-0.25
 21
0.25
 31
0.0
  0
ENDBLK
  5
80
100
AcDbEntity
  8
0
100
AcDbBlockEnd
  0
BLOCK
  5
81
100
AcDbEntity
  8
0
100
AcDbBlockBegin
  2
_EX_WBOX
 70
     0
 10
0.0
 20
0.0
 30
0.0
  3
_EX_WBOX
  1

  0
LINE
  5
82
100
AcDbEntity
  8
0
  6
CONTINUOUS
 62
     0
100
AcDbLine
 10
-0.5
 20
0.0
 30
0.0
 11
-1.0
 21
0.0
 31
0.0
  0
LINE
  5
83
100
AcDbEntity
  8
0
  6
CONTINUOUS
 62
     0
100
AcDbLine
 10
-0.5
 20
0.5
 30
0.0
 11
0.5
 21
0.5
 31
0.0
  0
LINE
  5
84
100
AcDbEntity
  8
0
  6
CONTINUOUS
 62
     0
100
AcDbLine
 10
0.5
 20
0.5
 30
0.0
 11
0.5
 21
-0.5
 31
0.0
  0
LINE
  5
85
100
AcDbEntity
  8
0
  6
CONTINUOUS
 62
     0
100
AcDbLine
 10
0.5
 20
-0.5
 30
0.0
 11
-0.5
 21
-0.5
 31
0.0
  0
LINE
  5
86
100
AcDbEntity
  8
0
  6
CONTINUOUS
 62
     0
100
AcDbLine
 10
-0.5
 20
-0.5
 30
0.0
 11
-0.5
 21
0.5
 31
0.0
  0
ENDBLK
  5
87
100
AcDbEntity
  8
0
100
AcDbBlockEnd
  0
BLOCK
  5
88
100
AcDbEntity
  8
0
100
AcDbBlockBegin
  2
_EX_INTEGRAL
 70
     0
 10
0.0
 20
0.0
 30
0.0
  3
_EX_INTEGRAL
  1

  0
LINE
  5
89
100
AcDbEntity
  8
0
  6
CONTINUOUS
 62
     0
100
AcDbLine
 10
0.0
 20
0.0
 30
0.0
 11
-1.0
 21
0.0
 31
0.0
  0
ARC
  5
8A
100
AcDbEntity
  8
0
  6
CONTINUOUS
 62
     0
100
AcDbCircle
 10
0.542115
 20
0.164992
 30
0.0
 40
0.56667
100
AcDbArc
 50
73.07249
 51
196.927513
  0
ARC
  5
8B
100
AcDbEntity
  8
0
  6
CONTINUOUS
 62
     0
100
AcDbCircle
 10
-0.542115
 20
-0.164992
 30
0.0
 40
0.56667
100
AcDbArc
 50
253.072487
 51
16.927513
  0
ENDBLK
  5
8C
100
AcDbEntity
  8
0
100
AcDbBlockEnd
  0
BLOCK
  5
8D
100
AcDbEntity
  8
0
100
AcDbBlockBegin
  2
SYM-1
 70
     0
 10
0.0
 20
0.0
 30
0.0
  3
SYM-1
  1

  0
TEXT
  5
8E
100
AcDbEntity
  8
0
  6
CONTINUOUS
 62
     2
100
AcDbText
 10
-2.828427
 20
-2.828427
 30
0.0
 40
5.656854
  1
３
 41
0.84
  7
EXCADSTD
 72
     5
 11
1.697056
 21
-2.828427
 31
0.0
100
AcDbText
  0
CIRCLE
  5
8F
100
AcDbEntity
  8
0
  6
CONTINUOUS
 62
     1
100
AcDbCircle
 10
0.0
 20
0.0
 30
0.0
 40
4.0
  0
TEXT
  5
90
100
AcDbEntity
  8
0
  6
CONTINUOUS
 62
     2
100
AcDbText
 10
6.6
 20
-3.2
 30
0.0
 40
7.0
  1
ア　ー　ム
 41
0.672
  7
EXCADSTD
 72
     5
 11
34.6
 21
-3.2
 31
0.0
100
AcDbText
  0
LINE
  5
91
100
AcDbEntity
  8
0
  6
CONTINUOUS
 62
     1
100
AcDbLine
 10
4.0
 20
-3.7
 30
0.0
 11
34.9
 21
-3.7
 31
0.0
  0
ENDBLK
  5
92
100
AcDbEntity
  8
0
100
AcDbBlockEnd
  0
BLOCK
  5
93
100
AcDbEntity
  8
0
100
AcDbBlockBegin
  2
SYM-2
 70
     0
 10
0.0
 20
0.0
 30
0.0
  3
SYM-2
  1

  0
TEXT
  5
94
100
AcDbEntity
  8
0
  6
CONTINUOUS
 62
     2
100
AcDbText
 10
-2.828427
 20
-2.828427
 30
0.0
 40
5.656854
  1
１
 41
0.84
  7
EXCADSTD
 72
     5
 11
1.697056
 21
-2.828427
 31
0.0
100
AcDbText
  0
CIRCLE
  5
95
100
AcDbEntity
  8
0
  6
CONTINUOUS
 62
     1
100
AcDbCircle
 10
0.0
 20
0.0
 30
0.0
 40
4.0
  0
TEXT
  5
96
100
AcDbEntity
  8
0
  6
CONTINUOUS
 62
     2
100
AcDbText
 10
6.6
 20
-3.2
 30
0.0
 40
7.0
  1
トップピボット（上枠側）
 41
0.672
  7
EXCADSTD
 72
     5
 11
73.799999
 21
-3.2
 31
0.0
100
AcDbText
  0
LINE
  5
97
100
AcDbEntity
  8
0
  6
CONTINUOUS
 62
     1
100
AcDbLine
 10
4.0
 20
-3.7
 30
0.0
 11
70.1
 21
-3.7
 31
0.0
  0
ENDBLK
  5
98
100
AcDbEntity
  8
0
100
AcDbBlockEnd
  0
BLOCK
  5
99
100
AcDbEntity
  8
0
100
AcDbBlockBegin
  2
SYM-3
 70
     0
 10
0.0
 20
0.0
 30
0.0
  3
SYM-3
  1

  0
TEXT
  5
9A
100
AcDbEntity
  8
0
  6
CONTINUOUS
 62
     2
100
AcDbText
 10
-2.828427
 20
-2.828427
 30
0.0
 40
5.656854
  1
２
 41
0.84
  7
EXCADSTD
 72
     5
 11
1.697056
 21
-2.828427
 31
0.0
100
AcDbText
  0
CIRCLE
  5
9B
100
AcDbEntity
  8
0
  6
CONTINUOUS
 62
     1
100
AcDbCircle
 10
0.0
 20
0.0
 30
0.0
 40
4.0
  0
TEXT
  5
9C
100
AcDbEntity
  8
0
  6
CONTINUOUS
 62
     2
100
AcDbText
 10
6.6
 20
-3.2
 30
0.0
 40
7.0
  1
トップピボット（ドア側）
 41
0.672
  7
EXCADSTD
 72
     5
 11
73.799999
 21
-3.2
 31
0.0
100
AcDbText
  0
LINE
  5
9D
100
AcDbEntity
  8
0
  6
CONTINUOUS
 62
     1
100
AcDbLine
 10
4.0
 20
-3.7
 30
0.0
 11
71.0
 21
-3.7
 31
0.0
  0
ENDBLK
  5
9E
100
AcDbEntity
  8
0
100
AcDbBlockEnd
  0
BLOCK
  5
9F
100
AcDbEntity
  8
0
100
AcDbBlockBegin
  2
SYM-4
 70
     0
 10
0.0
 20
0.0
 30
0.0
  3
SYM-4
  1

  0
TEXT
  5
A0
100
AcDbEntity
  8
0
  6
CONTINUOUS
 62
     2
100
AcDbText
 10
-2.828427
 20
-2.828427
 30
0.0
 40
5.656854
  1
４
 41
0.84
  7
EXCADSTD
 72
     5
 11
1.697056
 21
-2.828427
 31
0.0
100
AcDbText
  0
CIRCLE
  5
A1
100
AcDbEntity
  8
0
  6
CONTINUOUS
 62
     1
100
AcDbCircle
 10
0.0
 20
0.0
 30
0.0
 40
4.0
  0
TEXT
  5
A2
100
AcDbEntity
  8
0
  6
CONTINUOUS
 62
     2
100
AcDbText
 10
6.6
 20
-3.2
 30
0.0
 40
7.0
  1
床面軸座
 41
0.672
  7
EXCADSTD
 72
     5
 11
29.0
 21
-3.2
 31
0.0
100
AcDbText
  0
LINE
  5
A3
100
AcDbEntity
  8
0
  6
CONTINUOUS
 62
     1
100
AcDbLine
 10
4.0
 20
-3.7
 30
0.0
 11
29.3
 21
-3.7
 31
0.0
  0
ENDBLK
  5
A4
100
AcDbEntity
  8
0
100
AcDbBlockEnd
  0
ENDSEC
  0
SECTION
  2
ENTITIES
  0
LINE
  5
A5
100
AcDbEntity
  8
LAY-1
  6
DASHED2
 62
     3
100
AcDbLine
 10
706.477295
 20
386.515247
 30
0.0
 11
701.477295
 21
386.515247
 31
0.0
  0
LINE
  5
A6
100
AcDbEntity
  8
LAY-1
  6
DASHED2
 62
     3
100
AcDbLine
 10
701.477295
 20
386.515247
 30
0.0
 11
699.327295
 21
384.365247
 31
0.0
  0
LINE
  5
A7
100
AcDbEntity
  8
LAY-1
  6
DASHED2
 62
     3
100
AcDbLine
 10
706.477295
 20
386.515247
 30
0.0
 11
708.627295
 21
384.365247
 31
0.0
  0
LINE
  5
A8
100
AcDbEntity
  8
LAY-1
  6
DASHED2
 62
     3
100
AcDbLine
 10
699.327295
 20
384.365247
 30
0.0
 11
708.627295
 21
384.365247
 31
0.0
  0
LINE
  5
A9
100
AcDbEntity
  8
LAY-1
  6
DASHED2
 62
     3
100
AcDbLine
 10
699.327295
 20
384.365247
 30
0.0
 11
699.327295
 21
383.815247
 31
0.0
  0
LINE
  5
AA
100
AcDbEntity
  8
LAY-1
  6
DASHED2
 62
     3
100
AcDbLine
 10
708.627295
 20
384.365247
 30
0.0
 11
708.627295
 21
383.815247
 31
0.0
  0
LINE
  5
AB
100
AcDbEntity
  8
LAY-1
  6
DASHED2
 62
     3
100
AcDbLine
 10
701.477295
 20
398.815247
 30
0.0
 11
701.477295
 21
386.515247
 31
0.0
  0
LINE
  5
AC
100
AcDbEntity
  8
LAY-1
  6
DASHED2
 62
     1
100
AcDbLine
 10
701.977295
 20
398.815247
 30
0.0
 11
701.977295
 21
386.515247
 31
0.0
  0
LINE
  5
AD
100
AcDbEntity
  8
LAY-1
  6
DASHED2
 62
     1
100
AcDbLine
 10
705.977295
 20
398.815247
 30
0.0
 11
705.977295
 21
386.515247
 31
0.0
  0
LINE
  5
AE
100
AcDbEntity
  8
LAY-1
  6
DASHED2
 62
     3
100
AcDbLine
 10
706.477295
 20
398.815247
 30
0.0
 11
706.477295
 21
386.515247
 31
0.0
  0
LINE
  5
AF
100
AcDbEntity
  8
LAY-1
  6
CONTINUOUS
 62
     3
100
AcDbLine
 10
706.477295
 20
404.365247
 30
0.0
 11
701.477295
 21
404.365247
 31
0.0
  0
LINE
  5
B0
100
AcDbEntity
  8
LAY-1
  6
CONTINUOUS
 62
     3
100
AcDbLine
 10
701.477295
 20
404.365247
 30
0.0
 11
701.477295
 21
398.815247
 31
0.0
  0
LINE
  5
B1
100
AcDbEntity
  8
LAY-1
  6
CONTINUOUS
 62
     1
100
AcDbLine
 10
701.977295
 20
404.365247
 30
0.0
 11
701.977295
 21
398.815247
 31
0.0
  0
LINE
  5
B2
100
AcDbEntity
  8
LAY-1
  6
CONTINUOUS
 62
     1
100
AcDbLine
 10
705.977295
 20
404.365247
 30
0.0
 11
705.977295
 21
398.815247
 31
0.0
  0
LINE
  5
B3
100
AcDbEntity
  8
LAY-1
  6
CONTINUOUS
 62
     3
100
AcDbLine
 10
706.477295
 20
404.365247
 30
0.0
 11
706.477295
 21
398.815247
 31
0.0
  0
LINE
  5
B4
100
AcDbEntity
  8
LAY-1
  6
DASHED2
 62
     3
100
AcDbLine
 10
687.477295
 20
386.515247
 30
0.0
 11
682.477295
 21
386.515247
 31
0.0
  0
LINE
  5
B5
100
AcDbEntity
  8
LAY-1
  6
DASHED2
 62
     3
100
AcDbLine
 10
682.477295
 20
386.515247
 30
0.0
 11
680.327295
 21
384.365247
 31
0.0
  0
LINE
  5
B6
100
AcDbEntity
  8
LAY-1
  6
DASHED2
 62
     3
100
AcDbLine
 10
687.477295
 20
386.515247
 30
0.0
 11
689.627295
 21
384.365247
 31
0.0
  0
LINE
  5
B7
100
AcDbEntity
  8
LAY-1
  6
DASHED2
 62
     3
100
AcDbLine
 10
680.327295
 20
384.365247
 30
0.0
 11
689.627295
 21
384.365247
 31
0.0
  0
LINE
  5
B8
100
AcDbEntity
  8
LAY-1
  6
DASHED2
 62
     3
100
AcDbLine
 10
680.327295
 20
384.365247
 30
0.0
 11
680.327295
 21
383.815247
 31
0.0
  0
LINE
  5
B9
100
AcDbEntity
  8
LAY-1
  6
DASHED2
 62
     3
100
AcDbLine
 10
689.627295
 20
384.365247
 30
0.0
 11
689.627295
 21
383.815247
 31
0.0
  0
LINE
  5
BA
100
AcDbEntity
  8
LAY-1
  6
DASHED2
 62
     3
100
AcDbLine
 10
682.477295
 20
398.815247
 30
0.0
 11
682.477295
 21
386.515247
 31
0.0
  0
LINE
  5
BB
100
AcDbEntity
  8
LAY-1
  6
DASHED2
 62
     1
100
AcDbLine
 10
682.977295
 20
398.815247
 30
0.0
 11
682.977295
 21
386.515247
 31
0.0
  0
LINE
  5
BC
100
AcDbEntity
  8
LAY-1
  6
DASHED2
 62
     1
100
AcDbLine
 10
686.977295
 20
398.815247
 30
0.0
 11
686.977295
 21
386.515247
 31
0.0
  0
LINE
  5
BD
100
AcDbEntity
  8
LAY-1
  6
DASHED2
 62
     3
100
AcDbLine
 10
687.477295
 20
398.815247
 30
0.0
 11
687.477295
 21
386.515247
 31
0.0
  0
LINE
  5
BE
100
AcDbEntity
  8
LAY-1
  6
CONTINUOUS
 62
     3
100
AcDbLine
 10
687.477295
 20
404.365247
 30
0.0
 11
682.477295
 21
404.365247
 31
0.0
  0
LINE
  5
BF
100
AcDbEntity
  8
LAY-1
  6
CONTINUOUS
 62
     3
100
AcDbLine
 10
682.477295
 20
404.365247
 30
0.0
 11
682.477295
 21
398.815247
 31
0.0
  0
LINE
  5
C0
100
AcDbEntity
  8
LAY-1
  6
CONTINUOUS
 62
     1
100
AcDbLine
 10
682.977295
 20
404.365247
 30
0.0
 11
682.977295
 21
398.815247
 31
0.0
  0
LINE
  5
C1
100
AcDbEntity
  8
LAY-1
  6
CONTINUOUS
 62
     1
100
AcDbLine
 10
686.977295
 20
404.365247
 30
0.0
 11
686.977295
 21
398.815247
 31
0.0
  0
LINE
  5
C2
100
AcDbEntity
  8
LAY-1
  6
CONTINUOUS
 62
     3
100
AcDbLine
 10
687.477295
 20
404.365247
 30
0.0
 11
687.477295
 21
398.815247
 31
0.0
  0
LINE
  5
C3
100
AcDbEntity
  8
LAY-1
  6
CONTINUOUS
 62
     3
100
AcDbLine
 10
671.977295
 20
398.815247
 30
0.0
 11
629.977295
 21
398.815247
 31
0.0
  0
LINE
  5
C4
100
AcDbEntity
  8
LAY-1
  6
CONTINUOUS
 62
     3
100
AcDbLine
 10
629.977295
 20
398.815247
 30
0.0
 11
629.977295
 21
384.815247
 31
0.0
  0
LINE
  5
C5
100
AcDbEntity
  8
LAY-1
  6
DASHED2
 62
     3
100
AcDbLine
 10
630.577301
 20
398.815247
 30
0.0
 11
630.577301
 21
384.815247
 31
0.0
  0
LINE
  5
C6
100
AcDbEntity
  8
LAY-1
  6
CONTINUOUS
 62
     3
100
AcDbLine
 10
671.977295
 20
398.815247
 30
0.0
 11
671.977295
 21
383.815247
 31
0.0
  0
LINE
  5
C7
100
AcDbEntity
  8
LAY-1
  6
CONTINUOUS
 62
     3
100
AcDbLine
 10
714.977356
 20
391.315186
 30
0.0
 11
714.977356
 21
397.315186
 31
0.0
  0
ARC
  5
C8
100
AcDbEntity
  8
LAY-1
  6
CONTINUOUS
 62
     3
100
AcDbCircle
 10
713.477356
 20
397.315186
 30
0.0
 40
1.5
100
AcDbArc
 50
359.999981
 51
90.00002
  0
ARC
  5
C9
100
AcDbEntity
  8
LAY-1
  6
CONTINUOUS
 62
     3
100
AcDbCircle
 10
713.477356
 20
391.315186
 30
0.0
 40
1.5
100
AcDbArc
 50
269.999982
 51
0.000021
  0
LINE
  5
CA
100
AcDbEntity
  8
LAY-1
  6
CONTINUOUS
 62
     3
100
AcDbLine
 10
671.977325
 20
389.815186
 30
0.0
 11
713.477356
 21
389.815186
 31
0.0
  0
LINE
  5
CB
100
AcDbEntity
  8
LAY-1
  6
CONTINUOUS
 62
     3
100
AcDbLine
 10
671.977356
 20
398.815247
 30
0.0
 11
713.477356
 21
398.815186
 31
0.0
  0
ARC
  5
CC
100
AcDbEntity
  8
LAY-1
  6
CONTINUOUS
 62
     3
100
AcDbCircle
 10
630.977295
 20
384.815247
 30
0.0
 40
1.0
100
AcDbArc
 50
180.0
 51
269.999982
  0
LINE
  5
CD
100
AcDbEntity
  8
LAY-1
  6
CONTINUOUS
 62
     3
100
AcDbLine
 10
671.977295
 20
383.815247
 30
0.0
 11
630.977295
 21
383.815247
 31
0.0
  0
LINE
  5
CE
100
AcDbEntity
  8
LAY-1
  6
DASHED2
 62
     3
100
AcDbLine
 10
671.977295
 20
384.415283
 30
0.0
 11
630.977295
 21
384.415222
 31
0.0
  0
LINE
  5
CF
100
AcDbEntity
  8
LAY-1
  6
CONTINUOUS
 62
     3
100
AcDbLine
 10
649.977295
 20
402.815247
 30
0.0
 11
655.377295
 21
402.815247
 31
0.0
  0
ARC
  5
D0
100
AcDbEntity
  8
LAY-1
  6
CONTINUOUS
 62
     3
100
AcDbCircle
 10
655.377295
 20
398.815247
 30
0.0
 40
4.0
100
AcDbArc
 50
0.0
 51
90.0
  0
LINE
  5
D1
100
AcDbEntity
  8
LAY-1
  6
CONTINUOUS
 62
     3
100
AcDbLine
 10
649.977295
 20
402.815247
 30
0.0
 11
644.577295
 21
402.815247
 31
0.0
  0
ARC
  5
D2
100
AcDbEntity
  8
LAY-1
  6
CONTINUOUS
 62
     3
100
AcDbCircle
 10
644.577295
 20
398.815247
 30
0.0
 40
4.0
100
AcDbArc
 50
90.0
 51
180.0
  0
LINE
  5
D3
100
AcDbEntity
  8
LAY-1
  6
DASHED2
 62
     3
100
AcDbLine
 10
643.477295
 20
401.615247
 30
0.0
 11
649.977295
 21
401.615247
 31
0.0
  0
LINE
  5
D4
100
AcDbEntity
  8
LAY-1
  6
DASHED2
 62
     3
100
AcDbLine
 10
643.177295
 20
401.315247
 30
0.0
 11
643.177295
 21
398.815247
 31
0.0
  0
ARC
  5
D5
100
AcDbEntity
  8
LAY-1
  6
DASHED2
 62
     3
100
AcDbCircle
 10
643.477295
 20
401.315247
 30
0.0
 40
0.3
100
AcDbArc
 50
90.0
 51
180.0
  0
LINE
  5
D6
100
AcDbEntity
  8
LAY-1
  6
DASHED2
 62
     3
100
AcDbLine
 10
656.477295
 20
401.615247
 30
0.0
 11
649.977295
 21
401.615247
 31
0.0
  0
LINE
  5
D7
100
AcDbEntity
  8
LAY-1
  6
DASHED2
 62
     3
100
AcDbLine
 10
656.777295
 20
401.315247
 30
0.0
 11
656.777295
 21
398.815247
 31
0.0
  0
ARC
  5
D8
100
AcDbEntity
  8
LAY-1
  6
DASHED2
 62
     3
100
AcDbCircle
 10
656.477295
 20
401.315247
 30
0.0
 40
0.3
100
AcDbArc
 50
0.0
 51
90.0
  0
ARC
  5
D9
100
AcDbEntity
  8
LAY-1
  6
CONTINUOUS
 62
     3
100
AcDbCircle
 10
132.403381
 20
406.613647
 30
0.0
 40
3.0
100
AcDbArc
 50
90.00002
 51
180.0
  0
ARC
  5
DA
100
AcDbEntity
  8
LAY-1
  6
CONTINUOUS
 62
     3
100
AcDbCircle
 10
186.403381
 20
406.613647
 30
0.0
 40
3.0
100
AcDbArc
 50
359.999981
 51
90.00002
  0
LINE
  5
DB
100
AcDbEntity
  8
LAY-1
  6
CONTINUOUS
 62
     3
100
AcDbLine
 10
186.403381
 20
409.613647
 30
0.0
 11
132.403381
 21
409.613647
 31
0.0
  0
LINE
  5
DC
100
AcDbEntity
  8
LAY-1
  6
DASHED2
 62
     3
100
AcDbLine
 10
189.403381
 20
366.613586
 30
0.0
 11
129.403381
 21
366.613586
 31
0.0
  0
CIRCLE
  5
DD
100
AcDbEntity
  8
LAY-1
  6
DASHED2
 62
     3
100
AcDbCircle
 10
124.403381
 20
344.613647
 30
0.0
 40
11.9
  0
LINE
  5
DE
100
AcDbEntity
  8
LAY-1
  6
CONTINUOUS
 62
     3
100
AcDbLine
 10
129.403381
 20
366.613586
 30
0.0
 11
129.403381
 21
406.613647
 31
0.0
  0
LINE
  5
DF
100
AcDbEntity
  8
LAY-1
  6
CONTINUOUS
 62
     3
100
AcDbLine
 10
189.403381
 20
366.613586
 30
0.0
 11
189.403381
 21
406.613647
 31
0.0
  0
CIRCLE
  5
E0
100
AcDbEntity
  8
LAY-1
  6
DASHED2
 62
     3
100
AcDbCircle
 10
124.403381
 20
344.613708
 30
0.0
 40
6.5
  0
CIRCLE
  5
E1
100
AcDbEntity
  8
LAY-1
  6
CONTINUOUS
 62
     1
100
AcDbCircle
 10
139.403381
 20
379.613686
 30
0.0
 40
2.5
  0
CIRCLE
  5
E2
100
AcDbEntity
  8
LAY-1
  6
CONTINUOUS
 62
     3
100
AcDbCircle
 10
139.403381
 20
379.613686
 30
0.0
 40
2.0
  0
CIRCLE
  5
E3
100
AcDbEntity
  8
LAY-1
  6
CONTINUOUS
 62
     1
100
AcDbCircle
 10
139.403381
 20
398.613686
 30
0.0
 40
2.5
  0
CIRCLE
  5
E4
100
AcDbEntity
  8
LAY-1
  6
CONTINUOUS
 62
     3
100
AcDbCircle
 10
139.403381
 20
398.613686
 30
0.0
 40
2.0
  0
CIRCLE
  5
E5
100
AcDbEntity
  8
LAY-1
  6
CONTINUOUS
 62
     1
100
AcDbCircle
 10
179.403381
 20
379.613686
 30
0.0
 40
2.5
  0
CIRCLE
  5
E6
100
AcDbEntity
  8
LAY-1
  6
CONTINUOUS
 62
     3
100
AcDbCircle
 10
179.403381
 20
379.613686
 30
0.0
 40
2.0
  0
CIRCLE
  5
E7
100
AcDbEntity
  8
LAY-1
  6
CONTINUOUS
 62
     1
100
AcDbCircle
 10
179.403381
 20
398.613686
 30
0.0
 40
2.5
  0
CIRCLE
  5
E8
100
AcDbEntity
  8
LAY-1
  6
CONTINUOUS
 62
     3
100
AcDbCircle
 10
179.403381
 20
398.613686
 30
0.0
 40
2.0
  0
CIRCLE
  5
E9
100
AcDbEntity
  8
LAY-1
  6
CONTINUOUS
 62
     3
100
AcDbCircle
 10
124.403381
 20
344.613708
 30
0.0
 40
9.4
  0
ARC
  5
EA
100
AcDbEntity
  8
LAY-1
  6
CONTINUOUS
 62
     3
100
AcDbCircle
 10
186.403381
 20
362.511414
 30
0.0
 40
3.0
100
AcDbArc
 50
300.000013
 51
359.999981
  0
LINE
  5
EB
100
AcDbEntity
  8
LAY-1
  6
CONTINUOUS
 62
     3
100
AcDbLine
 10
194.403442
 20
363.088928
 30
0.0
 11
194.403442
 21
366.613647
 31
0.0
  0
LINE
  5
EC
100
AcDbEntity
  8
LAY-1
  6
CONTINUOUS
 62
     3
100
AcDbLine
 10
189.403381
 20
366.613647
 30
0.0
 11
194.403381
 21
366.613647
 31
0.0
  0
ARC
  5
ED
100
AcDbEntity
  8
LAY-1
  6
CONTINUOUS
 62
     3
100
AcDbCircle
 10
192.403442
 20
363.088928
 30
0.0
 40
2.0
100
AcDbArc
 50
300.000013
 51
359.999981
  0
ARC
  5
EE
100
AcDbEntity
  8
LAY-1
  6
CONTINUOUS
 62
     3
100
AcDbCircle
 10
192.403442
 20
363.088928
 30
0.0
 40
1.4
100
AcDbArc
 50
299.999956
 51
359.999981
  0
LINE
  5
EF
100
AcDbEntity
  8
LAY-1
  6
CONTINUOUS
 62
     3
100
AcDbLine
 10
193.803406
 20
363.088928
 30
0.0
 11
193.803406
 21
366.613647
 31
0.0
  0
LINE
  5
F0
100
AcDbEntity
  8
LAY-1
  6
CONTINUOUS
 62
     3
100
AcDbLine
 10
189.403381
 20
362.511414
 30
0.0
 11
189.403381
 21
366.613586
 31
0.0
  0
LINE
  5
F1
100
AcDbEntity
  8
LAY-1
  6
CONTINUOUS
 62
     3
100
AcDbLine
 10
134.403381
 20
327.293152
 30
0.0
 11
193.403442
 21
361.356873
 31
0.0
  0
LINE
  5
F2
100
AcDbEntity
  8
LAY-1
  6
CONTINUOUS
 62
     3
100
AcDbLine
 10
133.653381
 20
328.592102
 30
0.0
 11
187.903381
 21
359.913391
 31
0.0
  0
LINE
  5
F3
100
AcDbEntity
  8
LAY-1
  6
CONTINUOUS
 62
     3
100
AcDbLine
 10
134.103363
 20
327.812805
 30
0.0
 11
193.103424
 21
361.876526
 31
0.0
  0
ARC
  5
F4
100
AcDbEntity
  8
LAY-1
  6
CONTINUOUS
 62
     3
100
AcDbCircle
 10
124.403381
 20
344.613708
 30
0.0
 40
20.0
100
AcDbArc
 50
90.00002
 51
300.000053
  0
ARC
  5
F5
100
AcDbEntity
  8
LAY-1
  6
CONTINUOUS
 62
     3
100
AcDbCircle
 10
124.403381
 20
344.613708
 30
0.0
 40
19.4
100
AcDbArc
 50
90.00002
 51
299.999995
  0
ARC
  5
F6
100
AcDbEntity
  8
LAY-1
  6
CONTINUOUS
 62
     3
100
AcDbCircle
 10
124.403381
 20
344.613586
 30
0.0
 40
18.5
100
AcDbArc
 50
81.585046
 51
299.999995
  0
ARC
  5
F7
100
AcDbEntity
  8
LAY-1
  6
CONTINUOUS
 62
     3
100
AcDbCircle
 10
127.403381
 20
364.892883
 30
0.0
 40
2.0
100
AcDbArc
 50
261.584951
 51
0.000021
  0
LINE
  5
F8
100
AcDbEntity
  8
LAY-1
  6
CONTINUOUS
 62
     3
100
AcDbLine
 10
129.383789
 20
364.613708
 30
0.0
 11
124.403381
 21
364.613708
 31
0.0
  0
LINE
  5
F9
100
AcDbEntity
  8
LAY-1
  6
CONTINUOUS
 62
     3
100
AcDbLine
 10
129.199738
 20
364.013672
 30
0.0
 11
124.403381
 21
364.013672
 31
0.0
  0
LINE
  5
FA
100
AcDbEntity
  8
LAY-1
  6
CONTINUOUS
 62
     3
100
AcDbLine
 10
129.403381
 20
364.892883
 30
0.0
 11
129.403381
 21
366.613586
 31
0.0
  0
ARC
  5
FB
100
AcDbEntity
  8
LAY-2
  6
CONTINUOUS
 62
     3
100
AcDbCircle
 10
630.977295
 20
366.815186
 30
0.0
 40
1.0
100
AcDbArc
 50
180.0
 51
269.999982
  0
ARC
  5
FC
100
AcDbEntity
  8
LAY-2
  6
DASHED2
 62
     3
100
AcDbCircle
 10
630.977295
 20
366.815186
 30
0.0
 40
0.4
100
AcDbArc
 50
180.0
 51
269.999982
  0
LINE
  5
FD
100
AcDbEntity
  8
LAY-2
  6
CONTINUOUS
 62
     3
100
AcDbLine
 10
629.977295
 20
380.815186
 30
0.0
 11
629.977295
 21
366.815186
 31
0.0
  0
LINE
  5
FE
100
AcDbEntity
  8
LAY-2
  6
DASHED2
 62
     3
100
AcDbLine
 10
630.577301
 20
380.815186
 30
0.0
 11
630.577301
 21
366.815186
 31
0.0
  0
LINE
  5
FF
100
AcDbEntity
  8
LAY-2
  6
CONTINUOUS
 62
     3
100
AcDbLine
 10
674.977325
 20
380.815186
 30
0.0
 11
674.977325
 21
365.815186
 31
0.0
  0
LINE
  5
100
100
AcDbEntity
  8
LAY-2
  6
CONTINUOUS
 62
     3
100
AcDbLine
 10
674.977295
 20
365.815186
 30
0.0
 11
630.977295
 21
365.815186
 31
0.0
  0
LINE
  5
101
100
AcDbEntity
  8
LAY-2
  6
DASHED2
 62
     3
100
AcDbLine
 10
674.977325
 20
366.415222
 30
0.0
 11
630.977295
 21
366.415222
 31
0.0
  0
ARC
  5
102
100
AcDbEntity
  8
LAY-2
  6
CONTINUOUS
 62
     3
100
AcDbCircle
 10
708.477325
 20
379.315186
 30
0.0
 40
1.5
100
AcDbArc
 50
359.999981
 51
90.00002
  0
ARC
  5
103
100
AcDbEntity
  8
LAY-2
  6
CONTINUOUS
 62
     3
100
AcDbCircle
 10
708.477325
 20
374.315186
 30
0.0
 40
1.5
100
AcDbArc
 50
269.999982
 51
0.000021
  0
LINE
  5
104
100
AcDbEntity
  8
LAY-2
  6
CONTINUOUS
 62
     3
100
AcDbLine
 10
674.977325
 20
372.815186
 30
0.0
 11
708.477325
 21
372.815186
 31
0.0
  0
LINE
  5
105
100
AcDbEntity
  8
LAY-2
  6
CONTINUOUS
 62
     3
100
AcDbLine
 10
709.977325
 20
374.315186
 30
0.0
 11
709.977325
 21
379.315186
 31
0.0
  0
LINE
  5
106
100
AcDbEntity
  8
LAY-2
  6
CONTINUOUS
 62
     3
100
AcDbLine
 10
680.977295
 20
379.315247
 30
0.0
 11
680.977295
 21
374.315186
 31
0.0
  0
ARC
  5
107
100
AcDbEntity
  8
LAY-2
  6
CONTINUOUS
 62
     3
100
AcDbCircle
 10
682.477295
 20
379.315247
 30
0.0
 40
1.5
100
AcDbArc
 50
90.00002
 51
180.0
  0
ARC
  5
108
100
AcDbEntity
  8
LAY-2
  6
CONTINUOUS
 62
     3
100
AcDbCircle
 10
682.477295
 20
374.315186
 30
0.0
 40
1.5
100
AcDbArc
 50
180.0
 51
269.999982
  0
LINE
  5
109
100
AcDbEntity
  8
LAY-2
  6
DASHED2
 62
     3
100
AcDbLine
 10
681.977295
 20
380.815217
 30
0.0
 11
681.977295
 21
380.315283
 31
0.0
  0
LINE
  5
10A
100
AcDbEntity
  8
LAY-2
  6
DASHED2
 62
     3
100
AcDbLine
 10
693.977295
 20
380.815247
 30
0.0
 11
693.977295
 21
380.315283
 31
0.0
  0
LINE
  5
10B
100
AcDbEntity
  8
LAY-2
  6
DASHED2
 62
     3
100
AcDbLine
 10
681.977295
 20
380.315283
 30
0.0
 11
693.977295
 21
380.315283
 31
0.0
  0
LINE
  5
10C
100
AcDbEntity
  8
LAY-2
  6
DASHED2
 62
     3
100
AcDbLine
 10
691.227295
 20
377.565283
 30
0.0
 11
693.977295
 21
380.315344
 31
0.0
  0
LINE
  5
10D
100
AcDbEntity
  8
LAY-2
  6
CONTINUOUS
 62
     3
100
AcDbLine
 10
684.727295
 20
360.715247
 30
0.0
 11
691.227295
 21
360.715247
 31
0.0
  0
LINE
  5
10E
100
AcDbEntity
  8
LAY-2
  6
DASHED2
 62
     3
100
AcDbLine
 10
684.727325
 20
377.565222
 30
0.0
 11
681.977295
 21
380.315283
 31
0.0
  0
LINE
  5
10F
100
AcDbEntity
  8
LAY-2
  6
DASHED2
 62
     3
100
AcDbLine
 10
684.727295
 20
377.565222
 30
0.0
 11
691.227295
 21
377.565222
 31
0.0
  0
LINE
  5
110
100
AcDbEntity
  8
LAY-2
  6
DASHED2
 62
     3
100
AcDbLine
 10
695.977325
 20
380.815247
 30
0.0
 11
695.977325
 21
380.315283
 31
0.0
  0
LINE
  5
111
100
AcDbEntity
  8
LAY-2
  6
DASHED2
 62
     3
100
AcDbLine
 10
707.977325
 20
380.815247
 30
0.0
 11
707.977325
 21
380.315283
 31
0.0
  0
LINE
  5
112
100
AcDbEntity
  8
LAY-2
  6
DASHED2
 62
     3
100
AcDbLine
 10
695.977325
 20
380.315283
 30
0.0
 11
707.977325
 21
380.315283
 31
0.0
  0
LINE
  5
113
100
AcDbEntity
  8
LAY-2
  6
DASHED2
 62
     3
100
AcDbLine
 10
705.227325
 20
377.565283
 30
0.0
 11
707.977325
 21
380.315344
 31
0.0
  0
LINE
  5
114
100
AcDbEntity
  8
LAY-2
  6
CONTINUOUS
 62
     3
100
AcDbLine
 10
698.727325
 20
360.715247
 30
0.0
 11
705.227325
 21
360.715247
 31
0.0
  0
LINE
  5
115
100
AcDbEntity
  8
LAY-2
  6
DASHED2
 62
     3
100
AcDbLine
 10
698.727356
 20
377.565222
 30
0.0
 11
695.977325
 21
380.315283
 31
0.0
  0
LINE
  5
116
100
AcDbEntity
  8
LAY-2
  6
DASHED2
 62
     3
100
AcDbLine
 10
698.727325
 20
377.565222
 30
0.0
 11
705.227325
 21
377.565222
 31
0.0
  0
LINE
  5
117
100
AcDbEntity
  8
LAY-2
  6
DASHED2
 62
     3
100
AcDbLine
 10
684.727325
 20
377.565222
 30
0.0
 11
684.727325
 21
368.315186
 31
0.0
  0
LINE
  5
118
100
AcDbEntity
  8
LAY-2
  6
DASHED2
 62
     1
100
AcDbLine
 10
685.227295
 20
377.565222
 30
0.0
 11
685.227295
 21
368.315186
 31
0.0
  0
LINE
  5
119
100
AcDbEntity
  8
LAY-2
  6
CONTINUOUS
 62
     3
100
AcDbLine
 10
691.227318
 20
368.315178
 30
0.0
 11
691.227295
 21
360.715247
 31
0.0
  0
LINE
  5
11A
100
AcDbEntity
  8
LAY-2
  6
CONTINUOUS
 62
     1
100
AcDbLine
 10
690.727318
 20
368.315179
 30
0.0
 11
690.727295
 21
360.715247
 31
0.0
  0
LINE
  5
11B
100
AcDbEntity
  8
LAY-2
  6
CONTINUOUS
 62
     3
100
AcDbLine
 10
684.727318
 20
368.315194
 30
0.0
 11
684.727295
 21
360.715247
 31
0.0
  0
LINE
  5
11C
100
AcDbEntity
  8
LAY-2
  6
CONTINUOUS
 62
     1
100
AcDbLine
 10
685.227318
 20
368.315193
 30
0.0
 11
685.227295
 21
360.715247
 31
0.0
  0
LINE
  5
11D
100
AcDbEntity
  8
LAY-2
  6
CONTINUOUS
 62
     3
100
AcDbLine
 10
705.227349
 20
368.315178
 30
0.0
 11
705.227325
 21
360.715247
 31
0.0
  0
LINE
  5
11E
100
AcDbEntity
  8
LAY-2
  6
CONTINUOUS
 62
     1
100
AcDbLine
 10
704.727349
 20
368.315179
 30
0.0
 11
704.727325
 21
360.715247
 31
0.0
  0
LINE
  5
11F
100
AcDbEntity
  8
LAY-2
  6
CONTINUOUS
 62
     3
100
AcDbLine
 10
698.727349
 20
368.315194
 30
0.0
 11
698.727325
 21
360.715247
 31
0.0
  0
LINE
  5
120
100
AcDbEntity
  8
LAY-2
  6
CONTINUOUS
 62
     1
100
AcDbLine
 10
699.227349
 20
368.315193
 30
0.0
 11
699.227325
 21
360.715247
 31
0.0
  0
LINE
  5
121
100
AcDbEntity
  8
LAY-2
  6
DASHED2
 62
     1
100
AcDbLine
 10
690.727264
 20
377.565222
 30
0.0
 11
690.727264
 21
368.315186
 31
0.0
  0
LINE
  5
122
100
AcDbEntity
  8
LAY-2
  6
DASHED2
 62
     3
100
AcDbLine
 10
691.227295
 20
377.565283
 30
0.0
 11
691.227295
 21
368.315186
 31
0.0
  0
LINE
  5
123
100
AcDbEntity
  8
LAY-2
  6
DASHED2
 62
     1
100
AcDbLine
 10
699.227325
 20
377.565222
 30
0.0
 11
699.227325
 21
368.315186
 31
0.0
  0
LINE
  5
124
100
AcDbEntity
  8
LAY-2
  6
DASHED2
 62
     3
100
AcDbLine
 10
698.727356
 20
377.565222
 30
0.0
 11
698.727356
 21
368.315186
 31
0.0
  0
LINE
  5
125
100
AcDbEntity
  8
LAY-2
  6
DASHED2
 62
     1
100
AcDbLine
 10
704.727295
 20
377.565222
 30
0.0
 11
704.727295
 21
368.315186
 31
0.0
  0
LINE
  5
126
100
AcDbEntity
  8
LAY-2
  6
DASHED2
 62
     3
100
AcDbLine
 10
705.227325
 20
377.565283
 30
0.0
 11
705.227325
 21
368.315186
 31
0.0
  0
LINE
  5
127
100
AcDbEntity
  8
LAY-2
  6
CONTINUOUS
 62
     3
100
AcDbLine
 10
656.227295
 20
383.815247
 30
0.0
 11
656.227295
 21
380.815208
 31
0.0
  0
LINE
  5
128
100
AcDbEntity
  8
LAY-2
  6
CONTINUOUS
 62
     3
100
AcDbLine
 10
643.727295
 20
383.815247
 30
0.0
 11
643.727295
 21
380.815197
 31
0.0
  0
ARC
  5
129
100
AcDbEntity
  8
LAY-2
  6
CONTINUOUS
 62
     3
100
AcDbCircle
 10
139.403381
 20
225.876953
 30
0.0
 40
10.0
100
AcDbArc
 50
90.00002
 51
180.000001
  0
LINE
  5
12A
100
AcDbEntity
  8
LAY-2
  6
CONTINUOUS
 62
     3
100
AcDbLine
 10
229.403412
 20
232.876953
 30
0.0
 11
229.403412
 21
214.876953
 31
0.0
  0
ARC
  5
12B
100
AcDbEntity
  8
LAY-2
  6
CONTINUOUS
 62
     3
100
AcDbCircle
 10
226.403412
 20
232.876953
 30
0.0
 40
3.0
100
AcDbArc
 50
359.999981
 51
90.00002
  0
LINE
  5
12C
100
AcDbEntity
  8
LAY-2
  6
CONTINUOUS
 62
     3
100
AcDbLine
 10
139.403381
 20
235.876953
 30
0.0
 11
226.403412
 21
235.876953
 31
0.0
  0
LINE
  5
12D
100
AcDbEntity
  8
LAY-2
  6
CONTINUOUS
 62
     3
100
AcDbLine
 10
129.403381
 20
225.876953
 30
0.0
 11
129.403381
 21
196.376953
 31
0.0
  0
ARC
  5
12E
100
AcDbEntity
  8
LAY-2
  6
CONTINUOUS
 62
     3
100
AcDbCircle
 10
191.403412
 20
204.876953
 30
0.0
 40
2.0
100
AcDbArc
 50
90.00002
 51
180.0
  0
LINE
  5
12F
100
AcDbEntity
  8
LAY-2
  6
DASHED2
 62
     3
100
AcDbLine
 10
189.403442
 20
200.876953
 30
0.0
 11
129.403412
 21
200.876953
 31
0.0
  0
LINE
  5
130
100
AcDbEntity
  8
LAY-2
  6
CONTINUOUS
 62
     3
100
AcDbLine
 10
221.403412
 20
206.876953
 30
0.0
 11
191.403412
 21
206.876953
 31
0.0
  0
ARC
  5
131
100
AcDbEntity
  8
LAY-2
  6
CONTINUOUS
 62
     3
100
AcDbCircle
 10
221.403412
 20
214.876953
 30
0.0
 40
8.0
100
AcDbArc
 50
269.999982
 51
0.000021
  0
CIRCLE
  5
132
100
AcDbEntity
  8
LAY-2
  6
CONTINUOUS
 62
     3
100
AcDbCircle
 10
139.403381
 20
213.876953
 30
0.0
 40
6.0
  0
CIRCLE
  5
133
100
AcDbEntity
  8
LAY-2
  6
CONTINUOUS
 62
     3
100
AcDbCircle
 10
139.403381
 20
213.876953
 30
0.0
 40
3.25
  0
CIRCLE
  5
134
100
AcDbEntity
  8
LAY-2
  6
CONTINUOUS
 62
     3
100
AcDbCircle
 10
164.403381
 20
227.876953
 30
0.0
 40
6.0
  0
CIRCLE
  5
135
100
AcDbEntity
  8
LAY-2
  6
CONTINUOUS
 62
     3
100
AcDbCircle
 10
164.403381
 20
227.876953
 30
0.0
 40
3.25
  0
CIRCLE
  5
136
100
AcDbEntity
  8
LAY-2
  6
CONTINUOUS
 62
     3
100
AcDbCircle
 10
194.403381
 20
213.876953
 30
0.0
 40
6.0
  0
CIRCLE
  5
137
100
AcDbEntity
  8
LAY-2
  6
CONTINUOUS
 62
     3
100
AcDbCircle
 10
194.403381
 20
213.876953
 30
0.0
 40
3.25
  0
CIRCLE
  5
138
100
AcDbEntity
  8
LAY-2
  6
CONTINUOUS
 62
     3
100
AcDbCircle
 10
219.403381
 20
227.876953
 30
0.0
 40
6.0
  0
CIRCLE
  5
139
100
AcDbEntity
  8
LAY-2
  6
CONTINUOUS
 62
     3
100
AcDbCircle
 10
219.403381
 20
227.876953
 30
0.0
 40
3.25
  0
CIRCLE
  5
13A
100
AcDbEntity
  8
LAY-2
  6
CONTINUOUS
 62
     3
100
AcDbCircle
 10
124.403412
 20
175.876953
 30
0.0
 40
7.5
  0
LINE
  5
13B
100
AcDbEntity
  8
LAY-2
  6
DASHED2
 62
     1
100
AcDbLine
 10
123.032931
 20
183.250675
 30
0.0
 11
117.40332
 21
193.001465
 31
0.0
  0
LINE
  5
13C
100
AcDbEntity
  8
LAY-2
  6
DASHED2
 62
     3
100
AcDbLine
 10
123.564559
 20
183.329894
 30
0.0
 11
117.873901
 21
193.186371
 31
0.0
  0
LINE
  5
13D
100
AcDbEntity
  8
LAY-2
  6
DASHED2
 62
     1
100
AcDbLine
 10
118.702823
 20
180.750688
 30
0.0
 11
113.073181
 21
190.501465
 31
0.0
  0
LINE
  5
13E
100
AcDbEntity
  8
LAY-2
  6
DASHED2
 62
     3
100
AcDbLine
 10
118.368396
 20
180.329883
 30
0.0
 11
112.677765
 21
190.186371
 31
0.0
  0
CIRCLE
  5
13F
100
AcDbEntity
  8
LAY-2
  6
CONTINUOUS
 62
     3
100
AcDbCircle
 10
124.403397
 20
175.876938
 30
0.0
 40
6.25
  0
LINE
  5
140
100
AcDbEntity
  8
LAY-2
  6
CONTINUOUS
 62
     3
100
AcDbLine
 10
189.403412
 20
204.876953
 30
0.0
 11
189.403401
 21
200.876953
 31
0.0
  0
ARC
  5
141
100
AcDbEntity
  8
LAY-2
  6
CONTINUOUS
 62
     3
100
AcDbCircle
 10
186.403381
 20
193.774841
 30
0.0
 40
3.0
100
AcDbArc
 50
300.000013
 51
359.999981
  0
ARC
  5
142
100
AcDbEntity
  8
LAY-2
  6
CONTINUOUS
 62
     3
100
AcDbCircle
 10
192.403442
 20
194.352234
 30
0.0
 40
2.0
100
AcDbArc
 50
300.000013
 51
359.999981
  0
LINE
  5
143
100
AcDbEntity
  8
LAY-2
  6
CONTINUOUS
 62
     3
100
AcDbLine
 10
194.403442
 20
194.352234
 30
0.0
 11
194.403442
 21
200.876953
 31
0.0
  0
LINE
  5
144
100
AcDbEntity
  8
LAY-2
  6
CONTINUOUS
 62
     3
100
AcDbLine
 10
189.403381
 20
200.876953
 30
0.0
 11
194.403381
 21
200.876953
 31
0.0
  0
ARC
  5
145
100
AcDbEntity
  8
LAY-2
  6
DASHED
 62
     3
100
AcDbCircle
 10
192.403442
 20
194.352234
 30
0.0
 40
1.4
100
AcDbArc
 50
299.999956
 51
359.999981
  0
LINE
  5
146
100
AcDbEntity
  8
LAY-2
  6
CONTINUOUS
 62
     3
100
AcDbLine
 10
193.803406
 20
194.352234
 30
0.0
 11
193.803406
 21
200.876953
 31
0.0
  0
LINE
  5
147
100
AcDbEntity
  8
LAY-2
  6
CONTINUOUS
 62
     3
100
AcDbLine
 10
189.403401
 20
200.876953
 30
0.0
 11
189.403381
 21
193.774841
 31
0.0
  0
LINE
  5
148
100
AcDbEntity
  8
LAY-2
  6
CONTINUOUS
 62
     3
100
AcDbLine
 10
133.653381
 20
159.855469
 30
0.0
 11
187.903381
 21
191.176758
 31
0.0
  0
LINE
  5
149
100
AcDbEntity
  8
LAY-2
  6
CONTINUOUS
 62
     3
100
AcDbLine
 10
134.403381
 20
158.556458
 30
0.0
 11
193.403442
 21
192.620178
 31
0.0
  0
LINE
  5
14A
100
AcDbEntity
  8
LAY-2
  6
CONTINUOUS
 62
     3
100
AcDbLine
 10
134.103394
 20
159.07608
 30
0.0
 11
193.103424
 21
193.139801
 31
0.0
  0
ARC
  5
14B
100
AcDbEntity
  8
LAY-2
  6
CONTINUOUS
 62
     3
100
AcDbCircle
 10
124.403381
 20
175.876953
 30
0.0
 40
20.0
100
AcDbArc
 50
90.00002
 51
300.000053
  0
ARC
  5
14C
100
AcDbEntity
  8
LAY-2
  6
CONTINUOUS
 62
     3
100
AcDbCircle
 10
124.403381
 20
175.876953
 30
0.0
 40
19.4
100
AcDbArc
 50
90.00002
 51
300.000053
  0
ARC
  5
14D
100
AcDbEntity
  8
LAY-2
  6
CONTINUOUS
 62
     3
100
AcDbCircle
 10
124.403381
 20
175.876953
 30
0.0
 40
18.5
100
AcDbArc
 50
90.00002
 51
299.983838
  0
LINE
  5
14E
100
AcDbEntity
  8
LAY-2
  6
CONTINUOUS
 62
     3
100
AcDbLine
 10
124.403381
 20
194.376953
 30
0.0
 11
127.403381
 21
194.376953
 31
0.0
  0
ARC
  5
14F
100
AcDbEntity
  8
LAY-2
  6
CONTINUOUS
 62
     3
100
AcDbCircle
 10
127.403381
 20
196.376953
 30
0.0
 40
2.0
100
AcDbArc
 50
269.999982
 51
0.000021
  0
LINE
  5
150
100
AcDbEntity
  8
LAY-2
  6
CONTINUOUS
 62
     3
100
AcDbLine
 10
129.339905
 20
195.876953
 30
0.0
 11
124.403381
 21
195.876953
 31
0.0
  0
LINE
  5
151
100
AcDbEntity
  8
LAY-2
  6
CONTINUOUS
 62
     3
100
AcDbLine
 10
129.07373
 20
195.276947
 30
0.0
 11
124.403381
 21
195.276947
 31
0.0
  0
LINE
  5
152
100
AcDbEntity
  8
LAY-2
  6
CONTINUOUS
 62
     3
100
AcDbLine
 10
708.477324
 20
380.815251
 30
0.0
 11
629.977295
 21
380.815186
 31
0.0
  0
ARC
  5
153
100
AcDbEntity
  8
LAY-3
  6
CONTINUOUS
 62
     3
100
AcDbCircle
 10
356.403381
 20
396.491089
 30
0.0
 40
10.0
100
AcDbArc
 50
90.00002
 51
180.000001
  0
LINE
  5
154
100
AcDbEntity
  8
LAY-3
  6
CONTINUOUS
 62
     3
100
AcDbLine
 10
346.403381
 20
366.491089
 30
0.0
 11
346.403381
 21
396.491089
 31
0.0
  0
ARC
  5
155
100
AcDbEntity
  8
LAY-3
  6
CONTINUOUS
 62
     3
100
AcDbCircle
 10
408.403381
 20
375.491089
 30
0.0
 40
2.0
100
AcDbArc
 50
90.00002
 51
179.999944
  0
CIRCLE
  5
156
100
AcDbEntity
  8
LAY-3
  6
DASHED2
 62
     3
100
AcDbCircle
 10
356.403381
 20
384.491089
 30
0.0
 40
6.0
  0
CIRCLE
  5
157
100
AcDbEntity
  8
LAY-3
  6
CONTINUOUS
 62
     3
100
AcDbCircle
 10
356.403381
 20
384.491089
 30
0.0
 40
3.25
  0
CIRCLE
  5
158
100
AcDbEntity
  8
LAY-3
  6
DASHED2
 62
     3
100
AcDbCircle
 10
386.403381
 20
398.491089
 30
0.0
 40
6.0
  0
CIRCLE
  5
159
100
AcDbEntity
  8
LAY-3
  6
CONTINUOUS
 62
     3
100
AcDbCircle
 10
386.403381
 20
398.491089
 30
0.0
 40
3.25
  0
CIRCLE
  5
15A
100
AcDbEntity
  8
LAY-3
  6
DASHED2
 62
     3
100
AcDbCircle
 10
426.403381
 20
384.491089
 30
0.0
 40
6.0
  0
CIRCLE
  5
15B
100
AcDbEntity
  8
LAY-3
  6
CONTINUOUS
 62
     3
100
AcDbCircle
 10
426.403381
 20
384.491089
 30
0.0
 40
3.25
  0
LINE
  5
15C
100
AcDbEntity
  8
LAY-3
  6
CONTINUOUS
 62
     3
100
AcDbLine
 10
466.403381
 20
403.491089
 30
0.0
 11
466.403381
 21
385.491089
 31
0.0
  0
ARC
  5
15D
100
AcDbEntity
  8
LAY-3
  6
CONTINUOUS
 62
     3
100
AcDbCircle
 10
463.403381
 20
403.491089
 30
0.0
 40
3.0
100
AcDbArc
 50
359.999981
 51
90.00002
  0
ARC
  5
15E
100
AcDbEntity
  8
LAY-3
  6
CONTINUOUS
 62
     3
100
AcDbCircle
 10
458.403381
 20
385.491089
 30
0.0
 40
8.0
100
AcDbArc
 50
269.999982
 51
0.000021
  0
LINE
  5
15F
100
AcDbEntity
  8
LAY-3
  6
CONTINUOUS
 62
     3
100
AcDbLine
 10
356.403381
 20
406.491089
 30
0.0
 11
463.403381
 21
406.491089
 31
0.0
  0
LINE
  5
160
100
AcDbEntity
  8
LAY-3
  6
CONTINUOUS
 62
     3
100
AcDbLine
 10
458.403381
 20
377.491089
 30
0.0
 11
408.403381
 21
377.491089
 31
0.0
  0
CIRCLE
  5
161
100
AcDbEntity
  8
LAY-3
  6
DASHED2
 62
     3
100
AcDbCircle
 10
456.403381
 20
398.491089
 30
0.0
 40
6.0
  0
CIRCLE
  5
162
100
AcDbEntity
  8
LAY-3
  6
CONTINUOUS
 62
     3
100
AcDbCircle
 10
456.403381
 20
398.491089
 30
0.0
 40
3.25
  0
LINE
  5
163
100
AcDbEntity
  8
LAY-3
  6
CONTINUOUS
 62
     3
100
AcDbLine
 10
406.403381
 20
375.491089
 30
0.0
 11
406.403381
 21
371.491058
 31
0.0
  0
LINE
  5
164
100
AcDbEntity
  8
LAY-3
  6
CONTINUOUS
 62
     3
100
AcDbLine
 10
674.977356
 20
205.965515
 30
0.0
 11
629.977356
 21
205.965515
 31
0.0
  0
ARC
  5
165
100
AcDbEntity
  8
LAY-3
  6
CONTINUOUS
 62
     3
100
AcDbCircle
 10
630.977356
 20
219.965515
 30
0.0
 40
1.0
100
AcDbArc
 50
90.00002
 51
180.0
  0
ARC
  5
166
100
AcDbEntity
  8
LAY-3
  6
DASHED2
 62
     3
100
AcDbCircle
 10
630.977356
 20
219.965515
 30
0.0
 40
0.4
100
AcDbArc
 50
90.00002
 51
180.0
  0
LINE
  5
167
100
AcDbEntity
  8
LAY-3
  6
CONTINUOUS
 62
     3
100
AcDbLine
 10
674.977356
 20
220.965515
 30
0.0
 11
630.977356
 21
220.965515
 31
0.0
  0
LINE
  5
168
100
AcDbEntity
  8
LAY-3
  6
DASHED2
 62
     3
100
AcDbLine
 10
674.977356
 20
220.365479
 30
0.0
 11
630.977356
 21
220.365479
 31
0.0
  0
LINE
  5
169
100
AcDbEntity
  8
LAY-3
  6
CONTINUOUS
 62
     3
100
AcDbLine
 10
629.977356
 20
205.965515
 30
0.0
 11
629.977356
 21
219.965515
 31
0.0
  0
LINE
  5
16A
100
AcDbEntity
  8
LAY-3
  6
DASHED2
 62
     3
100
AcDbLine
 10
630.577362
 20
205.965515
 30
0.0
 11
630.577362
 21
219.965515
 31
0.0
  0
LINE
  5
16B
100
AcDbEntity
  8
LAY-3
  6
CONTINUOUS
 62
     3
100
AcDbLine
 10
674.977356
 20
220.965515
 30
0.0
 11
674.977356
 21
205.965515
 31
0.0
  0
LINE
  5
16C
100
AcDbEntity
  8
LAY-3
  6
CONTINUOUS
 62
     3
100
AcDbLine
 10
674.977356
 20
217.965515
 30
0.0
 11
708.444752
 21
217.965551
 31
0.0
  0
LINE
  5
16D
100
AcDbEntity
  8
LAY-3
  6
CONTINUOUS
 62
     3
100
AcDbLine
 10
674.977356
 20
205.965515
 30
0.0
 11
708.444763
 21
205.965515
 31
0.0
  0
LINE
  5
16E
100
AcDbEntity
  8
LAY-3
  6
CONTINUOUS
 62
     3
100
AcDbLine
 10
709.944763
 20
207.465546
 30
0.0
 11
709.944763
 21
216.465546
 31
0.0
  0
ARC
  5
16F
100
AcDbEntity
  8
LAY-3
  6
CONTINUOUS
 62
     3
100
AcDbCircle
 10
708.444763
 20
216.465546
 30
0.0
 40
1.5
100
AcDbArc
 50
359.999981
 51
90.00002
  0
ARC
  5
170
100
AcDbEntity
  8
LAY-3
  6
CONTINUOUS
 62
     3
100
AcDbCircle
 10
708.444763
 20
207.465546
 30
0.0
 40
1.5
100
AcDbArc
 50
269.999982
 51
0.000021
  0
LINE
  5
171
100
AcDbEntity
  8
LAY-3
  6
CONTINUOUS
 62
     3
100
AcDbLine
 10
680.977356
 20
216.465515
 30
0.0
 11
680.977356
 21
207.465515
 31
0.0
  0
ARC
  5
172
100
AcDbEntity
  8
LAY-3
  6
CONTINUOUS
 62
     3
100
AcDbCircle
 10
682.477356
 20
216.465515
 30
0.0
 40
1.5
100
AcDbArc
 50
90.00002
 51
180.0
  0
ARC
  5
173
100
AcDbEntity
  8
LAY-3
  6
CONTINUOUS
 62
     3
100
AcDbCircle
 10
682.477356
 20
207.465515
 30
0.0
 40
1.5
100
AcDbArc
 50
180.0
 51
269.999982
  0
LINE
  5
174
100
AcDbEntity
  8
LAY-3
  6
DASHED2
 62
     3
100
AcDbLine
 10
693.977356
 20
205.965485
 30
0.0
 11
693.977356
 21
206.465479
 31
0.0
  0
LINE
  5
175
100
AcDbEntity
  8
LAY-3
  6
DASHED2
 62
     3
100
AcDbLine
 10
681.977356
 20
205.965485
 30
0.0
 11
681.977356
 21
206.465479
 31
0.0
  0
LINE
  5
176
100
AcDbEntity
  8
LAY-3
  6
DASHED2
 62
     3
100
AcDbLine
 10
693.977356
 20
206.465479
 30
0.0
 11
681.977356
 21
206.465479
 31
0.0
  0
LINE
  5
177
100
AcDbEntity
  8
LAY-3
  6
DASHED2
 62
     3
100
AcDbLine
 10
684.727356
 20
209.215448
 30
0.0
 11
681.977356
 21
206.465417
 31
0.0
  0
LINE
  5
178
100
AcDbEntity
  8
LAY-3
  6
CONTINUOUS
 62
     3
100
AcDbLine
 10
691.227356
 20
226.065485
 30
0.0
 11
684.727356
 21
226.065454
 31
0.0
  0
LINE
  5
179
100
AcDbEntity
  8
LAY-3
  6
DASHED2
 62
     3
100
AcDbLine
 10
691.227325
 20
209.215509
 30
0.0
 11
693.977356
 21
206.465479
 31
0.0
  0
LINE
  5
17A
100
AcDbEntity
  8
LAY-3
  6
DASHED2
 62
     3
100
AcDbLine
 10
691.227356
 20
209.215509
 30
0.0
 11
684.727356
 21
209.215479
 31
0.0
  0
LINE
  5
17B
100
AcDbEntity
  8
LAY-3
  6
DASHED2
 62
     3
100
AcDbLine
 10
707.977325
 20
205.965515
 30
0.0
 11
707.977325
 21
206.465479
 31
0.0
  0
LINE
  5
17C
100
AcDbEntity
  8
LAY-3
  6
DASHED2
 62
     3
100
AcDbLine
 10
695.977325
 20
205.965485
 30
0.0
 11
695.977325
 21
206.465479
 31
0.0
  0
LINE
  5
17D
100
AcDbEntity
  8
LAY-3
  6
DASHED2
 62
     3
100
AcDbLine
 10
707.977325
 20
206.465479
 30
0.0
 11
695.977325
 21
206.465479
 31
0.0
  0
LINE
  5
17E
100
AcDbEntity
  8
LAY-3
  6
DASHED2
 62
     3
100
AcDbLine
 10
698.727325
 20
209.215448
 30
0.0
 11
695.977325
 21
206.465417
 31
0.0
  0
LINE
  5
17F
100
AcDbEntity
  8
LAY-3
  6
CONTINUOUS
 62
     3
100
AcDbLine
 10
705.227325
 20
226.065485
 30
0.0
 11
698.727325
 21
226.065454
 31
0.0
  0
LINE
  5
180
100
AcDbEntity
  8
LAY-3
  6
DASHED2
 62
     3
100
AcDbLine
 10
705.227295
 20
209.215509
 30
0.0
 11
707.977325
 21
206.465479
 31
0.0
  0
LINE
  5
181
100
AcDbEntity
  8
LAY-3
  6
DASHED2
 62
     3
100
AcDbLine
 10
705.227325
 20
209.215509
 30
0.0
 11
698.727325
 21
209.215479
 31
0.0
  0
LINE
  5
182
100
AcDbEntity
  8
LAY-3
  6
CONTINUOUS
 62
     3
100
AcDbLine
 10
684.727356
 20
224.765515
 30
0.0
 11
684.727356
 21
226.065454
 31
0.0
  0
LINE
  5
183
100
AcDbEntity
  8
LAY-3
  6
CONTINUOUS
 62
     1
100
AcDbLine
 10
685.227356
 20
224.765515
 30
0.0
 11
685.227356
 21
226.065454
 31
0.0
  0
LINE
  5
184
100
AcDbEntity
  8
LAY-3
  6
CONTINUOUS
 62
     3
100
AcDbLine
 10
691.227356
 20
224.765515
 30
0.0
 11
691.227356
 21
226.065485
 31
0.0
  0
LINE
  5
185
100
AcDbEntity
  8
LAY-3
  6
CONTINUOUS
 62
     1
100
AcDbLine
 10
690.727356
 20
224.765515
 30
0.0
 11
690.727356
 21
226.065485
 31
0.0
  0
LINE
  5
186
100
AcDbEntity
  8
LAY-3
  6
CONTINUOUS
 62
     3
100
AcDbLine
 10
698.727325
 20
224.765515
 30
0.0
 11
698.727325
 21
226.065454
 31
0.0
  0
LINE
  5
187
100
AcDbEntity
  8
LAY-3
  6
CONTINUOUS
 62
     1
100
AcDbLine
 10
699.227325
 20
224.765515
 30
0.0
 11
699.227325
 21
226.065454
 31
0.0
  0
LINE
  5
188
100
AcDbEntity
  8
LAY-3
  6
CONTINUOUS
 62
     3
100
AcDbLine
 10
705.227325
 20
224.765515
 30
0.0
 11
705.227325
 21
226.065485
 31
0.0
  0
LINE
  5
189
100
AcDbEntity
  8
LAY-3
  6
CONTINUOUS
 62
     1
100
AcDbLine
 10
704.727325
 20
224.765515
 30
0.0
 11
704.727325
 21
226.065485
 31
0.0
  0
LINE
  5
18A
100
AcDbEntity
  8
LAY-3
  6
DASHED2
 62
     3
100
AcDbLine
 10
705.227295
 20
209.215509
 30
0.0
 11
705.227329
 21
224.765515
 31
0.0
  0
LINE
  5
18B
100
AcDbEntity
  8
LAY-3
  6
DASHED2
 62
     1
100
AcDbLine
 10
704.727325
 20
209.215509
 30
0.0
 11
704.727325
 21
224.765515
 31
0.0
  0
LINE
  5
18C
100
AcDbEntity
  8
LAY-3
  6
DASHED2
 62
     1
100
AcDbLine
 10
699.227356
 20
209.215479
 30
0.0
 11
699.227321
 21
224.765515
 31
0.0
  0
LINE
  5
18D
100
AcDbEntity
  8
LAY-3
  6
DASHED2
 62
     3
100
AcDbLine
 10
698.727325
 20
209.215448
 30
0.0
 11
698.727325
 21
224.765515
 31
0.0
  0
LINE
  5
18E
100
AcDbEntity
  8
LAY-3
  6
DASHED2
 62
     3
100
AcDbLine
 10
691.227325
 20
209.215509
 30
0.0
 11
691.22736
 21
224.765515
 31
0.0
  0
LINE
  5
18F
100
AcDbEntity
  8
LAY-3
  6
DASHED2
 62
     1
100
AcDbLine
 10
690.727356
 20
209.215509
 30
0.0
 11
690.727356
 21
224.765515
 31
0.0
  0
LINE
  5
190
100
AcDbEntity
  8
LAY-3
  6
DASHED2
 62
     3
100
AcDbLine
 10
684.727356
 20
209.215448
 30
0.0
 11
684.727356
 21
224.765515
 31
0.0
  0
LINE
  5
191
100
AcDbEntity
  8
LAY-3
  6
DASHED2
 62
     1
100
AcDbLine
 10
685.227386
 20
209.215479
 30
0.0
 11
685.227352
 21
224.765515
 31
0.0
  0
LINE
  5
192
100
AcDbEntity
  8
LAY-3
  6
DASHED2
 62
     3
100
AcDbLine
 10
406.403381
 20
371.491058
 30
0.0
 11
406.403381
 21
364.388947
 31
0.0
  0
ARC
  5
193
100
AcDbEntity
  8
LAY-3
  6
DASHED2
 62
     3
100
AcDbCircle
 10
341.403381
 20
346.491089
 30
0.0
 40
18.5
100
AcDbArc
 50
90.00002
 51
299.983838
  0
LINE
  5
194
100
AcDbEntity
  8
LAY-3
  6
DASHED2
 62
     3
100
AcDbLine
 10
341.403381
 20
364.991089
 30
0.0
 11
344.403381
 21
364.991089
 31
0.0
  0
LINE
  5
195
100
AcDbEntity
  8
LAY-3
  6
DASHED2
 62
     3
100
AcDbLine
 10
350.653381
 20
330.469635
 30
0.0
 11
404.903381
 21
361.790894
 31
0.0
  0
ARC
  5
196
100
AcDbEntity
  8
LAY-3
  6
DASHED2
 62
     3
100
AcDbCircle
 10
344.403381
 20
366.991089
 30
0.0
 40
2.0
100
AcDbArc
 50
269.999982
 51
326.633766
  0
ARC
  5
197
100
AcDbEntity
  8
LAY-3
  6
DASHED2
 62
     3
100
AcDbCircle
 10
403.403381
 20
364.388947
 30
0.0
 40
3.0
100
AcDbArc
 50
300.000013
 51
359.999981
  0
CIRCLE
  5
198
100
AcDbEntity
  8
LAY-3
  6
DASHED2
 62
     3
100
AcDbCircle
 10
341.403381
 20
346.491089
 30
0.0
 40
15.5
  0
ARC
  5
199
100
AcDbEntity
  8
LAY-3
  6
CONTINUOUS
 62
     3
100
AcDbCircle
 10
341.403381
 20
346.491089
 30
0.0
 40
20.0
100
AcDbArc
 50
90.00002
 51
300.000053
  0
LINE
  5
19A
100
AcDbEntity
  8
LAY-3
  6
CONTINUOUS
 62
     3
100
AcDbLine
 10
346.339874
 20
366.491089
 30
0.0
 11
341.403381
 21
366.491089
 31
0.0
  0
LINE
  5
19B
100
AcDbEntity
  8
LAY-3
  6
CONTINUOUS
 62
     3
100
AcDbLine
 10
351.403381
 20
329.170593
 30
0.0
 11
410.403381
 21
363.234283
 31
0.0
  0
ARC
  5
19C
100
AcDbEntity
  8
LAY-3
  6
CONTINUOUS
 62
     3
100
AcDbCircle
 10
409.403381
 20
364.966339
 30
0.0
 40
2.0
100
AcDbArc
 50
300.000013
 51
359.999981
  0
LINE
  5
19D
100
AcDbEntity
  8
LAY-3
  6
CONTINUOUS
 62
     3
100
AcDbLine
 10
346.403381
 20
371.491058
 30
0.0
 11
411.403381
 21
371.491058
 31
0.0
  0
LINE
  5
19E
100
AcDbEntity
  8
LAY-3
  6
CONTINUOUS
 62
     3
100
AcDbLine
 10
411.403381
 20
364.966339
 30
0.0
 11
411.403381
 21
371.491058
 31
0.0
  0
LINE
  5
19F
100
AcDbEntity
  8
LAY-3
  6
DASHED2
 62
     3
100
AcDbLine
 10
346.403381
 20
365.891113
 30
0.0
 11
341.403381
 21
365.891083
 31
0.0
  0
ARC
  5
1A0
100
AcDbEntity
  8
LAY-3
  6
DASHED2
 62
     3
100
AcDbCircle
 10
341.403381
 20
346.491089
 30
0.0
 40
19.4
100
AcDbArc
 50
90.00002
 51
299.999995
  0
LINE
  5
1A1
100
AcDbEntity
  8
LAY-3
  6
DASHED2
 62
     3
100
AcDbLine
 10
351.103363
 20
329.690216
 30
0.0
 11
410.103394
 21
363.753906
 31
0.0
  0
ARC
  5
1A2
100
AcDbEntity
  8
LAY-3
  6
DASHED2
 62
     3
100
AcDbCircle
 10
409.403381
 20
364.966339
 30
0.0
 40
1.4
100
AcDbArc
 50
299.999956
 51
359.999981
  0
LINE
  5
1A3
100
AcDbEntity
  8
LAY-3
  6
DASHED2
 62
     3
100
AcDbLine
 10
410.803406
 20
364.966339
 30
0.0
 11
410.803406
 21
371.491058
 31
0.0
  0
LINE
  5
1A4
100
AcDbEntity
  8
LAY-3
  6
DASHED2
 62
     3
100
AcDbLine
 10
346.403381
 20
366.491089
 30
0.0
 11
346.403381
 21
365.891113
 31
0.0
  0
CIRCLE
  5
1A5
100
AcDbEntity
  8
LAY-3
  6
DASHED2
 62
     3
100
AcDbCircle
 10
341.403381
 20
346.491089
 30
0.0
 40
7.5
  0
LINE
  5
1A6
100
AcDbEntity
  8
LAY-4
  6
DASHED2
 62
     3
100
AcDbLine
 10
701.477356
 20
197.265485
 30
0.0
 11
706.477356
 21
197.265485
 31
0.0
  0
LINE
  5
1A7
100
AcDbEntity
  8
LAY-4
  6
DASHED2
 62
     3
100
AcDbLine
 10
706.477356
 20
197.265485
 30
0.0
 11
708.627356
 21
199.415485
 31
0.0
  0
LINE
  5
1A8
100
AcDbEntity
  8
LAY-4
  6
DASHED2
 62
     3
100
AcDbLine
 10
701.477356
 20
197.265485
 30
0.0
 11
699.327356
 21
199.415485
 31
0.0
  0
LINE
  5
1A9
100
AcDbEntity
  8
LAY-4
  6
DASHED2
 62
     3
100
AcDbLine
 10
708.627356
 20
199.415485
 30
0.0
 11
699.327356
 21
199.415485
 31
0.0
  0
LINE
  5
1AA
100
AcDbEntity
  8
LAY-4
  6
DASHED2
 62
     3
100
AcDbLine
 10
708.627356
 20
199.415485
 30
0.0
 11
708.627356
 21
199.965485
 31
0.0
  0
LINE
  5
1AB
100
AcDbEntity
  8
LAY-4
  6
DASHED2
 62
     3
100
AcDbLine
 10
699.327356
 20
199.415485
 30
0.0
 11
699.327356
 21
199.965485
 31
0.0
  0
LINE
  5
1AC
100
AcDbEntity
  8
LAY-4
  6
DASHED2
 62
     3
100
AcDbLine
 10
706.477356
 20
184.965485
 30
0.0
 11
706.477356
 21
197.265485
 31
0.0
  0
LINE
  5
1AD
100
AcDbEntity
  8
LAY-4
  6
DASHED2
 62
     1
100
AcDbLine
 10
705.977356
 20
184.965485
 30
0.0
 11
705.977356
 21
197.265485
 31
0.0
  0
LINE
  5
1AE
100
AcDbEntity
  8
LAY-4
  6
DASHED2
 62
     1
100
AcDbLine
 10
701.977356
 20
184.965485
 30
0.0
 11
701.977356
 21
197.265485
 31
0.0
  0
LINE
  5
1AF
100
AcDbEntity
  8
LAY-4
  6
DASHED2
 62
     3
100
AcDbLine
 10
701.477356
 20
184.965485
 30
0.0
 11
701.477356
 21
197.265485
 31
0.0
  0
LINE
  5
1B0
100
AcDbEntity
  8
LAY-4
  6
CONTINUOUS
 62
     3
100
AcDbLine
 10
701.477356
 20
179.415485
 30
0.0
 11
706.477356
 21
179.415485
 31
0.0
  0
LINE
  5
1B1
100
AcDbEntity
  8
LAY-4
  6
CONTINUOUS
 62
     3
100
AcDbLine
 10
706.477356
 20
179.415485
 30
0.0
 11
706.477356
 21
184.965485
 31
0.0
  0
LINE
  5
1B2
100
AcDbEntity
  8
LAY-4
  6
CONTINUOUS
 62
     1
100
AcDbLine
 10
705.977356
 20
179.415485
 30
0.0
 11
705.977356
 21
184.965485
 31
0.0
  0
LINE
  5
1B3
100
AcDbEntity
  8
LAY-4
  6
CONTINUOUS
 62
     1
100
AcDbLine
 10
701.977356
 20
179.415485
 30
0.0
 11
701.977356
 21
184.965485
 31
0.0
  0
LINE
  5
1B4
100
AcDbEntity
  8
LAY-4
  6
CONTINUOUS
 62
     3
100
AcDbLine
 10
701.477356
 20
179.415485
 30
0.0
 11
701.477356
 21
184.965485
 31
0.0
  0
LINE
  5
1B5
100
AcDbEntity
  8
LAY-4
  6
DASHED2
 62
     3
100
AcDbLine
 10
682.477356
 20
197.265485
 30
0.0
 11
687.477356
 21
197.265485
 31
0.0
  0
LINE
  5
1B6
100
AcDbEntity
  8
LAY-4
  6
DASHED2
 62
     3
100
AcDbLine
 10
687.477356
 20
197.265485
 30
0.0
 11
689.627356
 21
199.415485
 31
0.0
  0
LINE
  5
1B7
100
AcDbEntity
  8
LAY-4
  6
DASHED2
 62
     3
100
AcDbLine
 10
682.477356
 20
197.265485
 30
0.0
 11
680.327356
 21
199.415485
 31
0.0
  0
LINE
  5
1B8
100
AcDbEntity
  8
LAY-4
  6
DASHED2
 62
     3
100
AcDbLine
 10
689.627356
 20
199.415485
 30
0.0
 11
680.327356
 21
199.415485
 31
0.0
  0
LINE
  5
1B9
100
AcDbEntity
  8
LAY-4
  6
DASHED2
 62
     3
100
AcDbLine
 10
689.627356
 20
199.415485
 30
0.0
 11
689.627356
 21
199.965485
 31
0.0
  0
LINE
  5
1BA
100
AcDbEntity
  8
LAY-4
  6
DASHED2
 62
     3
100
AcDbLine
 10
680.327356
 20
199.415485
 30
0.0
 11
680.327356
 21
199.965485
 31
0.0
  0
LINE
  5
1BB
100
AcDbEntity
  8
LAY-4
  6
DASHED2
 62
     3
100
AcDbLine
 10
687.477356
 20
184.965485
 30
0.0
 11
687.477356
 21
197.265485
 31
0.0
  0
LINE
  5
1BC
100
AcDbEntity
  8
LAY-4
  6
DASHED2
 62
     1
100
AcDbLine
 10
686.977356
 20
184.965485
 30
0.0
 11
686.977356
 21
197.265485
 31
0.0
  0
LINE
  5
1BD
100
AcDbEntity
  8
LAY-4
  6
DASHED2
 62
     1
100
AcDbLine
 10
682.977356
 20
184.965485
 30
0.0
 11
682.977356
 21
197.265485
 31
0.0
  0
LINE
  5
1BE
100
AcDbEntity
  8
LAY-4
  6
DASHED2
 62
     3
100
AcDbLine
 10
682.477356
 20
184.965485
 30
0.0
 11
682.477356
 21
197.265485
 31
0.0
  0
LINE
  5
1BF
100
AcDbEntity
  8
LAY-4
  6
CONTINUOUS
 62
     3
100
AcDbLine
 10
682.477356
 20
179.415485
 30
0.0
 11
687.477356
 21
179.415485
 31
0.0
  0
LINE
  5
1C0
100
AcDbEntity
  8
LAY-4
  6
CONTINUOUS
 62
     3
100
AcDbLine
 10
687.477356
 20
179.415485
 30
0.0
 11
687.477356
 21
184.965485
 31
0.0
  0
LINE
  5
1C1
100
AcDbEntity
  8
LAY-4
  6
CONTINUOUS
 62
     1
100
AcDbLine
 10
686.977356
 20
179.415485
 30
0.0
 11
686.977356
 21
184.965485
 31
0.0
  0
LINE
  5
1C2
100
AcDbEntity
  8
LAY-4
  6
CONTINUOUS
 62
     1
100
AcDbLine
 10
682.977356
 20
179.415485
 30
0.0
 11
682.977356
 21
184.965485
 31
0.0
  0
LINE
  5
1C3
100
AcDbEntity
  8
LAY-4
  6
CONTINUOUS
 62
     3
100
AcDbLine
 10
682.477356
 20
179.415485
 30
0.0
 11
682.477356
 21
184.965485
 31
0.0
  0
ARC
  5
1C4
100
AcDbEntity
  8
LAY-4
  6
CONTINUOUS
 62
     3
100
AcDbCircle
 10
349.403381
 20
256.56134
 30
0.0
 40
3.0
100
AcDbArc
 50
90.00002
 51
180.0
  0
LINE
  5
1C5
100
AcDbEntity
  8
LAY-4
  6
CONTINUOUS
 62
     3
100
AcDbLine
 10
346.403381
 20
214.56131
 30
0.0
 11
346.403381
 21
256.56134
 31
0.0
  0
ARC
  5
1C6
100
AcDbEntity
  8
LAY-4
  6
CONTINUOUS
 62
     3
100
AcDbCircle
 10
403.403381
 20
256.56131
 30
0.0
 40
3.0
100
AcDbArc
 50
359.999981
 51
90.00002
  0
LINE
  5
1C7
100
AcDbEntity
  8
LAY-4
  6
CONTINUOUS
 62
     3
100
AcDbLine
 10
403.403381
 20
259.56131
 30
0.0
 11
349.403381
 21
259.56134
 31
0.0
  0
LINE
  5
1C8
100
AcDbEntity
  8
LAY-4
  6
CONTINUOUS
 62
     3
100
AcDbLine
 10
346.403381
 20
219.56134
 30
0.0
 11
411.403381
 21
219.56134
 31
0.0
  0
CIRCLE
  5
1C9
100
AcDbEntity
  8
LAY-4
  6
CONTINUOUS
 62
     3
100
AcDbCircle
 10
341.403381
 20
194.56134
 30
0.0
 40
12.75
  0
CIRCLE
  5
1CA
100
AcDbEntity
  8
LAY-4
  6
CONTINUOUS
 62
     3
100
AcDbCircle
 10
341.403381
 20
194.561279
 30
0.0
 40
7.5
  0
CIRCLE
  5
1CB
100
AcDbEntity
  8
LAY-4
  6
CONTINUOUS
 62
     3
100
AcDbCircle
 10
341.403381
 20
194.561279
 30
0.0
 40
5.5
  0
CIRCLE
  5
1CC
100
AcDbEntity
  8
LAY-4
  6
CONTINUOUS
 62
     1
100
AcDbCircle
 10
356.403381
 20
229.561257
 30
0.0
 40
2.5
  0
CIRCLE
  5
1CD
100
AcDbEntity
  8
LAY-4
  6
CONTINUOUS
 62
     3
100
AcDbCircle
 10
356.403381
 20
229.561257
 30
0.0
 40
2.0
  0
CIRCLE
  5
1CE
100
AcDbEntity
  8
LAY-4
  6
CONTINUOUS
 62
     1
100
AcDbCircle
 10
356.403381
 20
248.561257
 30
0.0
 40
2.5
  0
CIRCLE
  5
1CF
100
AcDbEntity
  8
LAY-4
  6
CONTINUOUS
 62
     3
100
AcDbCircle
 10
356.403381
 20
248.561257
 30
0.0
 40
2.0
  0
CIRCLE
  5
1D0
100
AcDbEntity
  8
LAY-4
  6
CONTINUOUS
 62
     1
100
AcDbCircle
 10
396.403381
 20
229.561257
 30
0.0
 40
2.5
  0
CIRCLE
  5
1D1
100
AcDbEntity
  8
LAY-4
  6
CONTINUOUS
 62
     3
100
AcDbCircle
 10
396.403381
 20
229.561257
 30
0.0
 40
2.0
  0
CIRCLE
  5
1D2
100
AcDbEntity
  8
LAY-4
  6
CONTINUOUS
 62
     1
100
AcDbCircle
 10
396.403381
 20
248.561257
 30
0.0
 40
2.5
  0
CIRCLE
  5
1D3
100
AcDbEntity
  8
LAY-4
  6
CONTINUOUS
 62
     3
100
AcDbCircle
 10
396.403381
 20
248.561257
 30
0.0
 40
2.0
  0
LINE
  5
1D4
100
AcDbEntity
  8
LAY-4
  6
CONTINUOUS
 62
     3
100
AcDbLine
 10
406.403381
 20
219.56134
 30
0.0
 11
406.403381
 21
256.56131
 31
0.0
  0
LINE
  5
1D5
100
AcDbEntity
  8
LAY-4
  6
CONTINUOUS
 62
     3
100
AcDbLine
 10
671.977356
 20
182.965515
 30
0.0
 11
629.977325
 21
182.965515
 31
0.0
  0
ARC
  5
1D6
100
AcDbEntity
  8
LAY-4
  6
CONTINUOUS
 62
     3
100
AcDbCircle
 10
630.977325
 20
196.965515
 30
0.0
 40
1.0
100
AcDbArc
 50
90.00002
 51
180.0
  0
ARC
  5
1D7
100
AcDbEntity
  8
LAY-4
  6
DASHED2
 62
     3
100
AcDbCircle
 10
630.977325
 20
196.965515
 30
0.0
 40
0.4
100
AcDbArc
 50
90.00002
 51
180.0
  0
LINE
  5
1D8
100
AcDbEntity
  8
LAY-4
  6
CONTINUOUS
 62
     3
100
AcDbLine
 10
674.977356
 20
197.965515
 30
0.0
 11
630.977325
 21
197.965515
 31
0.0
  0
LINE
  5
1D9
100
AcDbEntity
  8
LAY-4
  6
DASHED2
 62
     3
100
AcDbLine
 10
674.977356
 20
197.365479
 30
0.0
 11
630.977325
 21
197.365479
 31
0.0
  0
LINE
  5
1DA
100
AcDbEntity
  8
LAY-4
  6
CONTINUOUS
 62
     3
100
AcDbLine
 10
629.977325
 20
182.965515
 30
0.0
 11
629.977325
 21
196.965515
 31
0.0
  0
LINE
  5
1DB
100
AcDbEntity
  8
LAY-4
  6
DASHED2
 62
     3
100
AcDbLine
 10
630.577332
 20
182.965515
 30
0.0
 11
630.577332
 21
196.965515
 31
0.0
  0
LINE
  5
1DC
100
AcDbEntity
  8
LAY-4
  6
CONTINUOUS
 62
     3
100
AcDbLine
 10
674.977356
 20
197.965515
 30
0.0
 11
674.977356
 21
182.965515
 31
0.0
  0
LINE
  5
1DD
100
AcDbEntity
  8
LAY-4
  6
CONTINUOUS
 62
     3
100
AcDbLine
 10
714.977386
 20
190.465576
 30
0.0
 11
714.977386
 21
184.465576
 31
0.0
  0
ARC
  5
1DE
100
AcDbEntity
  8
LAY-4
  6
CONTINUOUS
 62
     3
100
AcDbCircle
 10
713.477386
 20
184.465576
 30
0.0
 40
1.5
100
AcDbArc
 50
269.999982
 51
0.000021
  0
ARC
  5
1DF
100
AcDbEntity
  8
LAY-4
  6
CONTINUOUS
 62
     3
100
AcDbCircle
 10
713.477386
 20
190.465576
 30
0.0
 40
1.5
100
AcDbArc
 50
359.999981
 51
90.00002
  0
LINE
  5
1E0
100
AcDbEntity
  8
LAY-4
  6
CONTINUOUS
 62
     3
100
AcDbLine
 10
674.977356
 20
191.965548
 30
0.0
 11
713.477386
 21
191.965576
 31
0.0
  0
LINE
  5
1E1
100
AcDbEntity
  8
LAY-4
  6
CONTINUOUS
 62
     3
100
AcDbLine
 10
671.977356
 20
182.965546
 30
0.0
 11
713.477386
 21
182.965576
 31
0.0
  0
LINE
  5
1E2
100
AcDbEntity
  8
LAY-4
  6
CONTINUOUS
 62
     3
100
AcDbLine
 10
662.477356
 20
205.965515
 30
0.0
 11
662.477356
 21
197.965515
 31
0.0
  0
LINE
  5
1E3
100
AcDbEntity
  8
LAY-4
  6
CONTINUOUS
 62
     3
100
AcDbLine
 10
637.477356
 20
205.965515
 30
0.0
 11
637.477356
 21
197.965515
 31
0.0
  0
ARC
  5
1E4
100
AcDbEntity
  8
LAY-4
  6
DASHED2
 62
     3
100
AcDbCircle
 10
403.403381
 20
212.459167
 30
0.0
 40
3.0
100
AcDbArc
 50
300.000013
 51
359.999981
  0
ARC
  5
1E5
100
AcDbEntity
  8
LAY-4
  6
CONTINUOUS
 62
     3
100
AcDbCircle
 10
409.403412
 20
213.03656
 30
0.0
 40
2.0
100
AcDbArc
 50
300.000013
 51
359.999981
  0
ARC
  5
1E6
100
AcDbEntity
  8
LAY-4
  6
DASHED2
 62
     3
100
AcDbCircle
 10
409.403412
 20
213.03656
 30
0.0
 40
1.4
100
AcDbArc
 50
299.999956
 51
359.999981
  0
LINE
  5
1E7
100
AcDbEntity
  8
LAY-4
  6
CONTINUOUS
 62
     3
100
AcDbLine
 10
411.403412
 20
213.03656
 30
0.0
 11
411.403412
 21
219.56134
 31
0.0
  0
LINE
  5
1E8
100
AcDbEntity
  8
LAY-4
  6
DASHED2
 62
     3
100
AcDbLine
 10
410.803406
 20
213.03656
 30
0.0
 11
410.803406
 21
219.56134
 31
0.0
  0
LINE
  5
1E9
100
AcDbEntity
  8
LAY-4
  6
DASHED2
 62
     3
100
AcDbLine
 10
406.403381
 20
212.459167
 30
0.0
 11
406.403381
 21
219.56134
 31
0.0
  0
LINE
  5
1EA
100
AcDbEntity
  8
LAY-4
  6
CONTINUOUS
 62
     3
100
AcDbLine
 10
351.403381
 20
177.240845
 30
0.0
 11
410.403412
 21
211.304504
 31
0.0
  0
LINE
  5
1EB
100
AcDbEntity
  8
LAY-4
  6
DASHED2
 62
     3
100
AcDbLine
 10
351.103394
 20
177.760437
 30
0.0
 11
410.103394
 21
211.824127
 31
0.0
  0
LINE
  5
1EC
100
AcDbEntity
  8
LAY-4
  6
DASHED2
 62
     3
100
AcDbLine
 10
350.653381
 20
178.539856
 30
0.0
 11
404.903381
 21
209.861084
 31
0.0
  0
ARC
  5
1ED
100
AcDbEntity
  8
LAY-4
  6
CONTINUOUS
 62
     3
100
AcDbCircle
 10
341.403381
 20
194.56134
 30
0.0
 40
20.0
100
AcDbArc
 50
90.00002
 51
300.000053
  0
ARC
  5
1EE
100
AcDbEntity
  8
LAY-4
  6
DASHED2
 62
     3
100
AcDbCircle
 10
341.403381
 20
194.56134
 30
0.0
 40
19.4
100
AcDbArc
 50
90.00002
 51
299.999995
  0
ARC
  5
1EF
100
AcDbEntity
  8
LAY-4
  6
DASHED2
 62
     3
100
AcDbCircle
 10
341.403381
 20
194.56134
 30
0.0
 40
18.5
100
AcDbArc
 50
84.66246
 51
299.999995
  0
LINE
  5
1F0
100
AcDbEntity
  8
LAY-4
  6
CONTINUOUS
 62
     3
100
AcDbLine
 10
346.403381
 20
214.56131
 30
0.0
 11
341.403381
 21
214.56134
 31
0.0
  0
LINE
  5
1F1
100
AcDbEntity
  8
LAY-4
  6
DASHED2
 62
     3
100
AcDbLine
 10
346.403381
 20
213.961334
 30
0.0
 11
341.403381
 21
213.961334
 31
0.0
  0
ARC
  5
1F2
100
AcDbEntity
  8
LAY-4
  6
DASHED2
 62
     3
100
AcDbCircle
 10
343.403381
 20
215.968109
 30
0.0
 40
3.0
100
AcDbArc
 50
264.662479
 51
318.015851
  0
LINE
  5
1F3
100
AcDbEntity
  8
LAY-4
  6
DASHED2
 62
     3
100
AcDbLine
 10
346.403381
 20
214.56131
 30
0.0
 11
346.403381
 21
213.961334
 31
0.0
  0
LINE
  5
1F4
100
AcDbEntity
  8
LAY-5
  6
DASHDOT
 62
     1
100
AcDbLine
 10
314.016113
 20
194.561279
 30
0.0
 11
384.334412
 21
194.561279
 31
0.0
  0
LINE
  5
1F5
100
AcDbEntity
  8
LAY-5
  6
DASHDOT
 62
     1
100
AcDbLine
 10
341.403381
 20
322.175659
 30
0.0
 11
341.403381
 21
369.657654
 31
0.0
  0
LINE
  5
1F6
100
AcDbEntity
  8
LAY-5
  6
DASHDOT
 62
     1
100
AcDbLine
 10
356.403381
 20
392.5
 30
0.0
 11
356.403381
 21
376.491089
 31
0.0
  0
LINE
  5
1F7
100
AcDbEntity
  8
LAY-5
  6
DASHDOT
 62
     1
100
AcDbLine
 10
348.403381
 20
384.491089
 30
0.0
 11
364.618286
 21
384.491089
 31
0.0
  0
LINE
  5
1F8
100
AcDbEntity
  8
LAY-5
  6
DASHDOT
 62
     1
100
AcDbLine
 10
386.403351
 20
406.1
 30
0.0
 11
386.403351
 21
390.491058
 31
0.0
  0
LINE
  5
1F9
100
AcDbEntity
  8
LAY-5
  6
DASHDOT
 62
     1
100
AcDbLine
 10
378.403351
 20
398.491058
 30
0.0
 11
394.618256
 21
398.491058
 31
0.0
  0
LINE
  5
1FA
100
AcDbEntity
  8
LAY-5
  6
DASHDOT
 62
     1
100
AcDbLine
 10
456.403381
 20
406.1
 30
0.0
 11
456.403381
 21
390.491089
 31
0.0
  0
LINE
  5
1FB
100
AcDbEntity
  8
LAY-5
  6
DASHDOT
 62
     1
100
AcDbLine
 10
463.7
 20
398.491089
 30
0.0
 11
448.403381
 21
398.491089
 31
0.0
  0
LINE
  5
1FC
100
AcDbEntity
  8
LAY-5
  6
DASHDOT
 62
     1
100
AcDbLine
 10
426.403381
 20
392.5
 30
0.0
 11
426.403381
 21
376.491058
 31
0.0
  0
LINE
  5
1FD
100
AcDbEntity
  8
LAY-5
  6
DASHDOT
 62
     1
100
AcDbLine
 10
435.0
 20
384.491058
 30
0.0
 11
418.403381
 21
384.491058
 31
0.0
  0
LINE
  5
1FE
100
AcDbEntity
  8
LAY-5
  6
DASHDOT
 62
     1
100
AcDbLine
 10
356.403381
 20
234.561257
 30
0.0
 11
356.403381
 21
224.561257
 31
0.0
  0
LINE
  5
1FF
100
AcDbEntity
  8
LAY-5
  6
DASHDOT
 62
     1
100
AcDbLine
 10
351.403381
 20
229.561257
 30
0.0
 11
361.403381
 21
229.561257
 31
0.0
  0
LINE
  5
200
100
AcDbEntity
  8
LAY-5
  6
DASHDOT
 62
     1
100
AcDbLine
 10
356.403381
 20
253.561257
 30
0.0
 11
356.403381
 21
243.561257
 31
0.0
  0
LINE
  5
201
100
AcDbEntity
  8
LAY-5
  6
DASHDOT
 62
     1
100
AcDbLine
 10
351.403381
 20
248.561257
 30
0.0
 11
361.403381
 21
248.561257
 31
0.0
  0
LINE
  5
202
100
AcDbEntity
  8
LAY-5
  6
DASHDOT
 62
     1
100
AcDbLine
 10
396.403381
 20
253.561257
 30
0.0
 11
396.403381
 21
243.561257
 31
0.0
  0
LINE
  5
203
100
AcDbEntity
  8
LAY-5
  6
DASHDOT
 62
     1
100
AcDbLine
 10
391.403381
 20
248.561257
 30
0.0
 11
401.403381
 21
248.561257
 31
0.0
  0
LINE
  5
204
100
AcDbEntity
  8
LAY-5
  6
DASHDOT
 62
     1
100
AcDbLine
 10
396.403381
 20
234.561257
 30
0.0
 11
396.403381
 21
224.561257
 31
0.0
  0
LINE
  5
205
100
AcDbEntity
  8
LAY-5
  6
DASHDOT
 62
     1
100
AcDbLine
 10
391.403381
 20
229.561257
 30
0.0
 11
401.403381
 21
229.561257
 31
0.0
  0
LINE
  5
206
100
AcDbEntity
  8
LAY-5
  6
DASHDOT
 62
     1
100
AcDbLine
 10
649.977356
 20
179.453857
 30
0.0
 11
649.977356
 21
222.056885
 31
0.0
  0
LINE
  5
207
100
AcDbEntity
  8
LAY-5
  6
DASHDOT
 62
     1
100
AcDbLine
 10
687.977264
 20
357.9
 30
0.0
 11
687.977264
 21
383.378906
 31
0.0
  0
LINE
  5
208
100
AcDbEntity
  8
LAY-5
  6
DASHDOT
 62
     1
100
AcDbLine
 10
701.977295
 20
357.9
 30
0.0
 11
701.977295
 21
383.378906
 31
0.0
  0
LINE
  5
209
100
AcDbEntity
  8
LAY-5
  6
DASHDOT
 62
     1
100
AcDbLine
 10
687.977356
 20
228.9
 30
0.0
 11
687.977356
 21
201.132721
 31
0.0
  0
LINE
  5
20A
100
AcDbEntity
  8
LAY-5
  6
DASHDOT
 62
     1
100
AcDbLine
 10
701.977325
 20
228.9
 30
0.0
 11
701.977325
 21
201.132721
 31
0.0
  0
LINE
  5
20B
100
AcDbEntity
  8
LAY-5
  6
DASHDOT
 62
     1
100
AcDbLine
 10
649.977295
 20
361.479919
 30
0.0
 11
649.977295
 21
401.75061
 31
0.0
  0
LINE
  5
20C
100
AcDbEntity
  8
LAY-5
  6
DASHDOT
 62
     1
100
AcDbLine
 10
684.977295
 20
405.6
 30
0.0
 11
684.977295
 21
382.6
 31
0.0
  0
LINE
  5
20D
100
AcDbEntity
  8
LAY-5
  6
DASHDOT
 62
     1
100
AcDbLine
 10
703.977295
 20
405.6
 30
0.0
 11
703.977295
 21
382.6
 31
0.0
  0
LINE
  5
20E
100
AcDbEntity
  8
LAY-5
  6
DASHDOT
 62
     1
100
AcDbLine
 10
684.977356
 20
201.3
 30
0.0
 11
684.977356
 21
177.5
 31
0.0
  0
LINE
  5
20F
100
AcDbEntity
  8
LAY-5
  6
DASHDOT
 62
     1
100
AcDbLine
 10
703.977356
 20
201.3
 30
0.0
 11
703.977356
 21
177.5
 31
0.0
  0
LINE
  5
210
100
AcDbEntity
  8
LAY-5
  6
DASHDOT
 62
     1
100
AcDbLine
 10
124.403381
 20
198.008453
 30
0.0
 11
124.403412
 21
153.876984
 31
0.0
  0
LINE
  5
211
100
AcDbEntity
  8
LAY-5
  6
DASHDOT
 62
     1
100
AcDbLine
 10
173.382141
 20
227.876953
 30
0.0
 11
155.3
 21
227.876953
 31
0.0
  0
LINE
  5
212
100
AcDbEntity
  8
LAY-5
  6
DASHDOT
 62
     1
100
AcDbLine
 10
227.6
 20
227.876953
 30
0.0
 11
210.955292
 21
227.876953
 31
0.0
  0
LINE
  5
213
100
AcDbEntity
  8
LAY-5
  6
DASHDOT
 62
     1
100
AcDbLine
 10
164.403381
 20
219.082947
 30
0.0
 11
164.403381
 21
237.379822
 31
0.0
  0
LINE
  5
214
100
AcDbEntity
  8
LAY-5
  6
DASHDOT
 62
     1
100
AcDbLine
 10
194.403381
 20
221.2
 30
0.0
 11
194.403381
 21
205.876953
 31
0.0
  0
LINE
  5
215
100
AcDbEntity
  8
LAY-5
  6
DASHDOT
 62
     1
100
AcDbLine
 10
201.8
 20
213.876953
 30
0.0
 11
185.794922
 21
213.876953
 31
0.0
  0
LINE
  5
216
100
AcDbEntity
  8
LAY-5
  6
DASHDOT
 62
     1
100
AcDbLine
 10
147.853638
 20
213.876953
 30
0.0
 11
130.953186
 21
213.876953
 31
0.0
  0
LINE
  5
217
100
AcDbEntity
  8
LAY-5
  6
DASHDOT
 62
     1
100
AcDbLine
 10
139.403412
 20
221.2
 30
0.0
 11
139.403412
 21
205.876953
 31
0.0
  0
LINE
  5
218
100
AcDbEntity
  8
LAY-5
  6
DASHDOT
 62
     1
100
AcDbLine
 10
219.403381
 20
237.379822
 30
0.0
 11
219.403381
 21
219.876953
 31
0.0
  0
LINE
  5
219
100
AcDbEntity
  8
LAY-5
  6
DASHDOT
 62
     1
100
AcDbLine
 10
114.403412
 20
193.197449
 30
0.0
 11
122.177307
 21
179.732666
 31
0.0
  0
LINE
  5
21A
100
AcDbEntity
  8
LAY-5
  6
DASHDOT
 62
     1
100
AcDbLine
 10
139.403381
 20
384.613686
 30
0.0
 11
139.403381
 21
374.613686
 31
0.0
  0
LINE
  5
21B
100
AcDbEntity
  8
LAY-5
  6
DASHDOT
 62
     1
100
AcDbLine
 10
134.403381
 20
379.613686
 30
0.0
 11
144.403381
 21
379.613686
 31
0.0
  0
LINE
  5
21C
100
AcDbEntity
  8
LAY-5
  6
DASHDOT
 62
     1
100
AcDbLine
 10
139.403381
 20
403.613686
 30
0.0
 11
139.403381
 21
393.613686
 31
0.0
  0
LINE
  5
21D
100
AcDbEntity
  8
LAY-5
  6
DASHDOT
 62
     1
100
AcDbLine
 10
134.403381
 20
398.613686
 30
0.0
 11
144.403381
 21
398.613686
 31
0.0
  0
LINE
  5
21E
100
AcDbEntity
  8
LAY-5
  6
DASHDOT
 62
     1
100
AcDbLine
 10
179.403381
 20
403.613686
 30
0.0
 11
179.403381
 21
393.613686
 31
0.0
  0
LINE
  5
21F
100
AcDbEntity
  8
LAY-5
  6
DASHDOT
 62
     1
100
AcDbLine
 10
174.403381
 20
398.613686
 30
0.0
 11
184.403381
 21
398.613686
 31
0.0
  0
LINE
  5
220
100
AcDbEntity
  8
LAY-5
  6
DASHDOT
 62
     1
100
AcDbLine
 10
179.403381
 20
384.613686
 30
0.0
 11
179.403381
 21
374.613686
 31
0.0
  0
LINE
  5
221
100
AcDbEntity
  8
LAY-5
  6
DASHDOT
 62
     1
100
AcDbLine
 10
174.403381
 20
379.613686
 30
0.0
 11
184.403381
 21
379.613686
 31
0.0
  0
LINE
  5
222
100
AcDbEntity
  8
LAY-5
  6
DASHDOT
 62
     1
100
AcDbLine
 10
97.016083
 20
344.613708
 30
0.0
 11
187.276423
 21
344.613708
 31
0.0
  0
LINE
  5
223
100
AcDbEntity
  8
LAY-5
  6
DASHDOT
 62
     1
100
AcDbLine
 10
124.403381
 20
381.5
 30
0.0
 11
124.403381
 21
322.613708
 31
0.0
  0
LINE
  5
224
100
AcDbEntity
  8
LAY-5
  6
DASHDOT
 62
     1
100
AcDbLine
 10
97.016083
 20
175.876953
 30
0.0
 11
187.276318
 21
175.876953
 31
0.0
  0
LINE
  5
225
100
AcDbEntity
  8
LAY-5
  6
DASHDOT
 62
     1
100
AcDbLine
 10
314.016083
 20
346.491089
 30
0.0
 11
404.276315
 21
346.491089
 31
0.0
  0
LINE
  5
226
100
AcDbEntity
  8
LAY-5
  6
DASHDOT
 62
     1
100
AcDbLine
 10
341.403381
 20
170.5625
 30
0.0
 11
341.403381
 21
230.9
 31
0.0
  0
TEXT
  5
227
100
AcDbEntity
  8
LAY-6
  6
CONTINUOUS
 62
     2
100
AcDbText
 10
95.896975
 20
328.146721
 30
0.0
 40
5.0
  1
Ｒ
 50
30.0
 41
0.672
  7
EXCADSTD
 72
     5
 11
98.668256
 21
329.746721
 31
0.0
100
AcDbText
  0
TEXT
  5
228
100
AcDbEntity
  8
LAY-6
  6
CONTINUOUS
 62
     2
100
AcDbText
 10
99.361076
 20
330.146721
 30
0.0
 40
5.0
  1
２０
 50
30.0
 41
0.672
  7
EXCADSTD
 72
     5
 11
105.711467
 21
333.813121
 31
0.0
100
AcDbText
  0
LINE
  5
229
100
AcDbEntity
  8
LAY-6
  6
CONTINUOUS
 62
     1
100
AcDbLine
 10
107.082873
 20
334.613708
 30
0.0
 11
124.403381
 21
344.613708
 31
0.0
  0
LINE
  5
22A
100
AcDbEntity
  8
LAY-6
  6
CONTINUOUS
 62
     1
100
AcDbLine
 10
109.430949
 20
336.546721
 30
0.0
 11
107.082873
 21
334.613708
 31
0.0
  0
LINE
  5
22B
100
AcDbEntity
  8
LAY-6
  6
CONTINUOUS
 62
     1
100
AcDbLine
 10
107.082873
 20
334.613708
 30
0.0
 11
109.930949
 21
335.680695
 31
0.0
  0
TEXT
  5
22C
100
AcDbEntity
  8
LAY-6
  6
CONTINUOUS
 62
     2
100
AcDbText
 10
184.237023
 20
355.104483
 30
0.0
 40
5.0
  1
３０
 50
285.000007
 41
0.672
  7
EXCADSTD
 72
     5
 11
186.134892
 21
348.021542
 31
0.0
100
AcDbText
  0
TEXT
  5
22D
100
AcDbEntity
  8
LAY-6
  6
CONTINUOUS
 62
     2
100
AcDbText
 10
186.307576
 20
347.377076
 30
0.0
 40
5.0
  1
ﾟ
 50
285.000007
 41
0.4
  7
EXCADSTD
 72
     5
 11
186.644041
 21
346.121373
 31
0.0
100
AcDbText
  0
ARC
  5
22E
100
AcDbEntity
  8
LAY-6
  6
CONTINUOUS
 62
     1
100
AcDbCircle
 10
164.403738
 20
344.613786
 30
0.0
 40
21.372685
100
AcDbArc
 50
359.999791
 51
30.000224
  0
LINE
  5
22F
100
AcDbEntity
  8
LAY-6
  6
CONTINUOUS
 62
     1
100
AcDbLine
 10
185.276423
 20
347.613708
 30
0.0
 11
185.776423
 21
344.613708
 31
0.0
  0
LINE
  5
230
100
AcDbEntity
  8
LAY-6
  6
CONTINUOUS
 62
     1
100
AcDbLine
 10
185.776423
 20
344.613708
 30
0.0
 11
186.276423
 21
347.613708
 31
0.0
  0
LINE
  5
231
100
AcDbEntity
  8
LAY-6
  6
CONTINUOUS
 62
     1
100
AcDbLine
 10
184.845998
 20
352.952125
 30
0.0
 11
182.912984
 21
355.300201
 31
0.0
  0
LINE
  5
232
100
AcDbEntity
  8
LAY-6
  6
CONTINUOUS
 62
     1
100
AcDbLine
 10
182.912984
 20
355.300201
 30
0.0
 11
183.979972
 21
352.452125
 31
0.0
  0
TEXT
  5
233
100
AcDbEntity
  8
LAY-6
  6
CONTINUOUS
 62
     2
100
AcDbText
 10
184.236918
 20
186.367728
 30
0.0
 40
5.0
  1
３０
 50
285.000007
 41
0.672
  7
EXCADSTD
 72
     5
 11
186.134787
 21
179.284787
 31
0.0
100
AcDbText
  0
TEXT
  5
234
100
AcDbEntity
  8
LAY-6
  6
CONTINUOUS
 62
     2
100
AcDbText
 10
186.307471
 20
178.640321
 30
0.0
 40
5.0
  1
ﾟ
 50
285.000007
 41
0.4
  7
EXCADSTD
 72
     5
 11
186.643936
 21
177.384618
 31
0.0
100
AcDbText
  0
ARC
  5
235
100
AcDbEntity
  8
LAY-6
  6
CONTINUOUS
 62
     1
100
AcDbCircle
 10
164.403633
 20
175.877031
 30
0.0
 40
21.372685
100
AcDbArc
 50
359.999791
 51
30.000224
  0
LINE
  5
236
100
AcDbEntity
  8
LAY-6
  6
CONTINUOUS
 62
     1
100
AcDbLine
 10
185.276318
 20
178.876953
 30
0.0
 11
185.776318
 21
175.876953
 31
0.0
  0
LINE
  5
237
100
AcDbEntity
  8
LAY-6
  6
CONTINUOUS
 62
     1
100
AcDbLine
 10
185.776318
 20
175.876953
 30
0.0
 11
186.276318
 21
178.876953
 31
0.0
  0
LINE
  5
238
100
AcDbEntity
  8
LAY-6
  6
CONTINUOUS
 62
     1
100
AcDbLine
 10
184.845893
 20
184.21537
 30
0.0
 11
182.91288
 21
186.563446
 31
0.0
  0
LINE
  5
239
100
AcDbEntity
  8
LAY-6
  6
CONTINUOUS
 62
     1
100
AcDbLine
 10
182.91288
 20
186.563446
 30
0.0
 11
183.979868
 21
183.71537
 31
0.0
  0
TEXT
  5
23A
100
AcDbEntity
  8
LAY-6
  6
CONTINUOUS
 62
     2
100
AcDbText
 10
401.236851
 20
205.052054
 30
0.0
 40
5.0
  1
３０
 50
285.000007
 41
0.672
  7
EXCADSTD
 72
     5
 11
403.13472
 21
197.969113
 31
0.0
100
AcDbText
  0
TEXT
  5
23B
100
AcDbEntity
  8
LAY-6
  6
CONTINUOUS
 62
     2
100
AcDbText
 10
403.307404
 20
197.324647
 30
0.0
 40
5.0
  1
ﾟ
 50
285.000007
 41
0.4
  7
EXCADSTD
 72
     5
 11
403.643869
 21
196.068944
 31
0.0
100
AcDbText
  0
ARC
  5
23C
100
AcDbEntity
  8
LAY-6
  6
CONTINUOUS
 62
     1
100
AcDbCircle
 10
381.403566
 20
194.561357
 30
0.0
 40
21.372685
100
AcDbArc
 50
359.999791
 51
30.000224
  0
LINE
  5
23D
100
AcDbEntity
  8
LAY-6
  6
CONTINUOUS
 62
     1
100
AcDbLine
 10
402.276251
 20
197.561279
 30
0.0
 11
402.776251
 21
194.561279
 31
0.0
  0
LINE
  5
23E
100
AcDbEntity
  8
LAY-6
  6
CONTINUOUS
 62
     1
100
AcDbLine
 10
402.776251
 20
194.561279
 30
0.0
 11
403.276251
 21
197.561279
 31
0.0
  0
LINE
  5
23F
100
AcDbEntity
  8
LAY-6
  6
CONTINUOUS
 62
     1
100
AcDbLine
 10
401.845826
 20
202.899696
 30
0.0
 11
399.912812
 21
205.247772
 31
0.0
  0
LINE
  5
240
100
AcDbEntity
  8
LAY-6
  6
CONTINUOUS
 62
     1
100
AcDbLine
 10
399.912812
 20
205.247772
 30
0.0
 11
400.9798
 21
202.399696
 31
0.0
  0
TEXT
  5
241
100
AcDbEntity
  8
LAY-6
  6
CONTINUOUS
 62
     2
100
AcDbText
 10
401.236915
 20
356.981864
 30
0.0
 40
5.0
  1
３０
 50
285.000007
 41
0.672
  7
EXCADSTD
 72
     5
 11
403.134784
 21
349.898923
 31
0.0
100
AcDbText
  0
TEXT
  5
242
100
AcDbEntity
  8
LAY-6
  6
CONTINUOUS
 62
     2
100
AcDbText
 10
403.307468
 20
349.254457
 30
0.0
 40
5.0
  1
ﾟ
 50
285.000007
 41
0.4
  7
EXCADSTD
 72
     5
 11
403.643933
 21
347.998754
 31
0.0
100
AcDbText
  0
ARC
  5
243
100
AcDbEntity
  8
LAY-6
  6
CONTINUOUS
 62
     1
100
AcDbCircle
 10
381.40363
 20
346.491167
 30
0.0
 40
21.372685
100
AcDbArc
 50
359.999791
 51
30.000224
  0
LINE
  5
244
100
AcDbEntity
  8
LAY-6
  6
CONTINUOUS
 62
     1
100
AcDbLine
 10
402.276315
 20
349.491089
 30
0.0
 11
402.776315
 21
346.491089
 31
0.0
  0
LINE
  5
245
100
AcDbEntity
  8
LAY-6
  6
CONTINUOUS
 62
     1
100
AcDbLine
 10
402.776315
 20
346.491089
 30
0.0
 11
403.276315
 21
349.491089
 31
0.0
  0
LINE
  5
246
100
AcDbEntity
  8
LAY-6
  6
CONTINUOUS
 62
     1
100
AcDbLine
 10
401.84589
 20
354.829506
 30
0.0
 11
399.912877
 21
357.177582
 31
0.0
  0
LINE
  5
247
100
AcDbEntity
  8
LAY-6
  6
CONTINUOUS
 62
     1
100
AcDbLine
 10
399.912877
 20
357.177582
 30
0.0
 11
400.979865
 21
354.329506
 31
0.0
  0
TEXT
  5
248
100
AcDbEntity
  8
LAY-6
  6
CONTINUOUS
 62
     2
100
AcDbText
 10
95.89699
 20
159.409966
 30
0.0
 40
5.0
  1
Ｒ
 50
30.0
 41
0.672
  7
EXCADSTD
 72
     5
 11
98.668271
 21
161.009966
 31
0.0
100
AcDbText
  0
TEXT
  5
249
100
AcDbEntity
  8
LAY-6
  6
CONTINUOUS
 62
     2
100
AcDbText
 10
99.361092
 20
161.409966
 30
0.0
 40
5.0
  1
２０
 50
30.0
 41
0.672
  7
EXCADSTD
 72
     5
 11
105.711483
 21
165.076366
 31
0.0
100
AcDbText
  0
LINE
  5
24A
100
AcDbEntity
  8
LAY-6
  6
CONTINUOUS
 62
     1
100
AcDbLine
 10
107.082888
 20
165.876953
 30
0.0
 11
124.403397
 21
175.876953
 31
0.0
  0
LINE
  5
24B
100
AcDbEntity
  8
LAY-6
  6
CONTINUOUS
 62
     1
100
AcDbLine
 10
109.430965
 20
167.809966
 30
0.0
 11
107.082888
 21
165.876953
 31
0.0
  0
LINE
  5
24C
100
AcDbEntity
  8
LAY-6
  6
CONTINUOUS
 62
     1
100
AcDbLine
 10
107.082888
 20
165.876953
 30
0.0
 11
109.930965
 21
166.94394
 31
0.0
  0
TEXT
  5
24D
100
AcDbEntity
  8
LAY-6
  6
CONTINUOUS
 62
     2
100
AcDbText
 10
312.896975
 20
178.094292
 30
0.0
 40
5.0
  1
Ｒ
 50
30.0
 41
0.672
  7
EXCADSTD
 72
     5
 11
315.668256
 21
179.694292
 31
0.0
100
AcDbText
  0
TEXT
  5
24E
100
AcDbEntity
  8
LAY-6
  6
CONTINUOUS
 62
     2
100
AcDbText
 10
316.361076
 20
180.094292
 30
0.0
 40
5.0
  1
２０
 50
30.0
 41
0.672
  7
EXCADSTD
 72
     5
 11
322.711467
 21
183.760692
 31
0.0
100
AcDbText
  0
LINE
  5
24F
100
AcDbEntity
  8
LAY-6
  6
CONTINUOUS
 62
     1
100
AcDbLine
 10
324.082873
 20
184.561279
 30
0.0
 11
341.403381
 21
194.561279
 31
0.0
  0
LINE
  5
250
100
AcDbEntity
  8
LAY-6
  6
CONTINUOUS
 62
     1
100
AcDbLine
 10
326.430949
 20
186.494292
 30
0.0
 11
324.082873
 21
184.561279
 31
0.0
  0
LINE
  5
251
100
AcDbEntity
  8
LAY-6
  6
CONTINUOUS
 62
     1
100
AcDbLine
 10
324.082873
 20
184.561279
 30
0.0
 11
326.930949
 21
185.628266
 31
0.0
  0
TEXT
  5
252
100
AcDbEntity
  8
LAY-6
  6
CONTINUOUS
 62
     2
100
AcDbText
 10
312.896975
 20
330.024102
 30
0.0
 40
5.0
  1
Ｒ
 50
30.0
 41
0.672
  7
EXCADSTD
 72
     5
 11
315.668256
 21
331.624102
 31
0.0
100
AcDbText
  0
TEXT
  5
253
100
AcDbEntity
  8
LAY-6
  6
CONTINUOUS
 62
     2
100
AcDbText
 10
316.361076
 20
332.024102
 30
0.0
 40
5.0
  1
２０
 50
30.0
 41
0.672
  7
EXCADSTD
 72
     5
 11
322.711467
 21
335.690502
 31
0.0
100
AcDbText
  0
LINE
  5
254
100
AcDbEntity
  8
LAY-6
  6
CONTINUOUS
 62
     1
100
AcDbLine
 10
324.082873
 20
336.491089
 30
0.0
 11
341.403381
 21
346.491089
 31
0.0
  0
LINE
  5
255
100
AcDbEntity
  8
LAY-6
  6
CONTINUOUS
 62
     1
100
AcDbLine
 10
326.430949
 20
338.424102
 30
0.0
 11
324.082873
 21
336.491089
 31
0.0
  0
LINE
  5
256
100
AcDbEntity
  8
LAY-6
  6
CONTINUOUS
 62
     1
100
AcDbLine
 10
324.082873
 20
336.491089
 30
0.0
 11
326.930949
 21
337.558076
 31
0.0
  0
LINE
  5
257
100
AcDbEntity
  8
LAY-6
  6
CONTINUOUS
 62
     1
100
AcDbLine
 10
124.403381
 20
322.613708
 30
0.0
 11
124.403381
 21
319.3
 31
0.0
  0
LINE
  5
258
100
AcDbEntity
  8
LAY-6
  6
CONTINUOUS
 62
     1
100
AcDbLine
 10
194.403442
 20
363.088928
 30
0.0
 11
194.403442
 21
319.3
 31
0.0
  0
TEXT
  5
259
100
AcDbEntity
  8
LAY-6
  6
CONTINUOUS
 62
     2
100
AcDbText
 10
155.403412
 20
321.3
 30
0.0
 40
5.0
  1
７０
 41
0.672
  7
EXCADSTD
 72
     5
 11
162.736212
 21
321.3
 31
0.0
100
AcDbText
  0
LINE
  5
25A
100
AcDbEntity
  8
LAY-6
  6
CONTINUOUS
 62
     1
100
AcDbLine
 10
124.403381
 20
320.8
 30
0.0
 11
194.403442
 21
320.8
 31
0.0
  0
LINE
  5
25B
100
AcDbEntity
  8
LAY-6
  6
CONTINUOUS
 62
     1
100
AcDbLine
 10
127.403381
 20
321.3
 30
0.0
 11
124.403381
 21
320.8
 31
0.0
  0
LINE
  5
25C
100
AcDbEntity
  8
LAY-6
  6
CONTINUOUS
 62
     1
100
AcDbLine
 10
124.403381
 20
320.8
 30
0.0
 11
127.403381
 21
320.3
 31
0.0
  0
LINE
  5
25D
100
AcDbEntity
  8
LAY-6
  6
CONTINUOUS
 62
     1
100
AcDbLine
 10
191.403442
 20
320.3
 30
0.0
 11
194.403442
 21
320.8
 31
0.0
  0
LINE
  5
25E
100
AcDbEntity
  8
LAY-6
  6
CONTINUOUS
 62
     1
100
AcDbLine
 10
194.403442
 20
320.8
 30
0.0
 11
191.403442
 21
321.3
 31
0.0
  0
LINE
  5
25F
100
AcDbEntity
  8
LAY-6
  6
CONTINUOUS
 62
     1
100
AcDbLine
 10
187.276423
 20
344.613708
 30
0.0
 11
210.0
 21
344.613708
 31
0.0
  0
LINE
  5
260
100
AcDbEntity
  8
LAY-6
  6
CONTINUOUS
 62
     1
100
AcDbLine
 10
193.803406
 20
366.613714
 30
0.0
 11
210.0
 21
366.613714
 31
0.0
  0
TEXT
  5
261
100
AcDbEntity
  8
LAY-6
  6
CONTINUOUS
 62
     2
100
AcDbText
 10
208.0
 20
351.613711
 30
0.0
 40
5.0
  1
２２
 50
90.0
 41
0.672
  7
EXCADSTD
 72
     5
 11
208.0
 21
358.946511
 31
0.0
100
AcDbText
  0
LINE
  5
262
100
AcDbEntity
  8
LAY-6
  6
CONTINUOUS
 62
     1
100
AcDbLine
 10
208.5
 20
344.613708
 30
0.0
 11
208.5
 21
366.613714
 31
0.0
  0
LINE
  5
263
100
AcDbEntity
  8
LAY-6
  6
CONTINUOUS
 62
     1
100
AcDbLine
 10
208.0
 20
347.613708
 30
0.0
 11
208.5
 21
344.613708
 31
0.0
  0
LINE
  5
264
100
AcDbEntity
  8
LAY-6
  6
CONTINUOUS
 62
     1
100
AcDbLine
 10
208.5
 20
344.613708
 30
0.0
 11
209.0
 21
347.613708
 31
0.0
  0
LINE
  5
265
100
AcDbEntity
  8
LAY-6
  6
CONTINUOUS
 62
     1
100
AcDbLine
 10
209.0
 20
363.613714
 30
0.0
 11
208.5
 21
366.613714
 31
0.0
  0
LINE
  5
266
100
AcDbEntity
  8
LAY-6
  6
CONTINUOUS
 62
     1
100
AcDbLine
 10
208.5
 20
366.613714
 30
0.0
 11
208.0
 21
363.613714
 31
0.0
  0
TEXT
  5
267
100
AcDbEntity
  8
LAY-6
  6
CONTINUOUS
 62
     2
100
AcDbText
 10
208.0
 20
384.11368
 30
0.0
 40
5.0
  1
４３
 50
90.0
 41
0.672
  7
EXCADSTD
 72
     5
 11
208.0
 21
391.44648
 31
0.0
100
AcDbText
  0
LINE
  5
268
100
AcDbEntity
  8
LAY-6
  6
CONTINUOUS
 62
     1
100
AcDbLine
 10
186.403381
 20
409.613647
 30
0.0
 11
210.0
 21
409.613647
 31
0.0
  0
LINE
  5
269
100
AcDbEntity
  8
LAY-6
  6
CONTINUOUS
 62
     1
100
AcDbLine
 10
208.5
 20
366.613714
 30
0.0
 11
208.5
 21
409.613647
 31
0.0
  0
LINE
  5
26A
100
AcDbEntity
  8
LAY-6
  6
CONTINUOUS
 62
     1
100
AcDbLine
 10
208.0
 20
369.613714
 30
0.0
 11
208.5
 21
366.613714
 31
0.0
  0
LINE
  5
26B
100
AcDbEntity
  8
LAY-6
  6
CONTINUOUS
 62
     1
100
AcDbLine
 10
208.5
 20
366.613714
 30
0.0
 11
209.0
 21
369.613714
 31
0.0
  0
LINE
  5
26C
100
AcDbEntity
  8
LAY-6
  6
CONTINUOUS
 62
     1
100
AcDbLine
 10
209.0
 20
406.613647
 30
0.0
 11
208.5
 21
409.613647
 31
0.0
  0
LINE
  5
26D
100
AcDbEntity
  8
LAY-6
  6
CONTINUOUS
 62
     1
100
AcDbLine
 10
208.5
 20
409.613647
 30
0.0
 11
208.0
 21
406.613647
 31
0.0
  0
LINE
  5
26E
100
AcDbEntity
  8
LAY-6
  6
CONTINUOUS
 62
     1
100
AcDbLine
 10
129.403381
 20
220.876953
 30
0.0
 11
129.403381
 21
251.1
 31
0.0
  0
LINE
  5
26F
100
AcDbEntity
  8
LAY-6
  6
CONTINUOUS
 62
     1
100
AcDbLine
 10
139.403412
 20
221.2
 30
0.0
 11
139.403412
 21
251.1
 31
0.0
  0
TEXT
  5
270
100
AcDbEntity
  8
LAY-6
  6
CONTINUOUS
 62
     2
100
AcDbText
 10
130.403397
 20
250.1
 30
0.0
 40
5.0
  1
１０
 41
0.672
  7
EXCADSTD
 72
     5
 11
137.736197
 21
250.1
 31
0.0
100
AcDbText
  0
LINE
  5
271
100
AcDbEntity
  8
LAY-6
  6
CONTINUOUS
 62
     1
100
AcDbLine
 10
129.403381
 20
249.6
 30
0.0
 11
139.403412
 21
249.6
 31
0.0
  0
LINE
  5
272
100
AcDbEntity
  8
LAY-6
  6
CONTINUOUS
 62
     1
100
AcDbLine
 10
132.403381
 20
250.1
 30
0.0
 11
129.403381
 21
249.6
 31
0.0
  0
LINE
  5
273
100
AcDbEntity
  8
LAY-6
  6
CONTINUOUS
 62
     1
100
AcDbLine
 10
129.403381
 20
249.6
 30
0.0
 11
132.403381
 21
249.1
 31
0.0
  0
LINE
  5
274
100
AcDbEntity
  8
LAY-6
  6
CONTINUOUS
 62
     1
100
AcDbLine
 10
136.403412
 20
249.1
 30
0.0
 11
139.403412
 21
249.6
 31
0.0
  0
LINE
  5
275
100
AcDbEntity
  8
LAY-6
  6
CONTINUOUS
 62
     1
100
AcDbLine
 10
139.403412
 20
249.6
 30
0.0
 11
136.403412
 21
250.1
 31
0.0
  0
LINE
  5
276
100
AcDbEntity
  8
LAY-6
  6
CONTINUOUS
 62
     1
100
AcDbLine
 10
164.403381
 20
233.379822
 30
0.0
 11
164.403381
 21
251.1
 31
0.0
  0
TEXT
  5
277
100
AcDbEntity
  8
LAY-6
  6
CONTINUOUS
 62
     2
100
AcDbText
 10
147.903397
 20
250.1
 30
0.0
 40
5.0
  1
２５
 41
0.672
  7
EXCADSTD
 72
     5
 11
155.236197
 21
250.1
 31
0.0
100
AcDbText
  0
LINE
  5
278
100
AcDbEntity
  8
LAY-6
  6
CONTINUOUS
 62
     1
100
AcDbLine
 10
139.403412
 20
249.6
 30
0.0
 11
164.403381
 21
249.6
 31
0.0
  0
LINE
  5
279
100
AcDbEntity
  8
LAY-6
  6
CONTINUOUS
 62
     1
100
AcDbLine
 10
142.403412
 20
250.1
 30
0.0
 11
139.403412
 21
249.6
 31
0.0
  0
LINE
  5
27A
100
AcDbEntity
  8
LAY-6
  6
CONTINUOUS
 62
     1
100
AcDbLine
 10
139.403412
 20
249.6
 30
0.0
 11
142.403412
 21
249.1
 31
0.0
  0
LINE
  5
27B
100
AcDbEntity
  8
LAY-6
  6
CONTINUOUS
 62
     1
100
AcDbLine
 10
161.403381
 20
249.1
 30
0.0
 11
164.403381
 21
249.6
 31
0.0
  0
LINE
  5
27C
100
AcDbEntity
  8
LAY-6
  6
CONTINUOUS
 62
     1
100
AcDbLine
 10
164.403381
 20
249.6
 30
0.0
 11
161.403381
 21
250.1
 31
0.0
  0
LINE
  5
27D
100
AcDbEntity
  8
LAY-6
  6
CONTINUOUS
 62
     1
100
AcDbLine
 10
194.403381
 20
221.2
 30
0.0
 11
194.403381
 21
251.1
 31
0.0
  0
TEXT
  5
27E
100
AcDbEntity
  8
LAY-6
  6
CONTINUOUS
 62
     2
100
AcDbText
 10
175.403381
 20
250.1
 30
0.0
 40
5.0
  1
３０
 41
0.672
  7
EXCADSTD
 72
     5
 11
182.736181
 21
250.1
 31
0.0
100
AcDbText
  0
LINE
  5
27F
100
AcDbEntity
  8
LAY-6
  6
CONTINUOUS
 62
     1
100
AcDbLine
 10
164.403381
 20
249.6
 30
0.0
 11
194.403381
 21
249.6
 31
0.0
  0
LINE
  5
280
100
AcDbEntity
  8
LAY-6
  6
CONTINUOUS
 62
     1
100
AcDbLine
 10
167.403381
 20
250.1
 30
0.0
 11
164.403381
 21
249.6
 31
0.0
  0
LINE
  5
281
100
AcDbEntity
  8
LAY-6
  6
CONTINUOUS
 62
     1
100
AcDbLine
 10
164.403381
 20
249.6
 30
0.0
 11
167.403381
 21
249.1
 31
0.0
  0
LINE
  5
282
100
AcDbEntity
  8
LAY-6
  6
CONTINUOUS
 62
     1
100
AcDbLine
 10
191.403381
 20
249.1
 30
0.0
 11
194.403381
 21
249.6
 31
0.0
  0
LINE
  5
283
100
AcDbEntity
  8
LAY-6
  6
CONTINUOUS
 62
     1
100
AcDbLine
 10
194.403381
 20
249.6
 30
0.0
 11
191.403381
 21
250.1
 31
0.0
  0
LINE
  5
284
100
AcDbEntity
  8
LAY-6
  6
CONTINUOUS
 62
     1
100
AcDbLine
 10
219.403381
 20
233.379822
 30
0.0
 11
219.403381
 21
251.1
 31
0.0
  0
TEXT
  5
285
100
AcDbEntity
  8
LAY-6
  6
CONTINUOUS
 62
     2
100
AcDbText
 10
202.903381
 20
250.1
 30
0.0
 40
5.0
  1
２５
 41
0.672
  7
EXCADSTD
 72
     5
 11
210.236181
 21
250.1
 31
0.0
100
AcDbText
  0
LINE
  5
286
100
AcDbEntity
  8
LAY-6
  6
CONTINUOUS
 62
     1
100
AcDbLine
 10
194.403381
 20
249.6
 30
0.0
 11
219.403381
 21
249.6
 31
0.0
  0
LINE
  5
287
100
AcDbEntity
  8
LAY-6
  6
CONTINUOUS
 62
     1
100
AcDbLine
 10
197.403381
 20
250.1
 30
0.0
 11
194.403381
 21
249.6
 31
0.0
  0
LINE
  5
288
100
AcDbEntity
  8
LAY-6
  6
CONTINUOUS
 62
     1
100
AcDbLine
 10
194.403381
 20
249.6
 30
0.0
 11
197.403381
 21
249.1
 31
0.0
  0
LINE
  5
289
100
AcDbEntity
  8
LAY-6
  6
CONTINUOUS
 62
     1
100
AcDbLine
 10
216.403381
 20
249.1
 30
0.0
 11
219.403381
 21
249.6
 31
0.0
  0
LINE
  5
28A
100
AcDbEntity
  8
LAY-6
  6
CONTINUOUS
 62
     1
100
AcDbLine
 10
219.403381
 20
249.6
 30
0.0
 11
216.403381
 21
250.1
 31
0.0
  0
LINE
  5
28B
100
AcDbEntity
  8
LAY-6
  6
CONTINUOUS
 62
     1
100
AcDbLine
 10
229.403412
 20
227.876953
 30
0.0
 11
229.403412
 21
251.1
 31
0.0
  0
TEXT
  5
28C
100
AcDbEntity
  8
LAY-6
  6
CONTINUOUS
 62
     2
100
AcDbText
 10
220.403397
 20
250.1
 30
0.0
 40
5.0
  1
１０
 41
0.672
  7
EXCADSTD
 72
     5
 11
227.736197
 21
250.1
 31
0.0
100
AcDbText
  0
LINE
  5
28D
100
AcDbEntity
  8
LAY-6
  6
CONTINUOUS
 62
     1
100
AcDbLine
 10
219.403381
 20
249.6
 30
0.0
 11
229.403412
 21
249.6
 31
0.0
  0
LINE
  5
28E
100
AcDbEntity
  8
LAY-6
  6
CONTINUOUS
 62
     1
100
AcDbLine
 10
222.403381
 20
250.1
 30
0.0
 11
219.403381
 21
249.6
 31
0.0
  0
LINE
  5
28F
100
AcDbEntity
  8
LAY-6
  6
CONTINUOUS
 62
     1
100
AcDbLine
 10
219.403381
 20
249.6
 30
0.0
 11
222.403381
 21
249.1
 31
0.0
  0
LINE
  5
290
100
AcDbEntity
  8
LAY-6
  6
CONTINUOUS
 62
     1
100
AcDbLine
 10
226.403412
 20
249.1
 30
0.0
 11
229.403412
 21
249.6
 31
0.0
  0
LINE
  5
291
100
AcDbEntity
  8
LAY-6
  6
CONTINUOUS
 62
     1
100
AcDbLine
 10
229.403412
 20
249.6
 30
0.0
 11
226.403412
 21
250.1
 31
0.0
  0
LINE
  5
292
100
AcDbEntity
  8
LAY-6
  6
CONTINUOUS
 62
     1
100
AcDbLine
 10
124.40339
 20
239.277227
 30
0.0
 11
124.40339
 21
262.5
 31
0.0
  0
LINE
  5
293
100
AcDbEntity
  8
LAY-6
  6
CONTINUOUS
 62
     1
100
AcDbLine
 10
129.403381
 20
251.1
 30
0.0
 11
129.403381
 21
262.5
 31
0.0
  0
TEXT
  5
294
100
AcDbEntity
  8
LAY-6
  6
CONTINUOUS
 62
     2
100
AcDbText
 10
124.903386
 20
261.5
 30
0.0
 40
5.0
  1
５
 41
0.672
  7
EXCADSTD
 72
     5
 11
128.103386
 21
261.5
 31
0.0
100
AcDbText
  0
LINE
  5
295
100
AcDbEntity
  8
LAY-6
  6
CONTINUOUS
 62
     1
100
AcDbLine
 10
119.40339
 20
261.0
 30
0.0
 11
134.403381
 21
261.0
 31
0.0
  0
LINE
  5
296
100
AcDbEntity
  8
LAY-6
  6
CONTINUOUS
 62
     1
100
AcDbLine
 10
121.40339
 20
260.5
 30
0.0
 11
124.40339
 21
261.0
 31
0.0
  0
LINE
  5
297
100
AcDbEntity
  8
LAY-6
  6
CONTINUOUS
 62
     1
100
AcDbLine
 10
124.40339
 20
261.0
 30
0.0
 11
121.40339
 21
261.5
 31
0.0
  0
LINE
  5
298
100
AcDbEntity
  8
LAY-6
  6
CONTINUOUS
 62
     1
100
AcDbLine
 10
132.403381
 20
261.5
 30
0.0
 11
129.403381
 21
261.0
 31
0.0
  0
LINE
  5
299
100
AcDbEntity
  8
LAY-6
  6
CONTINUOUS
 62
     1
100
AcDbLine
 10
129.403381
 20
261.0
 30
0.0
 11
132.403381
 21
260.5
 31
0.0
  0
LINE
  5
29A
100
AcDbEntity
  8
LAY-6
  6
CONTINUOUS
 62
     1
100
AcDbLine
 10
229.403412
 20
251.1
 30
0.0
 11
229.403412
 21
262.5
 31
0.0
  0
TEXT
  5
29B
100
AcDbEntity
  8
LAY-6
  6
CONTINUOUS
 62
     2
100
AcDbText
 10
173.403397
 20
261.5
 30
0.0
 40
5.0
  1
１００
 41
0.672
  7
EXCADSTD
 72
     5
 11
185.403397
 21
261.5
 31
0.0
100
AcDbText
  0
LINE
  5
29C
100
AcDbEntity
  8
LAY-6
  6
CONTINUOUS
 62
     1
100
AcDbLine
 10
129.403381
 20
261.0
 30
0.0
 11
229.403412
 21
261.0
 31
0.0
  0
LINE
  5
29D
100
AcDbEntity
  8
LAY-6
  6
CONTINUOUS
 62
     1
100
AcDbLine
 10
132.403381
 20
261.5
 30
0.0
 11
129.403381
 21
261.0
 31
0.0
  0
LINE
  5
29E
100
AcDbEntity
  8
LAY-6
  6
CONTINUOUS
 62
     1
100
AcDbLine
 10
129.403381
 20
261.0
 30
0.0
 11
132.403381
 21
260.5
 31
0.0
  0
LINE
  5
29F
100
AcDbEntity
  8
LAY-6
  6
CONTINUOUS
 62
     1
100
AcDbLine
 10
226.403412
 20
260.5
 30
0.0
 11
229.403412
 21
261.0
 31
0.0
  0
LINE
  5
2A0
100
AcDbEntity
  8
LAY-6
  6
CONTINUOUS
 62
     1
100
AcDbLine
 10
229.403412
 20
261.0
 30
0.0
 11
226.403412
 21
261.5
 31
0.0
  0
LINE
  5
2A1
100
AcDbEntity
  8
LAY-6
  6
CONTINUOUS
 62
     1
100
AcDbLine
 10
124.403412
 20
153.876984
 30
0.0
 11
124.403412
 21
150.2
 31
0.0
  0
LINE
  5
2A2
100
AcDbEntity
  8
LAY-6
  6
CONTINUOUS
 62
     1
100
AcDbLine
 10
194.403442
 20
194.352234
 30
0.0
 11
194.403442
 21
150.2
 31
0.0
  0
TEXT
  5
2A3
100
AcDbEntity
  8
LAY-6
  6
CONTINUOUS
 62
     2
100
AcDbText
 10
155.403427
 20
152.2
 30
0.0
 40
5.0
  1
７０
 41
0.672
  7
EXCADSTD
 72
     5
 11
162.736227
 21
152.2
 31
0.0
100
AcDbText
  0
LINE
  5
2A4
100
AcDbEntity
  8
LAY-6
  6
CONTINUOUS
 62
     1
100
AcDbLine
 10
124.403412
 20
151.7
 30
0.0
 11
194.403442
 21
151.7
 31
0.0
  0
LINE
  5
2A5
100
AcDbEntity
  8
LAY-6
  6
CONTINUOUS
 62
     1
100
AcDbLine
 10
127.403412
 20
152.2
 30
0.0
 11
124.403412
 21
151.7
 31
0.0
  0
LINE
  5
2A6
100
AcDbEntity
  8
LAY-6
  6
CONTINUOUS
 62
     1
100
AcDbLine
 10
124.403412
 20
151.7
 30
0.0
 11
127.403412
 21
151.2
 31
0.0
  0
LINE
  5
2A7
100
AcDbEntity
  8
LAY-6
  6
CONTINUOUS
 62
     1
100
AcDbLine
 10
191.403442
 20
151.2
 30
0.0
 11
194.403442
 21
151.7
 31
0.0
  0
LINE
  5
2A8
100
AcDbEntity
  8
LAY-6
  6
CONTINUOUS
 62
     1
100
AcDbLine
 10
194.403442
 20
151.7
 30
0.0
 11
191.403442
 21
152.2
 31
0.0
  0
TEXT
  5
2A9
100
AcDbEntity
  8
LAY-6
  6
CONTINUOUS
 62
     2
100
AcDbText
 10
209.3
 20
208.376953
 30
0.0
 40
5.0
  1
７
 50
90.0
 41
0.672
  7
EXCADSTD
 72
     5
 11
209.3
 21
211.576953
 31
0.0
100
AcDbText
  0
LINE
  5
2AA
100
AcDbEntity
  8
LAY-6
  6
CONTINUOUS
 62
     1
100
AcDbLine
 10
201.8
 20
213.876953
 30
0.0
 11
211.3
 21
213.876953
 31
0.0
  0
LINE
  5
2AB
100
AcDbEntity
  8
LAY-6
  6
CONTINUOUS
 62
     1
100
AcDbLine
 10
209.8
 20
206.876953
 30
0.0
 11
209.8
 21
213.876953
 31
0.0
  0
LINE
  5
2AC
100
AcDbEntity
  8
LAY-6
  6
CONTINUOUS
 62
     1
100
AcDbLine
 10
209.3
 20
209.876953
 30
0.0
 11
209.8
 21
206.876953
 31
0.0
  0
LINE
  5
2AD
100
AcDbEntity
  8
LAY-6
  6
CONTINUOUS
 62
     1
100
AcDbLine
 10
209.8
 20
206.876953
 30
0.0
 11
210.3
 21
209.876953
 31
0.0
  0
LINE
  5
2AE
100
AcDbEntity
  8
LAY-6
  6
CONTINUOUS
 62
     1
100
AcDbLine
 10
210.3
 20
210.876953
 30
0.0
 11
209.8
 21
213.876953
 31
0.0
  0
LINE
  5
2AF
100
AcDbEntity
  8
LAY-6
  6
CONTINUOUS
 62
     1
100
AcDbLine
 10
209.8
 20
213.876953
 30
0.0
 11
209.3
 21
210.876953
 31
0.0
  0
LINE
  5
2B0
100
AcDbEntity
  8
LAY-6
  6
CONTINUOUS
 62
     1
100
AcDbLine
 10
187.276318
 20
175.876953
 30
0.0
 11
241.7
 21
175.876953
 31
0.0
  0
LINE
  5
2B1
100
AcDbEntity
  8
LAY-6
  6
CONTINUOUS
 62
     1
100
AcDbLine
 10
194.403442
 20
200.877227
 30
0.0
 11
241.7
 21
200.877227
 31
0.0
  0
TEXT
  5
2B2
100
AcDbEntity
  8
LAY-6
  6
CONTINUOUS
 62
     2
100
AcDbText
 10
239.7
 20
184.37709
 30
0.0
 40
5.0
  1
２５
 50
90.0
 41
0.672
  7
EXCADSTD
 72
     5
 11
239.7
 21
191.70989
 31
0.0
100
AcDbText
  0
LINE
  5
2B3
100
AcDbEntity
  8
LAY-6
  6
CONTINUOUS
 62
     1
100
AcDbLine
 10
240.2
 20
175.876953
 30
0.0
 11
240.2
 21
200.877227
 31
0.0
  0
LINE
  5
2B4
100
AcDbEntity
  8
LAY-6
  6
CONTINUOUS
 62
     1
100
AcDbLine
 10
239.7
 20
178.876953
 30
0.0
 11
240.2
 21
175.876953
 31
0.0
  0
LINE
  5
2B5
100
AcDbEntity
  8
LAY-6
  6
CONTINUOUS
 62
     1
100
AcDbLine
 10
240.2
 20
175.876953
 30
0.0
 11
240.7
 21
178.876953
 31
0.0
  0
LINE
  5
2B6
100
AcDbEntity
  8
LAY-6
  6
CONTINUOUS
 62
     1
100
AcDbLine
 10
240.7
 20
197.877227
 30
0.0
 11
240.2
 21
200.877227
 31
0.0
  0
LINE
  5
2B7
100
AcDbEntity
  8
LAY-6
  6
CONTINUOUS
 62
     1
100
AcDbLine
 10
240.2
 20
200.877227
 30
0.0
 11
239.7
 21
197.877227
 31
0.0
  0
LINE
  5
2B8
100
AcDbEntity
  8
LAY-6
  6
CONTINUOUS
 62
     1
100
AcDbLine
 10
221.403412
 20
206.876953
 30
0.0
 11
241.7
 21
206.876953
 31
0.0
  0
TEXT
  5
2B9
100
AcDbEntity
  8
LAY-6
  6
CONTINUOUS
 62
     2
100
AcDbText
 10
239.7
 20
201.87709
 30
0.0
 40
5.0
  1
６
 50
90.0
 41
0.672
  7
EXCADSTD
 72
     5
 11
239.7
 21
205.07709
 31
0.0
100
AcDbText
  0
POLYLINE
  5
2BA
100
AcDbEntity
  8
LAY-6
  6
CONTINUOUS
 62
     1
100
AcDb2dPolyline
 66
     1
 10
0.0
 20
0.0
 30
0.0
 70
   128
  0
VERTEX
  5
2BB
100
AcDbEntity
  8
LAY-6
  6
CONTINUOUS
 62
     1
100
AcDbVertex
100
AcDb2dVertex
 10
115.153399
 20
191.898433
 30
0.0
  0
VERTEX
  5
2BC
100
AcDbEntity
  8
LAY-6
  6
CONTINUOUS
 62
     1
100
AcDbVertex
100
AcDb2dVertex
 10
107.9
 20
201.8
 30
0.0
  0
VERTEX
  5
2BD
100
AcDbEntity
  8
LAY-6
  6
CONTINUOUS
 62
     1
100
AcDbVertex
100
AcDb2dVertex
 10
87.6
 20
201.8
 30
0.0
  0
SEQEND
  5
2BE
100
AcDbEntity
  8
LAY-6
  6
CONTINUOUS
 62
     1
  0
LINE
  5
2BF
100
AcDbEntity
  8
LAY-6
  6
CONTINUOUS
 62
     1
100
AcDbLine
 10
112.977187
 20
194.023075
 30
0.0
 11
115.153399
 21
191.898433
 31
0.0
  0
LINE
  5
2C0
100
AcDbEntity
  8
LAY-6
  6
CONTINUOUS
 62
     1
100
AcDbLine
 10
115.153399
 20
191.898433
 30
0.0
 11
113.783893
 21
194.614028
 31
0.0
  0
TEXT
  5
2C1
100
AcDbEntity
  8
LAY-6
  6
CONTINUOUS
 62
     2
100
AcDbText
 10
87.6
 20
201.8
 30
0.0
 40
5.0
  1
セットネジ
 41
0.672
  7
EXCADSTD
 72
     5
 11
107.6
 21
201.8
 31
0.0
100
AcDbText
  0
LINE
  5
2C2
100
AcDbEntity
  8
LAY-6
  6
CONTINUOUS
 62
     1
100
AcDbLine
 10
341.403381
 20
170.5625
 30
0.0
 11
341.403381
 21
168.7
 31
0.0
  0
LINE
  5
2C3
100
AcDbEntity
  8
LAY-6
  6
CONTINUOUS
 62
     1
100
AcDbLine
 10
411.403412
 20
213.03656
 30
0.0
 11
411.403412
 21
168.7
 31
0.0
  0
TEXT
  5
2C4
100
AcDbEntity
  8
LAY-6
  6
CONTINUOUS
 62
     2
100
AcDbText
 10
372.403397
 20
170.7
 30
0.0
 40
5.0
  1
７０
 41
0.672
  7
EXCADSTD
 72
     5
 11
379.736197
 21
170.7
 31
0.0
100
AcDbText
  0
LINE
  5
2C5
100
AcDbEntity
  8
LAY-6
  6
CONTINUOUS
 62
     1
100
AcDbLine
 10
341.403381
 20
170.2
 30
0.0
 11
411.403412
 21
170.2
 31
0.0
  0
LINE
  5
2C6
100
AcDbEntity
  8
LAY-6
  6
CONTINUOUS
 62
     1
100
AcDbLine
 10
344.403381
 20
170.7
 30
0.0
 11
341.403381
 21
170.2
 31
0.0
  0
LINE
  5
2C7
100
AcDbEntity
  8
LAY-6
  6
CONTINUOUS
 62
     1
100
AcDbLine
 10
341.403381
 20
170.2
 30
0.0
 11
344.403381
 21
169.7
 31
0.0
  0
LINE
  5
2C8
100
AcDbEntity
  8
LAY-6
  6
CONTINUOUS
 62
     1
100
AcDbLine
 10
408.403412
 20
169.7
 30
0.0
 11
411.403412
 21
170.2
 31
0.0
  0
LINE
  5
2C9
100
AcDbEntity
  8
LAY-6
  6
CONTINUOUS
 62
     1
100
AcDbLine
 10
411.403412
 20
170.2
 30
0.0
 11
408.403412
 21
170.7
 31
0.0
  0
TEXT
  5
2CA
100
AcDbEntity
  8
LAY-6
  6
CONTINUOUS
 62
     2
100
AcDbText
 10
442.5
 20
378.991074
 30
0.0
 40
5.0
  1
７
 50
90.0
 41
0.672
  7
EXCADSTD
 72
     5
 11
442.5
 21
382.191074
 31
0.0
100
AcDbText
  0
LINE
  5
2CB
100
AcDbEntity
  8
LAY-6
  6
CONTINUOUS
 62
     1
100
AcDbLine
 10
435.0
 20
384.491058
 30
0.0
 11
444.5
 21
384.491058
 31
0.0
  0
LINE
  5
2CC
100
AcDbEntity
  8
LAY-6
  6
CONTINUOUS
 62
     1
100
AcDbLine
 10
443.0
 20
377.491089
 30
0.0
 11
443.0
 21
384.491058
 31
0.0
  0
LINE
  5
2CD
100
AcDbEntity
  8
LAY-6
  6
CONTINUOUS
 62
     1
100
AcDbLine
 10
442.5
 20
380.491089
 30
0.0
 11
443.0
 21
377.491089
 31
0.0
  0
LINE
  5
2CE
100
AcDbEntity
  8
LAY-6
  6
CONTINUOUS
 62
     1
100
AcDbLine
 10
443.0
 20
377.491089
 30
0.0
 11
443.5
 21
380.491089
 31
0.0
  0
LINE
  5
2CF
100
AcDbEntity
  8
LAY-6
  6
CONTINUOUS
 62
     1
100
AcDbLine
 10
443.5
 20
381.491058
 30
0.0
 11
443.0
 21
384.491058
 31
0.0
  0
LINE
  5
2D0
100
AcDbEntity
  8
LAY-6
  6
CONTINUOUS
 62
     1
100
AcDbLine
 10
443.0
 20
384.491058
 30
0.0
 11
442.5
 21
381.491058
 31
0.0
  0
TEXT
  5
2D1
100
AcDbEntity
  8
LAY-6
  6
CONTINUOUS
 62
     2
100
AcDbText
 10
477.6
 20
354.991226
 30
0.0
 40
5.0
  1
２５
 50
90.0
 41
0.672
  7
EXCADSTD
 72
     5
 11
477.6
 21
362.324026
 31
0.0
100
AcDbText
  0
LINE
  5
2D2
100
AcDbEntity
  8
LAY-6
  6
CONTINUOUS
 62
     1
100
AcDbLine
 10
404.276315
 20
346.491089
 30
0.0
 11
479.6
 21
346.491089
 31
0.0
  0
LINE
  5
2D3
100
AcDbEntity
  8
LAY-6
  6
CONTINUOUS
 62
     1
100
AcDbLine
 10
478.1
 20
346.491089
 30
0.0
 11
478.1
 21
371.491363
 31
0.0
  0
LINE
  5
2D4
100
AcDbEntity
  8
LAY-6
  6
CONTINUOUS
 62
     1
100
AcDbLine
 10
477.6
 20
349.491089
 30
0.0
 11
478.1
 21
346.491089
 31
0.0
  0
LINE
  5
2D5
100
AcDbEntity
  8
LAY-6
  6
CONTINUOUS
 62
     1
100
AcDbLine
 10
478.1
 20
346.491089
 30
0.0
 11
478.6
 21
349.491089
 31
0.0
  0
LINE
  5
2D6
100
AcDbEntity
  8
LAY-6
  6
CONTINUOUS
 62
     1
100
AcDbLine
 10
478.6
 20
368.491363
 30
0.0
 11
478.1
 21
371.491363
 31
0.0
  0
LINE
  5
2D7
100
AcDbEntity
  8
LAY-6
  6
CONTINUOUS
 62
     1
100
AcDbLine
 10
478.1
 20
371.491363
 30
0.0
 11
477.6
 21
368.491363
 31
0.0
  0
LINE
  5
2D8
100
AcDbEntity
  8
LAY-6
  6
CONTINUOUS
 62
     1
100
AcDbLine
 10
458.403381
 20
377.491089
 30
0.0
 11
479.6
 21
377.491089
 31
0.0
  0
TEXT
  5
2D9
100
AcDbEntity
  8
LAY-6
  6
CONTINUOUS
 62
     2
100
AcDbText
 10
477.6
 20
372.491226
 30
0.0
 40
5.0
  1
６
 50
90.0
 41
0.672
  7
EXCADSTD
 72
     5
 11
477.6
 21
375.691226
 31
0.0
100
AcDbText
  0
LINE
  5
2DA
100
AcDbEntity
  8
LAY-6
  6
CONTINUOUS
 62
     1
100
AcDbLine
 10
463.403381
 20
406.491089
 30
0.0
 11
479.6
 21
406.491089
 31
0.0
  0
TEXT
  5
2DB
100
AcDbEntity
  8
LAY-6
  6
CONTINUOUS
 62
     2
100
AcDbText
 10
477.6
 20
387.991089
 30
0.0
 40
5.0
  1
２９
 50
90.0
 41
0.672
  7
EXCADSTD
 72
     5
 11
477.6
 21
395.323889
 31
0.0
100
AcDbText
  0
LINE
  5
2DC
100
AcDbEntity
  8
LAY-6
  6
CONTINUOUS
 62
     1
100
AcDbLine
 10
478.1
 20
377.491089
 30
0.0
 11
478.1
 21
406.491089
 31
0.0
  0
LINE
  5
2DD
100
AcDbEntity
  8
LAY-6
  6
CONTINUOUS
 62
     1
100
AcDbLine
 10
477.6
 20
380.491089
 30
0.0
 11
478.1
 21
377.491089
 31
0.0
  0
LINE
  5
2DE
100
AcDbEntity
  8
LAY-6
  6
CONTINUOUS
 62
     1
100
AcDbLine
 10
478.1
 20
377.491089
 30
0.0
 11
478.6
 21
380.491089
 31
0.0
  0
LINE
  5
2DF
100
AcDbEntity
  8
LAY-6
  6
CONTINUOUS
 62
     1
100
AcDbLine
 10
478.6
 20
403.491089
 30
0.0
 11
478.1
 21
406.491089
 31
0.0
  0
LINE
  5
2E0
100
AcDbEntity
  8
LAY-6
  6
CONTINUOUS
 62
     1
100
AcDbLine
 10
478.1
 20
406.491089
 30
0.0
 11
477.6
 21
403.491089
 31
0.0
  0
LINE
  5
2E1
100
AcDbEntity
  8
LAY-6
  6
CONTINUOUS
 62
     1
100
AcDbLine
 10
341.403381
 20
322.175659
 30
0.0
 11
341.403381
 21
324.0
 31
0.0
  0
LINE
  5
2E2
100
AcDbEntity
  8
LAY-6
  6
CONTINUOUS
 62
     1
100
AcDbLine
 10
411.403381
 20
364.966339
 30
0.0
 11
411.403381
 21
321.0
 31
0.0
  0
TEXT
  5
2E3
100
AcDbEntity
  8
LAY-6
  6
CONTINUOUS
 62
     2
100
AcDbText
 10
372.403381
 20
323.0
 30
0.0
 40
5.0
  1
７０
 41
0.672
  7
EXCADSTD
 72
     5
 11
379.736181
 21
323.0
 31
0.0
100
AcDbText
  0
LINE
  5
2E4
100
AcDbEntity
  8
LAY-6
  6
CONTINUOUS
 62
     1
100
AcDbLine
 10
341.403381
 20
322.5
 30
0.0
 11
411.403381
 21
322.5
 31
0.0
  0
LINE
  5
2E5
100
AcDbEntity
  8
LAY-6
  6
CONTINUOUS
 62
     1
100
AcDbLine
 10
344.403381
 20
323.0
 30
0.0
 11
341.403381
 21
322.5
 31
0.0
  0
LINE
  5
2E6
100
AcDbEntity
  8
LAY-6
  6
CONTINUOUS
 62
     1
100
AcDbLine
 10
341.403381
 20
322.5
 30
0.0
 11
344.403381
 21
322.0
 31
0.0
  0
LINE
  5
2E7
100
AcDbEntity
  8
LAY-6
  6
CONTINUOUS
 62
     1
100
AcDbLine
 10
408.403381
 20
322.0
 30
0.0
 11
411.403381
 21
322.5
 31
0.0
  0
LINE
  5
2E8
100
AcDbEntity
  8
LAY-6
  6
CONTINUOUS
 62
     1
100
AcDbLine
 10
411.403381
 20
322.5
 30
0.0
 11
408.403381
 21
323.0
 31
0.0
  0
LINE
  5
2E9
100
AcDbEntity
  8
LAY-6
  6
CONTINUOUS
 62
     1
100
AcDbLine
 10
346.403381
 20
391.491089
 30
0.0
 11
346.403381
 21
422.2
 31
0.0
  0
LINE
  5
2EA
100
AcDbEntity
  8
LAY-6
  6
CONTINUOUS
 62
     1
100
AcDbLine
 10
356.403381
 20
392.5
 30
0.0
 11
356.403381
 21
422.2
 31
0.0
  0
TEXT
  5
2EB
100
AcDbEntity
  8
LAY-6
  6
CONTINUOUS
 62
     2
100
AcDbText
 10
347.403381
 20
421.2
 30
0.0
 40
5.0
  1
１０
 41
0.672
  7
EXCADSTD
 72
     5
 11
354.736181
 21
421.2
 31
0.0
100
AcDbText
  0
LINE
  5
2EC
100
AcDbEntity
  8
LAY-6
  6
CONTINUOUS
 62
     1
100
AcDbLine
 10
346.403381
 20
420.7
 30
0.0
 11
356.403381
 21
420.7
 31
0.0
  0
LINE
  5
2ED
100
AcDbEntity
  8
LAY-6
  6
CONTINUOUS
 62
     1
100
AcDbLine
 10
349.403381
 20
421.2
 30
0.0
 11
346.403381
 21
420.7
 31
0.0
  0
LINE
  5
2EE
100
AcDbEntity
  8
LAY-6
  6
CONTINUOUS
 62
     1
100
AcDbLine
 10
346.403381
 20
420.7
 30
0.0
 11
349.403381
 21
420.2
 31
0.0
  0
LINE
  5
2EF
100
AcDbEntity
  8
LAY-6
  6
CONTINUOUS
 62
     1
100
AcDbLine
 10
353.403381
 20
420.2
 30
0.0
 11
356.403381
 21
420.7
 31
0.0
  0
LINE
  5
2F0
100
AcDbEntity
  8
LAY-6
  6
CONTINUOUS
 62
     1
100
AcDbLine
 10
356.403381
 20
420.7
 30
0.0
 11
353.403381
 21
421.2
 31
0.0
  0
LINE
  5
2F1
100
AcDbEntity
  8
LAY-6
  6
CONTINUOUS
 62
     1
100
AcDbLine
 10
386.403351
 20
402.1
 30
0.0
 11
386.403351
 21
422.2
 31
0.0
  0
TEXT
  5
2F2
100
AcDbEntity
  8
LAY-6
  6
CONTINUOUS
 62
     2
100
AcDbText
 10
367.403366
 20
421.2
 30
0.0
 40
5.0
  1
３０
 41
0.672
  7
EXCADSTD
 72
     5
 11
374.736166
 21
421.2
 31
0.0
100
AcDbText
  0
LINE
  5
2F3
100
AcDbEntity
  8
LAY-6
  6
CONTINUOUS
 62
     1
100
AcDbLine
 10
356.403381
 20
420.7
 30
0.0
 11
386.403351
 21
420.7
 31
0.0
  0
LINE
  5
2F4
100
AcDbEntity
  8
LAY-6
  6
CONTINUOUS
 62
     1
100
AcDbLine
 10
359.403381
 20
421.2
 30
0.0
 11
356.403381
 21
420.7
 31
0.0
  0
LINE
  5
2F5
100
AcDbEntity
  8
LAY-6
  6
CONTINUOUS
 62
     1
100
AcDbLine
 10
356.403381
 20
420.7
 30
0.0
 11
359.403381
 21
420.2
 31
0.0
  0
LINE
  5
2F6
100
AcDbEntity
  8
LAY-6
  6
CONTINUOUS
 62
     1
100
AcDbLine
 10
383.403351
 20
420.2
 30
0.0
 11
386.403351
 21
420.7
 31
0.0
  0
LINE
  5
2F7
100
AcDbEntity
  8
LAY-6
  6
CONTINUOUS
 62
     1
100
AcDbLine
 10
386.403351
 20
420.7
 30
0.0
 11
383.403351
 21
421.2
 31
0.0
  0
LINE
  5
2F8
100
AcDbEntity
  8
LAY-6
  6
CONTINUOUS
 62
     1
100
AcDbLine
 10
426.403381
 20
392.5
 30
0.0
 11
426.403381
 21
422.2
 31
0.0
  0
TEXT
  5
2F9
100
AcDbEntity
  8
LAY-6
  6
CONTINUOUS
 62
     2
100
AcDbText
 10
402.403366
 20
421.2
 30
0.0
 40
5.0
  1
４０
 41
0.672
  7
EXCADSTD
 72
     5
 11
409.736166
 21
421.2
 31
0.0
100
AcDbText
  0
LINE
  5
2FA
100
AcDbEntity
  8
LAY-6
  6
CONTINUOUS
 62
     1
100
AcDbLine
 10
386.403351
 20
420.7
 30
0.0
 11
426.403381
 21
420.7
 31
0.0
  0
LINE
  5
2FB
100
AcDbEntity
  8
LAY-6
  6
CONTINUOUS
 62
     1
100
AcDbLine
 10
389.403351
 20
421.2
 30
0.0
 11
386.403351
 21
420.7
 31
0.0
  0
LINE
  5
2FC
100
AcDbEntity
  8
LAY-6
  6
CONTINUOUS
 62
     1
100
AcDbLine
 10
386.403351
 20
420.7
 30
0.0
 11
389.403351
 21
420.2
 31
0.0
  0
LINE
  5
2FD
100
AcDbEntity
  8
LAY-6
  6
CONTINUOUS
 62
     1
100
AcDbLine
 10
423.403381
 20
420.2
 30
0.0
 11
426.403381
 21
420.7
 31
0.0
  0
LINE
  5
2FE
100
AcDbEntity
  8
LAY-6
  6
CONTINUOUS
 62
     1
100
AcDbLine
 10
426.403381
 20
420.7
 30
0.0
 11
423.403381
 21
421.2
 31
0.0
  0
LINE
  5
2FF
100
AcDbEntity
  8
LAY-6
  6
CONTINUOUS
 62
     1
100
AcDbLine
 10
456.403381
 20
402.1
 30
0.0
 11
456.403381
 21
422.2
 31
0.0
  0
TEXT
  5
300
100
AcDbEntity
  8
LAY-6
  6
CONTINUOUS
 62
     2
100
AcDbText
 10
437.403381
 20
421.2
 30
0.0
 40
5.0
  1
３０
 41
0.672
  7
EXCADSTD
 72
     5
 11
444.736181
 21
421.2
 31
0.0
100
AcDbText
  0
LINE
  5
301
100
AcDbEntity
  8
LAY-6
  6
CONTINUOUS
 62
     1
100
AcDbLine
 10
426.403381
 20
420.7
 30
0.0
 11
456.403381
 21
420.7
 31
0.0
  0
LINE
  5
302
100
AcDbEntity
  8
LAY-6
  6
CONTINUOUS
 62
     1
100
AcDbLine
 10
429.403381
 20
421.2
 30
0.0
 11
426.403381
 21
420.7
 31
0.0
  0
LINE
  5
303
100
AcDbEntity
  8
LAY-6
  6
CONTINUOUS
 62
     1
100
AcDbLine
 10
426.403381
 20
420.7
 30
0.0
 11
429.403381
 21
420.2
 31
0.0
  0
LINE
  5
304
100
AcDbEntity
  8
LAY-6
  6
CONTINUOUS
 62
     1
100
AcDbLine
 10
453.403381
 20
420.2
 30
0.0
 11
456.403381
 21
420.7
 31
0.0
  0
LINE
  5
305
100
AcDbEntity
  8
LAY-6
  6
CONTINUOUS
 62
     1
100
AcDbLine
 10
456.403381
 20
420.7
 30
0.0
 11
453.403381
 21
421.2
 31
0.0
  0
LINE
  5
306
100
AcDbEntity
  8
LAY-6
  6
CONTINUOUS
 62
     1
100
AcDbLine
 10
466.403381
 20
398.491089
 30
0.0
 11
466.403381
 21
422.2
 31
0.0
  0
TEXT
  5
307
100
AcDbEntity
  8
LAY-6
  6
CONTINUOUS
 62
     2
100
AcDbText
 10
457.403381
 20
421.2
 30
0.0
 40
5.0
  1
１０
 41
0.672
  7
EXCADSTD
 72
     5
 11
464.736181
 21
421.2
 31
0.0
100
AcDbText
  0
LINE
  5
308
100
AcDbEntity
  8
LAY-6
  6
CONTINUOUS
 62
     1
100
AcDbLine
 10
456.403381
 20
420.7
 30
0.0
 11
466.403381
 21
420.7
 31
0.0
  0
LINE
  5
309
100
AcDbEntity
  8
LAY-6
  6
CONTINUOUS
 62
     1
100
AcDbLine
 10
459.403381
 20
421.2
 30
0.0
 11
456.403381
 21
420.7
 31
0.0
  0
LINE
  5
30A
100
AcDbEntity
  8
LAY-6
  6
CONTINUOUS
 62
     1
100
AcDbLine
 10
456.403381
 20
420.7
 30
0.0
 11
459.403381
 21
420.2
 31
0.0
  0
LINE
  5
30B
100
AcDbEntity
  8
LAY-6
  6
CONTINUOUS
 62
     1
100
AcDbLine
 10
463.403381
 20
420.2
 30
0.0
 11
466.403381
 21
420.7
 31
0.0
  0
LINE
  5
30C
100
AcDbEntity
  8
LAY-6
  6
CONTINUOUS
 62
     1
100
AcDbLine
 10
466.403381
 20
420.7
 30
0.0
 11
463.403381
 21
421.2
 31
0.0
  0
LINE
  5
30D
100
AcDbEntity
  8
LAY-6
  6
CONTINUOUS
 62
     1
100
AcDbLine
 10
341.403375
 20
409.891363
 30
0.0
 11
341.403375
 21
434.2
 31
0.0
  0
LINE
  5
30E
100
AcDbEntity
  8
LAY-6
  6
CONTINUOUS
 62
     1
100
AcDbLine
 10
346.403381
 20
422.2
 30
0.0
 11
346.403381
 21
434.2
 31
0.0
  0
TEXT
  5
30F
100
AcDbEntity
  8
LAY-6
  6
CONTINUOUS
 62
     2
100
AcDbText
 10
341.903378
 20
433.2
 30
0.0
 40
5.0
  1
５
 41
0.672
  7
EXCADSTD
 72
     5
 11
345.103378
 21
433.2
 31
0.0
100
AcDbText
  0
LINE
  5
310
100
AcDbEntity
  8
LAY-6
  6
CONTINUOUS
 62
     1
100
AcDbLine
 10
336.403375
 20
432.7
 30
0.0
 11
341.403375
 21
432.7
 31
0.0
  0
LINE
  5
311
100
AcDbEntity
  8
LAY-6
  6
CONTINUOUS
 62
     1
100
AcDbLine
 10
346.403381
 20
432.7
 30
0.0
 11
351.403381
 21
432.7
 31
0.0
  0
LINE
  5
312
100
AcDbEntity
  8
LAY-6
  6
CONTINUOUS
 62
     1
100
AcDbLine
 10
338.403375
 20
432.2
 30
0.0
 11
341.403375
 21
432.7
 31
0.0
  0
LINE
  5
313
100
AcDbEntity
  8
LAY-6
  6
CONTINUOUS
 62
     1
100
AcDbLine
 10
341.403375
 20
432.7
 30
0.0
 11
338.403375
 21
433.2
 31
0.0
  0
LINE
  5
314
100
AcDbEntity
  8
LAY-6
  6
CONTINUOUS
 62
     1
100
AcDbLine
 10
349.403381
 20
433.2
 30
0.0
 11
346.403381
 21
432.7
 31
0.0
  0
LINE
  5
315
100
AcDbEntity
  8
LAY-6
  6
CONTINUOUS
 62
     1
100
AcDbLine
 10
346.403381
 20
432.7
 30
0.0
 11
349.403381
 21
432.2
 31
0.0
  0
LINE
  5
316
100
AcDbEntity
  8
LAY-6
  6
CONTINUOUS
 62
     1
100
AcDbLine
 10
466.403381
 20
422.2
 30
0.0
 11
466.403381
 21
434.2
 31
0.0
  0
TEXT
  5
317
100
AcDbEntity
  8
LAY-6
  6
CONTINUOUS
 62
     2
100
AcDbText
 10
400.403381
 20
433.2
 30
0.0
 40
5.0
  1
１２０
 41
0.672
  7
EXCADSTD
 72
     5
 11
412.403381
 21
433.2
 31
0.0
100
AcDbText
  0
LINE
  5
318
100
AcDbEntity
  8
LAY-6
  6
CONTINUOUS
 62
     1
100
AcDbLine
 10
346.403381
 20
432.7
 30
0.0
 11
466.403381
 21
432.7
 31
0.0
  0
LINE
  5
319
100
AcDbEntity
  8
LAY-6
  6
CONTINUOUS
 62
     1
100
AcDbLine
 10
349.403381
 20
433.2
 30
0.0
 11
346.403381
 21
432.7
 31
0.0
  0
LINE
  5
31A
100
AcDbEntity
  8
LAY-6
  6
CONTINUOUS
 62
     1
100
AcDbLine
 10
346.403381
 20
432.7
 30
0.0
 11
349.403381
 21
432.2
 31
0.0
  0
LINE
  5
31B
100
AcDbEntity
  8
LAY-6
  6
CONTINUOUS
 62
     1
100
AcDbLine
 10
463.403381
 20
432.2
 30
0.0
 11
466.403381
 21
432.7
 31
0.0
  0
LINE
  5
31C
100
AcDbEntity
  8
LAY-6
  6
CONTINUOUS
 62
     1
100
AcDbLine
 10
466.403381
 20
432.7
 30
0.0
 11
463.403381
 21
433.2
 31
0.0
  0
TEXT
  5
31D
100
AcDbEntity
  8
LAY-6
  6
CONTINUOUS
 62
     2
100
AcDbText
 10
155.403397
 20
204.2
 30
0.0
 40
5.0
  1
６０
 41
0.672
  7
EXCADSTD
 72
     5
 11
162.736197
 21
204.2
 31
0.0
100
AcDbText
  0
LINE
  5
31E
100
AcDbEntity
  8
LAY-6
  6
CONTINUOUS
 62
     1
100
AcDbLine
 10
129.403381
 20
203.7
 30
0.0
 11
189.403412
 21
203.7
 31
0.0
  0
LINE
  5
31F
100
AcDbEntity
  8
LAY-6
  6
CONTINUOUS
 62
     1
100
AcDbLine
 10
132.403381
 20
204.2
 30
0.0
 11
129.403381
 21
203.7
 31
0.0
  0
LINE
  5
320
100
AcDbEntity
  8
LAY-6
  6
CONTINUOUS
 62
     1
100
AcDbLine
 10
129.403381
 20
203.7
 30
0.0
 11
132.403381
 21
203.2
 31
0.0
  0
LINE
  5
321
100
AcDbEntity
  8
LAY-6
  6
CONTINUOUS
 62
     1
100
AcDbLine
 10
186.403412
 20
203.2
 30
0.0
 11
189.403412
 21
203.7
 31
0.0
  0
LINE
  5
322
100
AcDbEntity
  8
LAY-6
  6
CONTINUOUS
 62
     1
100
AcDbLine
 10
189.403412
 20
203.7
 30
0.0
 11
186.403412
 21
204.2
 31
0.0
  0
TEXT
  5
323
100
AcDbEntity
  8
LAY-6
  6
CONTINUOUS
 62
     2
100
AcDbText
 10
372.403381
 20
374.4
 30
0.0
 40
5.0
  1
６０
 41
0.672
  7
EXCADSTD
 72
     5
 11
379.736181
 21
374.4
 31
0.0
100
AcDbText
  0
LINE
  5
324
100
AcDbEntity
  8
LAY-6
  6
CONTINUOUS
 62
     1
100
AcDbLine
 10
346.403381
 20
373.9
 30
0.0
 11
406.403381
 21
373.9
 31
0.0
  0
LINE
  5
325
100
AcDbEntity
  8
LAY-6
  6
CONTINUOUS
 62
     1
100
AcDbLine
 10
349.403381
 20
374.4
 30
0.0
 11
346.403381
 21
373.9
 31
0.0
  0
LINE
  5
326
100
AcDbEntity
  8
LAY-6
  6
CONTINUOUS
 62
     1
100
AcDbLine
 10
346.403381
 20
373.9
 30
0.0
 11
349.403381
 21
373.4
 31
0.0
  0
LINE
  5
327
100
AcDbEntity
  8
LAY-6
  6
CONTINUOUS
 62
     1
100
AcDbLine
 10
403.403381
 20
373.4
 30
0.0
 11
406.403381
 21
373.9
 31
0.0
  0
LINE
  5
328
100
AcDbEntity
  8
LAY-6
  6
CONTINUOUS
 62
     1
100
AcDbLine
 10
406.403381
 20
373.9
 30
0.0
 11
403.403381
 21
374.4
 31
0.0
  0
LINE
  5
329
100
AcDbEntity
  8
LAY-6
  6
CONTINUOUS
 62
     1
100
AcDbLine
 10
649.977295
 20
401.75061
 30
0.0
 11
649.977295
 21
415.5
 31
0.0
  0
LINE
  5
32A
100
AcDbEntity
  8
LAY-6
  6
CONTINUOUS
 62
     1
100
AcDbLine
 10
671.977295
 20
407.215247
 30
0.0
 11
671.977295
 21
415.5
 31
0.0
  0
TEXT
  5
32B
100
AcDbEntity
  8
LAY-6
  6
CONTINUOUS
 62
     2
100
AcDbText
 10
656.977295
 20
414.5
 30
0.0
 40
5.0
  1
２２
 41
0.672
  7
EXCADSTD
 72
     5
 11
664.310095
 21
414.5
 31
0.0
100
AcDbText
  0
LINE
  5
32C
100
AcDbEntity
  8
LAY-6
  6
CONTINUOUS
 62
     1
100
AcDbLine
 10
649.977295
 20
414.0
 30
0.0
 11
671.977295
 21
414.0
 31
0.0
  0
LINE
  5
32D
100
AcDbEntity
  8
LAY-6
  6
CONTINUOUS
 62
     1
100
AcDbLine
 10
652.977295
 20
414.5
 30
0.0
 11
649.977295
 21
414.0
 31
0.0
  0
LINE
  5
32E
100
AcDbEntity
  8
LAY-6
  6
CONTINUOUS
 62
     1
100
AcDbLine
 10
649.977295
 20
414.0
 30
0.0
 11
652.977295
 21
413.5
 31
0.0
  0
LINE
  5
32F
100
AcDbEntity
  8
LAY-6
  6
CONTINUOUS
 62
     1
100
AcDbLine
 10
668.977295
 20
413.5
 30
0.0
 11
671.977295
 21
414.0
 31
0.0
  0
LINE
  5
330
100
AcDbEntity
  8
LAY-6
  6
CONTINUOUS
 62
     1
100
AcDbLine
 10
671.977295
 20
414.0
 30
0.0
 11
668.977295
 21
414.5
 31
0.0
  0
LINE
  5
331
100
AcDbEntity
  8
LAY-6
  6
CONTINUOUS
 62
     1
100
AcDbLine
 10
714.977356
 20
397.315186
 30
0.0
 11
714.977356
 21
415.5
 31
0.0
  0
TEXT
  5
332
100
AcDbEntity
  8
LAY-6
  6
CONTINUOUS
 62
     2
100
AcDbText
 10
689.477326
 20
414.5
 30
0.0
 40
5.0
  1
４３
 41
0.672
  7
EXCADSTD
 72
     5
 11
696.810126
 21
414.5
 31
0.0
100
AcDbText
  0
LINE
  5
333
100
AcDbEntity
  8
LAY-6
  6
CONTINUOUS
 62
     1
100
AcDbLine
 10
671.977295
 20
414.0
 30
0.0
 11
714.977356
 21
414.0
 31
0.0
  0
LINE
  5
334
100
AcDbEntity
  8
LAY-6
  6
CONTINUOUS
 62
     1
100
AcDbLine
 10
674.977295
 20
414.5
 30
0.0
 11
671.977295
 21
414.0
 31
0.0
  0
LINE
  5
335
100
AcDbEntity
  8
LAY-6
  6
CONTINUOUS
 62
     1
100
AcDbLine
 10
671.977295
 20
414.0
 30
0.0
 11
674.977295
 21
413.5
 31
0.0
  0
LINE
  5
336
100
AcDbEntity
  8
LAY-6
  6
CONTINUOUS
 62
     1
100
AcDbLine
 10
711.977356
 20
413.5
 30
0.0
 11
714.977356
 21
414.0
 31
0.0
  0
LINE
  5
337
100
AcDbEntity
  8
LAY-6
  6
CONTINUOUS
 62
     1
100
AcDbLine
 10
714.977356
 20
414.0
 30
0.0
 11
711.977356
 21
414.5
 31
0.0
  0
TEXT
  5
338
100
AcDbEntity
  8
LAY-6
  6
CONTINUOUS
 62
     2
100
AcDbText
 10
658.477509
 20
348.9
 30
0.0
 40
5.0
  1
２５
 41
0.672
  7
EXCADSTD
 72
     5
 11
665.810309
 21
348.9
 31
0.0
100
AcDbText
  0
LINE
  5
339
100
AcDbEntity
  8
LAY-6
  6
CONTINUOUS
 62
     1
100
AcDbLine
 10
649.977295
 20
361.479919
 30
0.0
 11
649.977295
 21
346.9
 31
0.0
  0
LINE
  5
33A
100
AcDbEntity
  8
LAY-6
  6
CONTINUOUS
 62
     1
100
AcDbLine
 10
649.977295
 20
348.4
 30
0.0
 11
674.977722
 21
348.4
 31
0.0
  0
LINE
  5
33B
100
AcDbEntity
  8
LAY-6
  6
CONTINUOUS
 62
     1
100
AcDbLine
 10
652.977295
 20
348.9
 30
0.0
 11
649.977295
 21
348.4
 31
0.0
  0
LINE
  5
33C
100
AcDbEntity
  8
LAY-6
  6
CONTINUOUS
 62
     1
100
AcDbLine
 10
649.977295
 20
348.4
 30
0.0
 11
652.977295
 21
347.9
 31
0.0
  0
LINE
  5
33D
100
AcDbEntity
  8
LAY-6
  6
CONTINUOUS
 62
     1
100
AcDbLine
 10
671.977722
 20
347.9
 30
0.0
 11
674.977722
 21
348.4
 31
0.0
  0
LINE
  5
33E
100
AcDbEntity
  8
LAY-6
  6
CONTINUOUS
 62
     1
100
AcDbLine
 10
674.977722
 20
348.4
 30
0.0
 11
671.977722
 21
348.9
 31
0.0
  0
LINE
  5
33F
100
AcDbEntity
  8
LAY-6
  6
CONTINUOUS
 62
     1
100
AcDbLine
 10
630.977295
 20
365.815186
 30
0.0
 11
617.9
 21
365.815186
 31
0.0
  0
LINE
  5
340
100
AcDbEntity
  8
LAY-6
  6
CONTINUOUS
 62
     1
100
AcDbLine
 10
629.977295
 20
380.815186
 30
0.0
 11
617.9
 21
380.815186
 31
0.0
  0
TEXT
  5
341
100
AcDbEntity
  8
LAY-6
  6
CONTINUOUS
 62
     2
100
AcDbText
 10
618.9
 20
369.315186
 30
0.0
 40
5.0
  1
１５
 50
90.0
 41
0.672
  7
EXCADSTD
 72
     5
 11
618.9
 21
376.647986
 31
0.0
100
AcDbText
  0
LINE
  5
342
100
AcDbEntity
  8
LAY-6
  6
CONTINUOUS
 62
     1
100
AcDbLine
 10
619.4
 20
365.815186
 30
0.0
 11
619.4
 21
380.815186
 31
0.0
  0
LINE
  5
343
100
AcDbEntity
  8
LAY-6
  6
CONTINUOUS
 62
     1
100
AcDbLine
 10
618.9
 20
368.815186
 30
0.0
 11
619.4
 21
365.815186
 31
0.0
  0
LINE
  5
344
100
AcDbEntity
  8
LAY-6
  6
CONTINUOUS
 62
     1
100
AcDbLine
 10
619.4
 20
365.815186
 30
0.0
 11
619.9
 21
368.815186
 31
0.0
  0
LINE
  5
345
100
AcDbEntity
  8
LAY-6
  6
CONTINUOUS
 62
     1
100
AcDbLine
 10
619.9
 20
377.815186
 30
0.0
 11
619.4
 21
380.815186
 31
0.0
  0
LINE
  5
346
100
AcDbEntity
  8
LAY-6
  6
CONTINUOUS
 62
     1
100
AcDbLine
 10
619.4
 20
380.815186
 30
0.0
 11
618.9
 21
377.815186
 31
0.0
  0
LINE
  5
347
100
AcDbEntity
  8
LAY-6
  6
CONTINUOUS
 62
     1
100
AcDbLine
 10
630.977295
 20
383.815247
 30
0.0
 11
617.9
 21
383.815247
 31
0.0
  0
TEXT
  5
348
100
AcDbEntity
  8
LAY-6
  6
CONTINUOUS
 62
     2
100
AcDbText
 10
612.1
 20
368.715217
 30
0.0
 40
5.0
  1
２．５～４．５
 50
90.0
 41
0.672
  7
EXCADSTD
 72
     5
 11
612.1
 21
396.715217
 31
0.0
100
AcDbText
  0
LINE
  5
349
100
AcDbEntity
  8
LAY-6
  6
CONTINUOUS
 62
     1
100
AcDbLine
 10
629.977295
 20
398.815247
 30
0.0
 11
617.9
 21
398.815247
 31
0.0
  0
TEXT
  5
34A
100
AcDbEntity
  8
LAY-6
  6
CONTINUOUS
 62
     2
100
AcDbText
 10
618.9
 20
387.315247
 30
0.0
 40
5.0
  1
１５
 50
90.0
 41
0.672
  7
EXCADSTD
 72
     5
 11
618.9
 21
394.648047
 31
0.0
100
AcDbText
  0
LINE
  5
34B
100
AcDbEntity
  8
LAY-6
  6
CONTINUOUS
 62
     1
100
AcDbLine
 10
619.4
 20
383.815247
 30
0.0
 11
619.4
 21
398.815247
 31
0.0
  0
LINE
  5
34C
100
AcDbEntity
  8
LAY-6
  6
CONTINUOUS
 62
     1
100
AcDbLine
 10
618.9
 20
386.815247
 30
0.0
 11
619.4
 21
383.815247
 31
0.0
  0
LINE
  5
34D
100
AcDbEntity
  8
LAY-6
  6
CONTINUOUS
 62
     1
100
AcDbLine
 10
619.4
 20
383.815247
 30
0.0
 11
619.9
 21
386.815247
 31
0.0
  0
LINE
  5
34E
100
AcDbEntity
  8
LAY-6
  6
CONTINUOUS
 62
     1
100
AcDbLine
 10
619.9
 20
395.815247
 30
0.0
 11
619.4
 21
398.815247
 31
0.0
  0
LINE
  5
34F
100
AcDbEntity
  8
LAY-6
  6
CONTINUOUS
 62
     1
100
AcDbLine
 10
619.4
 20
398.815247
 30
0.0
 11
618.9
 21
395.815247
 31
0.0
  0
TEXT
  5
350
100
AcDbEntity
  8
LAY-6
  6
CONTINUOUS
 62
     2
100
AcDbText
 10
665.2
 20
374.815217
 30
0.0
 40
5.0
  1
８
 50
90.0
 41
0.672
  7
EXCADSTD
 72
     5
 11
665.2
 21
378.015217
 31
0.0
100
AcDbText
  0
LINE
  5
351
100
AcDbEntity
  8
LAY-6
  6
CONTINUOUS
 62
     1
100
AcDbLine
 10
674.977325
 20
372.815186
 30
0.0
 11
664.2
 21
372.815186
 31
0.0
  0
LINE
  5
352
100
AcDbEntity
  8
LAY-6
  6
CONTINUOUS
 62
     1
100
AcDbLine
 10
665.7
 20
372.815186
 30
0.0
 11
665.7
 21
380.815247
 31
0.0
  0
LINE
  5
353
100
AcDbEntity
  8
LAY-6
  6
CONTINUOUS
 62
     1
100
AcDbLine
 10
665.2
 20
375.815186
 30
0.0
 11
665.7
 21
372.815186
 31
0.0
  0
LINE
  5
354
100
AcDbEntity
  8
LAY-6
  6
CONTINUOUS
 62
     1
100
AcDbLine
 10
665.7
 20
372.815186
 30
0.0
 11
666.2
 21
375.815186
 31
0.0
  0
LINE
  5
355
100
AcDbEntity
  8
LAY-6
  6
CONTINUOUS
 62
     1
100
AcDbLine
 10
666.2
 20
377.815247
 30
0.0
 11
665.7
 21
380.815247
 31
0.0
  0
LINE
  5
356
100
AcDbEntity
  8
LAY-6
  6
CONTINUOUS
 62
     1
100
AcDbLine
 10
665.7
 20
380.815247
 30
0.0
 11
665.2
 21
377.815247
 31
0.0
  0
LINE
  5
357
100
AcDbEntity
  8
LAY-6
  6
CONTINUOUS
 62
     1
100
AcDbLine
 10
716.977295
 20
383.815247
 30
0.0
 11
728.2
 21
383.815247
 31
0.0
  0
LINE
  5
358
100
AcDbEntity
  8
LAY-6
  6
CONTINUOUS
 62
     1
100
AcDbLine
 10
716.977295
 20
389.815186
 30
0.0
 11
728.2
 21
389.815186
 31
0.0
  0
TEXT
  5
359
100
AcDbEntity
  8
LAY-6
  6
CONTINUOUS
 62
     2
100
AcDbText
 10
726.6
 20
353.515216
 30
0.0
 40
5.0
  1
５．５～７．５
 50
90.0
 41
0.672
  7
EXCADSTD
 72
     5
 11
726.6
 21
381.515216
 31
0.0
100
AcDbText
  0
LINE
  5
35A
100
AcDbEntity
  8
LAY-6
  6
CONTINUOUS
 62
     1
100
AcDbLine
 10
726.7
 20
378.815247
 30
0.0
 11
726.7
 21
383.815247
 31
0.0
  0
LINE
  5
35B
100
AcDbEntity
  8
LAY-6
  6
CONTINUOUS
 62
     1
100
AcDbLine
 10
726.7
 20
389.815186
 30
0.0
 11
726.7
 21
394.815186
 31
0.0
  0
LINE
  5
35C
100
AcDbEntity
  8
LAY-6
  6
CONTINUOUS
 62
     1
100
AcDbLine
 10
727.2
 20
380.815247
 30
0.0
 11
726.7
 21
383.815247
 31
0.0
  0
LINE
  5
35D
100
AcDbEntity
  8
LAY-6
  6
CONTINUOUS
 62
     1
100
AcDbLine
 10
726.7
 20
383.815247
 30
0.0
 11
726.2
 21
380.815247
 31
0.0
  0
LINE
  5
35E
100
AcDbEntity
  8
LAY-6
  6
CONTINUOUS
 62
     1
100
AcDbLine
 10
726.2
 20
392.815186
 30
0.0
 11
726.7
 21
389.815186
 31
0.0
  0
LINE
  5
35F
100
AcDbEntity
  8
LAY-6
  6
CONTINUOUS
 62
     1
100
AcDbLine
 10
726.7
 20
389.815186
 30
0.0
 11
727.2
 21
392.815186
 31
0.0
  0
LINE
  5
360
100
AcDbEntity
  8
LAY-6
  6
CONTINUOUS
 62
     1
100
AcDbLine
 10
713.477356
 20
398.815186
 30
0.0
 11
728.2
 21
398.815186
 31
0.0
  0
TEXT
  5
361
100
AcDbEntity
  8
LAY-6
  6
CONTINUOUS
 62
     2
100
AcDbText
 10
726.2
 20
392.315186
 30
0.0
 40
5.0
  1
９
 50
90.0
 41
0.672
  7
EXCADSTD
 72
     5
 11
726.2
 21
395.515186
 31
0.0
100
AcDbText
  0
LINE
  5
362
100
AcDbEntity
  8
LAY-6
  6
CONTINUOUS
 62
     1
100
AcDbLine
 10
726.7
 20
389.815186
 30
0.0
 11
726.7
 21
398.815186
 31
0.0
  0
LINE
  5
363
100
AcDbEntity
  8
LAY-6
  6
CONTINUOUS
 62
     1
100
AcDbLine
 10
726.2
 20
392.815186
 30
0.0
 11
726.7
 21
389.815186
 31
0.0
  0
LINE
  5
364
100
AcDbEntity
  8
LAY-6
  6
CONTINUOUS
 62
     1
100
AcDbLine
 10
726.7
 20
389.815186
 30
0.0
 11
727.2
 21
392.815186
 31
0.0
  0
LINE
  5
365
100
AcDbEntity
  8
LAY-6
  6
CONTINUOUS
 62
     1
100
AcDbLine
 10
727.2
 20
395.815186
 30
0.0
 11
726.7
 21
398.815186
 31
0.0
  0
LINE
  5
366
100
AcDbEntity
  8
LAY-6
  6
CONTINUOUS
 62
     1
100
AcDbLine
 10
726.7
 20
398.815186
 30
0.0
 11
726.2
 21
395.815186
 31
0.0
  0
LINE
  5
367
100
AcDbEntity
  8
LAY-6
  6
CONTINUOUS
 62
     1
100
AcDbLine
 10
629.977325
 20
182.965515
 30
0.0
 11
618.4
 21
182.965515
 31
0.0
  0
LINE
  5
368
100
AcDbEntity
  8
LAY-6
  6
CONTINUOUS
 62
     1
100
AcDbLine
 10
630.977325
 20
197.965515
 30
0.0
 11
618.4
 21
197.965515
 31
0.0
  0
TEXT
  5
369
100
AcDbEntity
  8
LAY-6
  6
CONTINUOUS
 62
     2
100
AcDbText
 10
619.4
 20
186.465515
 30
0.0
 40
5.0
  1
１５
 50
90.0
 41
0.672
  7
EXCADSTD
 72
     5
 11
619.4
 21
193.798315
 31
0.0
100
AcDbText
  0
LINE
  5
36A
100
AcDbEntity
  8
LAY-6
  6
CONTINUOUS
 62
     1
100
AcDbLine
 10
619.9
 20
182.965515
 30
0.0
 11
619.9
 21
197.965515
 31
0.0
  0
LINE
  5
36B
100
AcDbEntity
  8
LAY-6
  6
CONTINUOUS
 62
     1
100
AcDbLine
 10
619.4
 20
185.965515
 30
0.0
 11
619.9
 21
182.965515
 31
0.0
  0
LINE
  5
36C
100
AcDbEntity
  8
LAY-6
  6
CONTINUOUS
 62
     1
100
AcDbLine
 10
619.9
 20
182.965515
 30
0.0
 11
620.4
 21
185.965515
 31
0.0
  0
LINE
  5
36D
100
AcDbEntity
  8
LAY-6
  6
CONTINUOUS
 62
     1
100
AcDbLine
 10
620.4
 20
194.965515
 30
0.0
 11
619.9
 21
197.965515
 31
0.0
  0
LINE
  5
36E
100
AcDbEntity
  8
LAY-6
  6
CONTINUOUS
 62
     1
100
AcDbLine
 10
619.9
 20
197.965515
 30
0.0
 11
619.4
 21
194.965515
 31
0.0
  0
LINE
  5
36F
100
AcDbEntity
  8
LAY-6
  6
CONTINUOUS
 62
     1
100
AcDbLine
 10
629.977356
 20
205.965515
 30
0.0
 11
618.4
 21
205.965515
 31
0.0
  0
TEXT
  5
370
100
AcDbEntity
  8
LAY-6
  6
CONTINUOUS
 62
     2
100
AcDbText
 10
619.4
 20
199.965515
 30
0.0
 40
5.0
  1
８
 50
90.0
 41
0.672
  7
EXCADSTD
 72
     5
 11
619.4
 21
203.165515
 31
0.0
100
AcDbText
  0
LINE
  5
371
100
AcDbEntity
  8
LAY-6
  6
CONTINUOUS
 62
     1
100
AcDbLine
 10
619.9
 20
197.965515
 30
0.0
 11
619.9
 21
205.965515
 31
0.0
  0
LINE
  5
372
100
AcDbEntity
  8
LAY-6
  6
CONTINUOUS
 62
     1
100
AcDbLine
 10
619.4
 20
200.965515
 30
0.0
 11
619.9
 21
197.965515
 31
0.0
  0
LINE
  5
373
100
AcDbEntity
  8
LAY-6
  6
CONTINUOUS
 62
     1
100
AcDbLine
 10
619.9
 20
197.965515
 30
0.0
 11
620.4
 21
200.965515
 31
0.0
  0
LINE
  5
374
100
AcDbEntity
  8
LAY-6
  6
CONTINUOUS
 62
     1
100
AcDbLine
 10
620.4
 20
202.965515
 30
0.0
 11
619.9
 21
205.965515
 31
0.0
  0
LINE
  5
375
100
AcDbEntity
  8
LAY-6
  6
CONTINUOUS
 62
     1
100
AcDbLine
 10
619.9
 20
205.965515
 30
0.0
 11
619.4
 21
202.965515
 31
0.0
  0
LINE
  5
376
100
AcDbEntity
  8
LAY-6
  6
CONTINUOUS
 62
     1
100
AcDbLine
 10
630.977356
 20
220.965515
 30
0.0
 11
618.4
 21
220.965515
 31
0.0
  0
TEXT
  5
377
100
AcDbEntity
  8
LAY-6
  6
CONTINUOUS
 62
     2
100
AcDbText
 10
619.4
 20
209.465515
 30
0.0
 40
5.0
  1
１５
 50
90.0
 41
0.672
  7
EXCADSTD
 72
     5
 11
619.4
 21
216.798315
 31
0.0
100
AcDbText
  0
LINE
  5
378
100
AcDbEntity
  8
LAY-6
  6
CONTINUOUS
 62
     1
100
AcDbLine
 10
619.9
 20
205.965515
 30
0.0
 11
619.9
 21
220.965515
 31
0.0
  0
LINE
  5
379
100
AcDbEntity
  8
LAY-6
  6
CONTINUOUS
 62
     1
100
AcDbLine
 10
619.4
 20
208.965515
 30
0.0
 11
619.9
 21
205.965515
 31
0.0
  0
LINE
  5
37A
100
AcDbEntity
  8
LAY-6
  6
CONTINUOUS
 62
     1
100
AcDbLine
 10
619.9
 20
205.965515
 30
0.0
 11
620.4
 21
208.965515
 31
0.0
  0
LINE
  5
37B
100
AcDbEntity
  8
LAY-6
  6
CONTINUOUS
 62
     1
100
AcDbLine
 10
620.4
 20
217.965515
 30
0.0
 11
619.9
 21
220.965515
 31
0.0
  0
LINE
  5
37C
100
AcDbEntity
  8
LAY-6
  6
CONTINUOUS
 62
     1
100
AcDbLine
 10
619.9
 20
220.965515
 30
0.0
 11
619.4
 21
217.965515
 31
0.0
  0
LINE
  5
37D
100
AcDbEntity
  8
LAY-6
  6
CONTINUOUS
 62
     1
100
AcDbLine
 10
713.477386
 20
182.965576
 30
0.0
 11
727.1
 21
182.965576
 31
0.0
  0
LINE
  5
37E
100
AcDbEntity
  8
LAY-6
  6
CONTINUOUS
 62
     1
100
AcDbLine
 10
713.477386
 20
191.965576
 30
0.0
 11
727.1
 21
191.965576
 31
0.0
  0
TEXT
  5
37F
100
AcDbEntity
  8
LAY-6
  6
CONTINUOUS
 62
     2
100
AcDbText
 10
725.1
 20
185.465576
 30
0.0
 40
5.0
  1
９
 50
90.0
 41
0.672
  7
EXCADSTD
 72
     5
 11
725.1
 21
188.665576
 31
0.0
100
AcDbText
  0
LINE
  5
380
100
AcDbEntity
  8
LAY-6
  6
CONTINUOUS
 62
     1
100
AcDbLine
 10
725.6
 20
182.965576
 30
0.0
 11
725.6
 21
191.965576
 31
0.0
  0
LINE
  5
381
100
AcDbEntity
  8
LAY-6
  6
CONTINUOUS
 62
     1
100
AcDbLine
 10
725.1
 20
185.965576
 30
0.0
 11
725.6
 21
182.965576
 31
0.0
  0
LINE
  5
382
100
AcDbEntity
  8
LAY-6
  6
CONTINUOUS
 62
     1
100
AcDbLine
 10
725.6
 20
182.965576
 30
0.0
 11
726.1
 21
185.965576
 31
0.0
  0
LINE
  5
383
100
AcDbEntity
  8
LAY-6
  6
CONTINUOUS
 62
     1
100
AcDbLine
 10
726.1
 20
188.965576
 30
0.0
 11
725.6
 21
191.965576
 31
0.0
  0
LINE
  5
384
100
AcDbEntity
  8
LAY-6
  6
CONTINUOUS
 62
     1
100
AcDbLine
 10
725.6
 20
191.965576
 30
0.0
 11
725.1
 21
188.965576
 31
0.0
  0
LINE
  5
385
100
AcDbEntity
  8
LAY-6
  6
CONTINUOUS
 62
     1
100
AcDbLine
 10
717.028503
 20
199.965485
 30
0.0
 11
739.5
 21
199.965485
 31
0.0
  0
LINE
  5
386
100
AcDbEntity
  8
LAY-6
  6
CONTINUOUS
 62
     1
100
AcDbLine
 10
714.977325
 20
205.965515
 30
0.0
 11
739.5
 21
205.965515
 31
0.0
  0
TEXT
  5
387
100
AcDbEntity
  8
LAY-6
  6
CONTINUOUS
 62
     2
100
AcDbText
 10
737.5
 20
200.9655
 30
0.0
 40
5.0
  1
６
 50
90.0
 41
0.672
  7
EXCADSTD
 72
     5
 11
737.5
 21
204.1655
 31
0.0
100
AcDbText
  0
LINE
  5
388
100
AcDbEntity
  8
LAY-6
  6
CONTINUOUS
 62
     1
100
AcDbLine
 10
738.0
 20
194.965485
 30
0.0
 11
738.0
 21
199.965485
 31
0.0
  0
LINE
  5
389
100
AcDbEntity
  8
LAY-6
  6
CONTINUOUS
 62
     1
100
AcDbLine
 10
738.0
 20
205.965515
 30
0.0
 11
738.0
 21
210.965515
 31
0.0
  0
LINE
  5
38A
100
AcDbEntity
  8
LAY-6
  6
CONTINUOUS
 62
     1
100
AcDbLine
 10
738.5
 20
196.965485
 30
0.0
 11
738.0
 21
199.965485
 31
0.0
  0
LINE
  5
38B
100
AcDbEntity
  8
LAY-6
  6
CONTINUOUS
 62
     1
100
AcDbLine
 10
738.0
 20
199.965485
 30
0.0
 11
737.5
 21
196.965485
 31
0.0
  0
LINE
  5
38C
100
AcDbEntity
  8
LAY-6
  6
CONTINUOUS
 62
     1
100
AcDbLine
 10
737.5
 20
208.965515
 30
0.0
 11
738.0
 21
205.965515
 31
0.0
  0
LINE
  5
38D
100
AcDbEntity
  8
LAY-6
  6
CONTINUOUS
 62
     1
100
AcDbLine
 10
738.0
 20
205.965515
 30
0.0
 11
738.5
 21
208.965515
 31
0.0
  0
LINE
  5
38E
100
AcDbEntity
  8
LAY-6
  6
CONTINUOUS
 62
     1
100
AcDbLine
 10
713.377722
 20
380.815217
 30
0.0
 11
739.5
 21
380.815217
 31
0.0
  0
TEXT
  5
38F
100
AcDbEntity
  8
LAY-6
  6
CONTINUOUS
 62
     2
100
AcDbText
 10
737.5
 20
289.390366
 30
0.0
 40
5.0
  1
ＤＨ
 50
90.0
 41
0.672
  7
EXCADSTD
 72
     5
 11
737.5
 21
296.723166
 31
0.0
100
AcDbText
  0
LINE
  5
390
100
AcDbEntity
  8
LAY-6
  6
CONTINUOUS
 62
     1
100
AcDbLine
 10
738.0
 20
205.965515
 30
0.0
 11
738.0
 21
380.815217
 31
0.0
  0
LINE
  5
391
100
AcDbEntity
  8
LAY-6
  6
CONTINUOUS
 62
     1
100
AcDbLine
 10
737.5
 20
208.965515
 30
0.0
 11
738.0
 21
205.965515
 31
0.0
  0
LINE
  5
392
100
AcDbEntity
  8
LAY-6
  6
CONTINUOUS
 62
     1
100
AcDbLine
 10
738.0
 20
205.965515
 30
0.0
 11
738.5
 21
208.965515
 31
0.0
  0
LINE
  5
393
100
AcDbEntity
  8
LAY-6
  6
CONTINUOUS
 62
     1
100
AcDbLine
 10
738.5
 20
377.815217
 30
0.0
 11
738.0
 21
380.815217
 31
0.0
  0
LINE
  5
394
100
AcDbEntity
  8
LAY-6
  6
CONTINUOUS
 62
     1
100
AcDbLine
 10
738.0
 20
380.815217
 30
0.0
 11
737.5
 21
377.815217
 31
0.0
  0
LINE
  5
395
100
AcDbEntity
  8
LAY-6
  6
CONTINUOUS
 62
     1
100
AcDbLine
 10
716.977295
 20
383.815247
 30
0.0
 11
739.5
 21
383.815247
 31
0.0
  0
TEXT
  5
396
100
AcDbEntity
  8
LAY-6
  6
CONTINUOUS
 62
     2
100
AcDbText
 10
737.5
 20
380.315232
 30
0.0
 40
5.0
  1
３
 50
90.0
 41
0.672
  7
EXCADSTD
 72
     5
 11
737.5
 21
383.515232
 31
0.0
100
AcDbText
  0
LINE
  5
397
100
AcDbEntity
  8
LAY-6
  6
CONTINUOUS
 62
     1
100
AcDbLine
 10
738.0
 20
375.815217
 30
0.0
 11
738.0
 21
380.815217
 31
0.0
  0
LINE
  5
398
100
AcDbEntity
  8
LAY-6
  6
CONTINUOUS
 62
     1
100
AcDbLine
 10
738.0
 20
383.815247
 30
0.0
 11
738.0
 21
388.815247
 31
0.0
  0
LINE
  5
399
100
AcDbEntity
  8
LAY-6
  6
CONTINUOUS
 62
     1
100
AcDbLine
 10
738.5
 20
377.815217
 30
0.0
 11
738.0
 21
380.815217
 31
0.0
  0
LINE
  5
39A
100
AcDbEntity
  8
LAY-6
  6
CONTINUOUS
 62
     1
100
AcDbLine
 10
738.0
 20
380.815217
 30
0.0
 11
737.5
 21
377.815217
 31
0.0
  0
LINE
  5
39B
100
AcDbEntity
  8
LAY-6
  6
CONTINUOUS
 62
     1
100
AcDbLine
 10
737.5
 20
386.815247
 30
0.0
 11
738.0
 21
383.815247
 31
0.0
  0
LINE
  5
39C
100
AcDbEntity
  8
LAY-6
  6
CONTINUOUS
 62
     1
100
AcDbLine
 10
738.0
 20
383.815247
 30
0.0
 11
738.5
 21
386.815247
 31
0.0
  0
TEXT
  5
39D
100
AcDbEntity
  8
LAY-6
  6
CONTINUOUS
 62
     2
100
AcDbText
 10
659.0
 20
192.965531
 30
0.0
 40
5.0
  1
６
 50
90.0
 41
0.672
  7
EXCADSTD
 72
     5
 11
659.0
 21
196.16553
 31
0.0
100
AcDbText
  0
LINE
  5
39E
100
AcDbEntity
  8
LAY-6
  6
CONTINUOUS
 62
     1
100
AcDbLine
 10
671.977356
 20
191.965546
 30
0.0
 11
658.0
 21
191.965546
 31
0.0
  0
LINE
  5
39F
100
AcDbEntity
  8
LAY-6
  6
CONTINUOUS
 62
     1
100
AcDbLine
 10
659.5
 20
202.965515
 30
0.0
 11
659.5
 21
197.965515
 31
0.0
  0
LINE
  5
3A0
100
AcDbEntity
  8
LAY-6
  6
CONTINUOUS
 62
     1
100
AcDbLine
 10
659.5
 20
191.965546
 30
0.0
 11
659.5
 21
186.965546
 31
0.0
  0
CIRCLE
  5
3A1
100
AcDbEntity
  8
LAY-6
  6
CONTINUOUS
 62
     1
100
AcDbCircle
 10
659.5
 20
197.965515
 30
0.0
 40
0.5
  0
CIRCLE
  5
3A2
100
AcDbEntity
  8
LAY-6
  6
CONTINUOUS
 62
     1
100
AcDbCircle
 10
659.5
 20
197.965515
 30
0.0
 40
0.25
  0
LINE
  5
3A3
100
AcDbEntity
  8
LAY-6
  6
CONTINUOUS
 62
     1
100
AcDbLine
 10
660.0
 20
188.965546
 30
0.0
 11
659.5
 21
191.965546
 31
0.0
  0
LINE
  5
3A4
100
AcDbEntity
  8
LAY-6
  6
CONTINUOUS
 62
     1
100
AcDbLine
 10
659.5
 20
191.965546
 30
0.0
 11
659.0
 21
188.965546
 31
0.0
  0
TEXT
  5
3A5
100
AcDbEntity
  8
LAY-6
  6
CONTINUOUS
 62
     2
100
AcDbText
 10
659.0
 20
201.9655
 30
0.0
 40
5.0
  1
２
 50
90.0
 41
0.672
  7
EXCADSTD
 72
     5
 11
659.0
 21
205.1655
 31
0.0
100
AcDbText
  0
LINE
  5
3A6
100
AcDbEntity
  8
LAY-6
  6
CONTINUOUS
 62
     1
100
AcDbLine
 10
673.476898
 20
199.965485
 30
0.0
 11
658.0
 21
199.965485
 31
0.0
  0
LINE
  5
3A7
100
AcDbEntity
  8
LAY-6
  6
CONTINUOUS
 62
     1
100
AcDbLine
 10
659.5
 20
192.965515
 30
0.0
 11
659.5
 21
197.965515
 31
0.0
  0
LINE
  5
3A8
100
AcDbEntity
  8
LAY-6
  6
CONTINUOUS
 62
     1
100
AcDbLine
 10
659.5
 20
199.965485
 30
0.0
 11
659.5
 21
204.965485
 31
0.0
  0
CIRCLE
  5
3A9
100
AcDbEntity
  8
LAY-6
  6
CONTINUOUS
 62
     1
100
AcDbCircle
 10
659.5
 20
197.965515
 30
0.0
 40
0.5
  0
CIRCLE
  5
3AA
100
AcDbEntity
  8
LAY-6
  6
CONTINUOUS
 62
     1
100
AcDbCircle
 10
659.5
 20
197.965515
 30
0.0
 40
0.25
  0
LINE
  5
3AB
100
AcDbEntity
  8
LAY-6
  6
CONTINUOUS
 62
     1
100
AcDbLine
 10
659.0
 20
202.965485
 30
0.0
 11
659.5
 21
199.965485
 31
0.0
  0
LINE
  5
3AC
100
AcDbEntity
  8
LAY-6
  6
CONTINUOUS
 62
     1
100
AcDbLine
 10
659.5
 20
199.965485
 30
0.0
 11
660.0
 21
202.965485
 31
0.0
  0
TEXT
  5
3AD
100
AcDbEntity
  8
LAY-6
  6
CONTINUOUS
 62
     2
100
AcDbText
 10
667.2
 20
207.965515
 30
0.0
 40
5.0
  1
１２
 50
90.0
 41
0.672
  7
EXCADSTD
 72
     5
 11
667.2
 21
215.298315
 31
0.0
100
AcDbText
  0
LINE
  5
3AE
100
AcDbEntity
  8
LAY-6
  6
CONTINUOUS
 62
     1
100
AcDbLine
 10
674.477356
 20
217.965515
 30
0.0
 11
666.2
 21
217.965515
 31
0.0
  0
LINE
  5
3AF
100
AcDbEntity
  8
LAY-6
  6
CONTINUOUS
 62
     1
100
AcDbLine
 10
667.7
 20
217.965515
 30
0.0
 11
667.7
 21
205.965515
 31
0.0
  0
LINE
  5
3B0
100
AcDbEntity
  8
LAY-6
  6
CONTINUOUS
 62
     1
100
AcDbLine
 10
668.2
 20
214.965515
 30
0.0
 11
667.7
 21
217.965515
 31
0.0
  0
LINE
  5
3B1
100
AcDbEntity
  8
LAY-6
  6
CONTINUOUS
 62
     1
100
AcDbLine
 10
667.7
 20
217.965515
 30
0.0
 11
667.2
 21
214.965515
 31
0.0
  0
LINE
  5
3B2
100
AcDbEntity
  8
LAY-6
  6
CONTINUOUS
 62
     1
100
AcDbLine
 10
667.2
 20
208.965515
 30
0.0
 11
667.7
 21
205.965515
 31
0.0
  0
LINE
  5
3B3
100
AcDbEntity
  8
LAY-6
  6
CONTINUOUS
 62
     1
100
AcDbLine
 10
667.7
 20
205.965515
 30
0.0
 11
668.2
 21
208.965515
 31
0.0
  0
TEXT
  5
3B4
100
AcDbEntity
  8
LAY-6
  6
CONTINUOUS
 62
     2
100
AcDbText
 10
658.47734
 20
238.0
 30
0.0
 40
5.0
  1
２５
 41
0.672
  7
EXCADSTD
 72
     5
 11
665.81014
 21
238.0
 31
0.0
100
AcDbText
  0
LINE
  5
3B5
100
AcDbEntity
  8
LAY-6
  6
CONTINUOUS
 62
     1
100
AcDbLine
 10
649.977356
 20
222.056885
 30
0.0
 11
649.977356
 21
239.0
 31
0.0
  0
LINE
  5
3B6
100
AcDbEntity
  8
LAY-6
  6
CONTINUOUS
 62
     1
100
AcDbLine
 10
649.977356
 20
237.5
 30
0.0
 11
674.977325
 21
237.5
 31
0.0
  0
LINE
  5
3B7
100
AcDbEntity
  8
LAY-6
  6
CONTINUOUS
 62
     1
100
AcDbLine
 10
652.977356
 20
238.0
 30
0.0
 11
649.977356
 21
237.5
 31
0.0
  0
LINE
  5
3B8
100
AcDbEntity
  8
LAY-6
  6
CONTINUOUS
 62
     1
100
AcDbLine
 10
649.977356
 20
237.5
 30
0.0
 11
652.977356
 21
237.0
 31
0.0
  0
LINE
  5
3B9
100
AcDbEntity
  8
LAY-6
  6
CONTINUOUS
 62
     1
100
AcDbLine
 10
671.977325
 20
237.0
 30
0.0
 11
674.977325
 21
237.5
 31
0.0
  0
LINE
  5
3BA
100
AcDbEntity
  8
LAY-6
  6
CONTINUOUS
 62
     1
100
AcDbLine
 10
674.977325
 20
237.5
 30
0.0
 11
671.977325
 21
238.0
 31
0.0
  0
CIRCLE
  5
3BB
100
AcDbEntity
  8
LAY-6
  6
CONTINUOUS
 62
     1
100
AcDbCircle
 10
614.043972
 20
412.956674
 30
0.0
 40
4.0
  0
POLYLINE
  5
3BC
100
AcDbEntity
  8
LAY-6
  6
CONTINUOUS
 62
     1
100
AcDb2dPolyline
 66
     1
 10
0.0
 20
0.0
 30
0.0
 70
   128
  0
VERTEX
  5
3BD
100
AcDbEntity
  8
LAY-6
  6
CONTINUOUS
 62
     1
100
AcDbVertex
100
AcDb2dVertex
 10
633.543972
 20
398.771921
 30
0.0
  0
VERTEX
  5
3BE
100
AcDbEntity
  8
LAY-6
  6
CONTINUOUS
 62
     1
100
AcDbVertex
100
AcDb2dVertex
 10
617.199962
 20
410.499088
 30
0.0
  0
SEQEND
  5
3BF
100
AcDbEntity
  8
LAY-6
  6
CONTINUOUS
 62
     1
  0
LINE
  5
3C0
100
AcDbEntity
  8
LAY-6
  6
CONTINUOUS
 62
     1
100
AcDbLine
 10
630.815018
 20
400.114609
 30
0.0
 11
633.543972
 21
398.771921
 31
0.0
  0
LINE
  5
3C1
100
AcDbEntity
  8
LAY-6
  6
CONTINUOUS
 62
     1
100
AcDbLine
 10
633.543972
 20
398.771921
 30
0.0
 11
631.397995
 21
400.927097
 31
0.0
  0
TEXT
  5
3C2
100
AcDbEntity
  8
LAY-6
  6
CONTINUOUS
 62
     2
100
AcDbText
 10
611.215545
 20
410.128247
 30
0.0
 40
5.656854
  1
１
 41
0.84
  7
EXCADSTD
 72
     5
 11
615.741028
 21
410.128247
 31
0.0
100
AcDbText
  0
CIRCLE
  5
3C3
100
AcDbEntity
  8
LAY-6
  6
CONTINUOUS
 62
     1
100
AcDbCircle
 10
619.4
 20
348.4
 30
0.0
 40
4.0
  0
POLYLINE
  5
3C4
100
AcDbEntity
  8
LAY-6
  6
CONTINUOUS
 62
     1
100
AcDb2dPolyline
 66
     1
 10
0.0
 20
0.0
 30
0.0
 70
   128
  0
VERTEX
  5
3C5
100
AcDbEntity
  8
LAY-6
  6
CONTINUOUS
 62
     1
100
AcDbVertex
100
AcDb2dVertex
 10
638.9
 20
365.815186
 30
0.0
  0
VERTEX
  5
3C6
100
AcDbEntity
  8
LAY-6
  6
CONTINUOUS
 62
     1
100
AcDbVertex
100
AcDb2dVertex
 10
622.383411
 20
351.064444
 30
0.0
  0
SEQEND
  5
3C7
100
AcDbEntity
  8
LAY-6
  6
CONTINUOUS
 62
     1
  0
LINE
  5
3C8
100
AcDbEntity
  8
LAY-6
  6
CONTINUOUS
 62
     1
100
AcDbLine
 10
636.995497
 20
363.443927
 30
0.0
 11
638.9
 21
365.815186
 31
0.0
  0
LINE
  5
3C9
100
AcDbEntity
  8
LAY-6
  6
CONTINUOUS
 62
     1
100
AcDbLine
 10
638.9
 20
365.815186
 30
0.0
 11
636.329386
 21
364.18978
 31
0.0
  0
TEXT
  5
3CA
100
AcDbEntity
  8
LAY-6
  6
CONTINUOUS
 62
     2
100
AcDbText
 10
616.571573
 20
345.571573
 30
0.0
 40
5.656854
  1
２
 41
0.84
  7
EXCADSTD
 72
     5
 11
621.097056
 21
345.571573
 31
0.0
100
AcDbText
  0
CIRCLE
  5
3CB
100
AcDbEntity
  8
LAY-6
  6
CONTINUOUS
 62
     1
100
AcDbCircle
 10
619.8
 20
237.5
 30
0.0
 40
4.0
  0
POLYLINE
  5
3CC
100
AcDbEntity
  8
LAY-6
  6
CONTINUOUS
 62
     1
100
AcDb2dPolyline
 66
     1
 10
0.0
 20
0.0
 30
0.0
 70
   128
  0
VERTEX
  5
3CD
100
AcDbEntity
  8
LAY-6
  6
CONTINUOUS
 62
     1
100
AcDbVertex
100
AcDb2dVertex
 10
638.1
 20
220.965515
 30
0.0
  0
VERTEX
  5
3CE
100
AcDbEntity
  8
LAY-6
  6
CONTINUOUS
 62
     1
100
AcDbVertex
100
AcDb2dVertex
 10
622.767971
 20
234.818368
 30
0.0
  0
SEQEND
  5
3CF
100
AcDbEntity
  8
LAY-6
  6
CONTINUOUS
 62
     1
  0
LINE
  5
3D0
100
AcDbEntity
  8
LAY-6
  6
CONTINUOUS
 62
     1
100
AcDbLine
 10
635.538818
 20
222.605743
 30
0.0
 11
638.1
 21
220.965515
 31
0.0
  0
LINE
  5
3D1
100
AcDbEntity
  8
LAY-6
  6
CONTINUOUS
 62
     1
100
AcDbLine
 10
638.1
 20
220.965515
 30
0.0
 11
636.209226
 21
223.347735
 31
0.0
  0
TEXT
  5
3D2
100
AcDbEntity
  8
LAY-6
  6
CONTINUOUS
 62
     2
100
AcDbText
 10
616.971573
 20
234.671573
 30
0.0
 40
5.656854
  1
３
 41
0.84
  7
EXCADSTD
 72
     5
 11
621.497056
 21
234.671573
 31
0.0
100
AcDbText
  0
CIRCLE
  5
3D3
100
AcDbEntity
  8
LAY-6
  6
CONTINUOUS
 62
     1
100
AcDbCircle
 10
619.8
 20
170.7
 30
0.0
 40
4.0
  0
POLYLINE
  5
3D4
100
AcDbEntity
  8
LAY-6
  6
CONTINUOUS
 62
     1
100
AcDb2dPolyline
 66
     1
 10
0.0
 20
0.0
 30
0.0
 70
   128
  0
VERTEX
  5
3D5
100
AcDbEntity
  8
LAY-6
  6
CONTINUOUS
 62
     1
100
AcDbVertex
100
AcDb2dVertex
 10
638.0
 20
182.965515
 30
0.0
  0
VERTEX
  5
3D6
100
AcDbEntity
  8
LAY-6
  6
CONTINUOUS
 62
     1
100
AcDbVertex
100
AcDb2dVertex
 10
623.117041
 20
172.935451
 30
0.0
  0
SEQEND
  5
3D7
100
AcDbEntity
  8
LAY-6
  6
CONTINUOUS
 62
     1
  0
LINE
  5
3D8
100
AcDbEntity
  8
LAY-6
  6
CONTINUOUS
 62
     1
100
AcDbLine
 10
635.791651
 20
180.874297
 30
0.0
 11
638.0
 21
182.965515
 31
0.0
  0
LINE
  5
3D9
100
AcDbEntity
  8
LAY-6
  6
CONTINUOUS
 62
     1
100
AcDbLine
 10
638.0
 20
182.965515
 30
0.0
 11
635.232788
 21
181.703557
 31
0.0
  0
TEXT
  5
3DA
100
AcDbEntity
  8
LAY-6
  6
CONTINUOUS
 62
     2
100
AcDbText
 10
616.971573
 20
167.871573
 30
0.0
 40
5.656854
  1
４
 41
0.84
  7
EXCADSTD
 72
     5
 11
621.497056
 21
167.871573
 31
0.0
100
AcDbText
  0
POLYLINE
  5
3DB
100
AcDbEntity
  8
LAY-6
  6
CONTINUOUS
 62
     1
100
AcDb2dPolyline
 66
     1
 10
0.0
 20
0.0
 30
0.0
 70
   128
  0
VERTEX
  5
3DC
100
AcDbEntity
  8
LAY-6
  6
CONTINUOUS
 62
     1
100
AcDbVertex
100
AcDb2dVertex
 10
687.977356
 20
226.065469
 30
0.0
  0
VERTEX
  5
3DD
100
AcDbEntity
  8
LAY-6
  6
CONTINUOUS
 62
     1
100
AcDbVertex
100
AcDb2dVertex
 10
680.2
 20
256.2
 30
0.0
  0
VERTEX
  5
3DE
100
AcDbEntity
  8
LAY-6
  6
CONTINUOUS
 62
     1
100
AcDbVertex
100
AcDb2dVertex
 10
620.5
 20
256.2
 30
0.0
  0
SEQEND
  5
3DF
100
AcDbEntity
  8
LAY-6
  6
CONTINUOUS
 62
     1
  0
LINE
  5
3E0
100
AcDbEntity
  8
LAY-6
  6
CONTINUOUS
 62
     1
100
AcDbLine
 10
686.743522
 20
228.845335
 30
0.0
 11
687.977356
 21
226.065469
 31
0.0
  0
LINE
  5
3E1
100
AcDbEntity
  8
LAY-6
  6
CONTINUOUS
 62
     1
100
AcDbLine
 10
687.977356
 20
226.065469
 30
0.0
 11
687.711794
 21
229.095235
 31
0.0
  0
TEXT
  5
3E2
100
AcDbEntity
  8
LAY-6
  6
CONTINUOUS
 62
     2
100
AcDbText
 10
620.5
 20
256.2
 30
0.0
 40
5.0
  1
４－Ｍ６×２０皿小ネジ
 41
0.672
  7
EXCADSTD
 72
     5
 11
664.5
 21
256.2
 31
0.0
100
AcDbText
  0
LINE
  5
3E3
100
AcDbEntity
  8
LAY-6
  6
CONTINUOUS
 62
     1
100
AcDbLine
 10
674.977325
 20
291.999939
 30
0.0
 11
674.977325
 21
277.2
 31
0.0
  0
LINE
  5
3E4
100
AcDbEntity
  8
LAY-6
  6
CONTINUOUS
 62
     1
100
AcDbLine
 10
714.977325
 20
291.999939
 30
0.0
 11
714.977325
 21
277.2
 31
0.0
  0
TEXT
  5
3E5
100
AcDbEntity
  8
LAY-6
  6
CONTINUOUS
 62
     2
100
AcDbText
 10
686.977325
 20
279.2
 30
0.0
 40
5.0
  1
４０以上
 41
0.672
  7
EXCADSTD
 72
     5
 11
702.977325
 21
279.2
 31
0.0
100
AcDbText
  0
LINE
  5
3E6
100
AcDbEntity
  8
LAY-6
  6
CONTINUOUS
 62
     1
100
AcDbLine
 10
674.977325
 20
278.7
 30
0.0
 11
714.977325
 21
278.7
 31
0.0
  0
LINE
  5
3E7
100
AcDbEntity
  8
LAY-6
  6
CONTINUOUS
 62
     1
100
AcDbLine
 10
677.977325
 20
279.2
 30
0.0
 11
674.977325
 21
278.7
 31
0.0
  0
LINE
  5
3E8
100
AcDbEntity
  8
LAY-6
  6
CONTINUOUS
 62
     1
100
AcDbLine
 10
674.977325
 20
278.7
 30
0.0
 11
677.977325
 21
278.2
 31
0.0
  0
LINE
  5
3E9
100
AcDbEntity
  8
LAY-6
  6
CONTINUOUS
 62
     1
100
AcDbLine
 10
711.977325
 20
278.2
 30
0.0
 11
714.977325
 21
278.7
 31
0.0
  0
LINE
  5
3EA
100
AcDbEntity
  8
LAY-6
  6
CONTINUOUS
 62
     1
100
AcDbLine
 10
714.977325
 20
278.7
 30
0.0
 11
711.977325
 21
279.2
 31
0.0
  0
POLYLINE
  5
3EB
100
AcDbEntity
  8
LAY-6
  6
CONTINUOUS
 62
     1
100
AcDb2dPolyline
 66
     1
 10
0.0
 20
0.0
 30
0.0
 70
   128
  0
VERTEX
  5
3EC
100
AcDbEntity
  8
LAY-6
  6
CONTINUOUS
 62
     1
100
AcDbVertex
100
AcDb2dVertex
 10
687.977264
 20
360.715247
 30
0.0
  0
VERTEX
  5
3ED
100
AcDbEntity
  8
LAY-6
  6
CONTINUOUS
 62
     1
100
AcDbVertex
100
AcDb2dVertex
 10
683.5
 20
331.7
 30
0.0
  0
VERTEX
  5
3EE
100
AcDbEntity
  8
LAY-6
  6
CONTINUOUS
 62
     1
100
AcDbVertex
100
AcDb2dVertex
 10
619.9
 20
331.7
 30
0.0
  0
SEQEND
  5
3EF
100
AcDbEntity
  8
LAY-6
  6
CONTINUOUS
 62
     1
  0
LINE
  5
3F0
100
AcDbEntity
  8
LAY-6
  6
CONTINUOUS
 62
     1
100
AcDbLine
 10
688.013908
 20
357.674087
 30
0.0
 11
687.977264
 21
360.715247
 31
0.0
  0
LINE
  5
3F1
100
AcDbEntity
  8
LAY-6
  6
CONTINUOUS
 62
     1
100
AcDbLine
 10
687.977264
 20
360.715247
 30
0.0
 11
687.025605
 21
357.826589
 31
0.0
  0
LINE
  5
3F2
100
AcDbEntity
  8
LAY-6
  6
CONTINUOUS
 62
     1
100
AcDbLine
 10
211.3
 20
213.876953
 30
0.0
 11
208.3
 21
213.876953
 31
0.0
  0
LINE
  5
3F3
100
AcDbEntity
  8
LAY-6
  6
CONTINUOUS
 62
     1
100
AcDbLine
 10
435.0
 20
384.491058
 30
0.0
 11
444.0
 21
384.491058
 31
0.0
  0
LINE
  5
3F4
100
AcDbEntity
  8
LAY-6
  6
CONTINUOUS
 62
     1
100
AcDbLine
 10
448.403381
 20
398.491089
 30
0.0
 11
442.0
 21
398.491089
 31
0.0
  0
TEXT
  5
3F5
100
AcDbEntity
  8
LAY-6
  6
CONTINUOUS
 62
     2
100
AcDbText
 10
442.0
 20
387.491074
 30
0.0
 40
5.0
  1
１４
 50
90.0
 41
0.672
  7
EXCADSTD
 72
     5
 11
442.0
 21
394.823874
 31
0.0
100
AcDbText
  0
LINE
  5
3F6
100
AcDbEntity
  8
LAY-6
  6
CONTINUOUS
 62
     1
100
AcDbLine
 10
443.0
 20
384.491058
 30
0.0
 11
443.0
 21
398.491089
 31
0.0
  0
LINE
  5
3F7
100
AcDbEntity
  8
LAY-6
  6
CONTINUOUS
 62
     1
100
AcDbLine
 10
442.5
 20
387.491058
 30
0.0
 11
443.0
 21
384.491058
 31
0.0
  0
LINE
  5
3F8
100
AcDbEntity
  8
LAY-6
  6
CONTINUOUS
 62
     1
100
AcDbLine
 10
443.0
 20
384.491058
 30
0.0
 11
443.5
 21
387.491058
 31
0.0
  0
LINE
  5
3F9
100
AcDbEntity
  8
LAY-6
  6
CONTINUOUS
 62
     1
100
AcDbLine
 10
443.5
 20
395.491089
 30
0.0
 11
443.0
 21
398.491089
 31
0.0
  0
LINE
  5
3FA
100
AcDbEntity
  8
LAY-6
  6
CONTINUOUS
 62
     1
100
AcDbLine
 10
443.0
 20
398.491089
 30
0.0
 11
442.5
 21
395.491089
 31
0.0
  0
LINE
  5
3FB
100
AcDbEntity
  8
LAY-6
  6
CONTINUOUS
 62
     1
100
AcDbLine
 10
241.7
 20
206.876953
 30
0.0
 11
239.2
 21
206.876953
 31
0.0
  0
LINE
  5
3FC
100
AcDbEntity
  8
LAY-6
  6
CONTINUOUS
 62
     1
100
AcDbLine
 10
226.403412
 20
235.876953
 30
0.0
 11
241.2
 21
235.876953
 31
0.0
  0
TEXT
  5
3FD
100
AcDbEntity
  8
LAY-6
  6
CONTINUOUS
 62
     2
100
AcDbText
 10
239.2
 20
217.376953
 30
0.0
 40
5.0
  1
２９
 50
90.0
 41
0.672
  7
EXCADSTD
 72
     5
 11
239.2
 21
224.709753
 31
0.0
100
AcDbText
  0
LINE
  5
3FE
100
AcDbEntity
  8
LAY-6
  6
CONTINUOUS
 62
     1
100
AcDbLine
 10
240.2
 20
206.876953
 30
0.0
 11
240.2
 21
235.876953
 31
0.0
  0
LINE
  5
3FF
100
AcDbEntity
  8
LAY-6
  6
CONTINUOUS
 62
     1
100
AcDbLine
 10
239.7
 20
209.876953
 30
0.0
 11
240.2
 21
206.876953
 31
0.0
  0
LINE
  5
400
100
AcDbEntity
  8
LAY-6
  6
CONTINUOUS
 62
     1
100
AcDbLine
 10
240.2
 20
206.876953
 30
0.0
 11
240.7
 21
209.876953
 31
0.0
  0
LINE
  5
401
100
AcDbEntity
  8
LAY-6
  6
CONTINUOUS
 62
     1
100
AcDbLine
 10
240.7
 20
232.876953
 30
0.0
 11
240.2
 21
235.876953
 31
0.0
  0
LINE
  5
402
100
AcDbEntity
  8
LAY-6
  6
CONTINUOUS
 62
     1
100
AcDbLine
 10
240.2
 20
235.876953
 30
0.0
 11
239.7
 21
232.876953
 31
0.0
  0
LINE
  5
403
100
AcDbEntity
  8
LAY-6
  6
CONTINUOUS
 62
     1
100
AcDbLine
 10
211.3
 20
213.876953
 30
0.0
 11
208.8
 21
213.876953
 31
0.0
  0
LINE
  5
404
100
AcDbEntity
  8
LAY-6
  6
CONTINUOUS
 62
     1
100
AcDbLine
 10
210.955292
 20
227.876953
 30
0.0
 11
208.8
 21
227.876953
 31
0.0
  0
TEXT
  5
405
100
AcDbEntity
  8
LAY-6
  6
CONTINUOUS
 62
     2
100
AcDbText
 10
208.8
 20
216.876953
 30
0.0
 40
5.0
  1
１４
 50
90.0
 41
0.672
  7
EXCADSTD
 72
     5
 11
208.8
 21
224.209753
 31
0.0
100
AcDbText
  0
LINE
  5
406
100
AcDbEntity
  8
LAY-6
  6
CONTINUOUS
 62
     1
100
AcDbLine
 10
209.8
 20
213.876953
 30
0.0
 11
209.8
 21
227.876953
 31
0.0
  0
LINE
  5
407
100
AcDbEntity
  8
LAY-6
  6
CONTINUOUS
 62
     1
100
AcDbLine
 10
209.3
 20
216.876953
 30
0.0
 11
209.8
 21
213.876953
 31
0.0
  0
LINE
  5
408
100
AcDbEntity
  8
LAY-6
  6
CONTINUOUS
 62
     1
100
AcDbLine
 10
209.8
 20
213.876953
 30
0.0
 11
210.3
 21
216.876953
 31
0.0
  0
LINE
  5
409
100
AcDbEntity
  8
LAY-6
  6
CONTINUOUS
 62
     1
100
AcDbLine
 10
210.3
 20
224.876953
 30
0.0
 11
209.8
 21
227.876953
 31
0.0
  0
LINE
  5
40A
100
AcDbEntity
  8
LAY-6
  6
CONTINUOUS
 62
     1
100
AcDbLine
 10
209.8
 20
227.876953
 30
0.0
 11
209.3
 21
224.876953
 31
0.0
  0
TEXT
  5
40B
100
AcDbEntity
  8
LAY-6
  6
CONTINUOUS
 62
     2
100
AcDbText
 10
688.477523
 20
349.4
 30
0.0
 40
5.0
  1
３５
 41
0.672
  7
EXCADSTD
 72
     5
 11
695.810323
 21
349.4
 31
0.0
100
AcDbText
  0
LINE
  5
40C
100
AcDbEntity
  8
LAY-6
  6
CONTINUOUS
 62
     1
100
AcDbLine
 10
709.977325
 20
375.3
 30
0.0
 11
709.977325
 21
347.4
 31
0.0
  0
LINE
  5
40D
100
AcDbEntity
  8
LAY-6
  6
CONTINUOUS
 62
     1
100
AcDbLine
 10
674.977722
 20
348.4
 30
0.0
 11
709.977325
 21
348.4
 31
0.0
  0
LINE
  5
40E
100
AcDbEntity
  8
LAY-6
  6
CONTINUOUS
 62
     1
100
AcDbLine
 10
677.977722
 20
348.9
 30
0.0
 11
674.977722
 21
348.4
 31
0.0
  0
LINE
  5
40F
100
AcDbEntity
  8
LAY-6
  6
CONTINUOUS
 62
     1
100
AcDbLine
 10
674.977722
 20
348.4
 30
0.0
 11
677.977722
 21
347.9
 31
0.0
  0
LINE
  5
410
100
AcDbEntity
  8
LAY-6
  6
CONTINUOUS
 62
     1
100
AcDbLine
 10
706.977325
 20
347.9
 30
0.0
 11
709.977325
 21
348.4
 31
0.0
  0
LINE
  5
411
100
AcDbEntity
  8
LAY-6
  6
CONTINUOUS
 62
     1
100
AcDbLine
 10
709.977325
 20
348.4
 30
0.0
 11
706.977325
 21
348.9
 31
0.0
  0
TEXT
  5
412
100
AcDbEntity
  8
LAY-6
  6
CONTINUOUS
 62
     2
100
AcDbText
 10
688.461044
 20
238.5
 30
0.0
 40
5.0
  1
３５
 41
0.672
  7
EXCADSTD
 72
     5
 11
695.793844
 21
238.5
 31
0.0
100
AcDbText
  0
LINE
  5
413
100
AcDbEntity
  8
LAY-6
  6
CONTINUOUS
 62
     1
100
AcDbLine
 10
709.944763
 20
215.7
 30
0.0
 11
709.944763
 21
238.5
 31
0.0
  0
LINE
  5
414
100
AcDbEntity
  8
LAY-6
  6
CONTINUOUS
 62
     1
100
AcDbLine
 10
674.977325
 20
237.5
 30
0.0
 11
709.944763
 21
237.5
 31
0.0
  0
LINE
  5
415
100
AcDbEntity
  8
LAY-6
  6
CONTINUOUS
 62
     1
100
AcDbLine
 10
677.977325
 20
238.0
 30
0.0
 11
674.977325
 21
237.5
 31
0.0
  0
LINE
  5
416
100
AcDbEntity
  8
LAY-6
  6
CONTINUOUS
 62
     1
100
AcDbLine
 10
674.977325
 20
237.5
 30
0.0
 11
677.977325
 21
237.0
 31
0.0
  0
LINE
  5
417
100
AcDbEntity
  8
LAY-6
  6
CONTINUOUS
 62
     1
100
AcDbLine
 10
706.944763
 20
237.0
 30
0.0
 11
709.944763
 21
237.5
 31
0.0
  0
LINE
  5
418
100
AcDbEntity
  8
LAY-6
  6
CONTINUOUS
 62
     1
100
AcDbLine
 10
709.944763
 20
237.5
 30
0.0
 11
706.944763
 21
238.0
 31
0.0
  0
LINE
  5
419
100
AcDbEntity
  8
LAY-6
  6
CONTINUOUS
 62
     1
100
AcDbLine
 10
649.977356
 20
182.465515
 30
0.0
 11
649.977356
 21
164.2
 31
0.0
  0
LINE
  5
41A
100
AcDbEntity
  8
LAY-6
  6
CONTINUOUS
 62
     1
100
AcDbLine
 10
674.977356
 20
174.465485
 30
0.0
 11
674.977356
 21
164.2
 31
0.0
  0
TEXT
  5
41B
100
AcDbEntity
  8
LAY-6
  6
CONTINUOUS
 62
     2
100
AcDbText
 10
659.277356
 20
165.7
 30
0.0
 40
4.0
  1
２５
 41
0.672
  7
EXCADSTD
 72
     5
 11
665.143596
 21
165.7
 31
0.0
100
AcDbText
  0
LINE
  5
41C
100
AcDbEntity
  8
LAY-6
  6
CONTINUOUS
 62
     1
100
AcDbLine
 10
649.977356
 20
165.2
 30
0.0
 11
674.977356
 21
165.2
 31
0.0
  0
LINE
  5
41D
100
AcDbEntity
  8
LAY-6
  6
CONTINUOUS
 62
     1
100
AcDbLine
 10
651.977356
 20
165.533333
 30
0.0
 11
649.977356
 21
165.2
 31
0.0
  0
LINE
  5
41E
100
AcDbEntity
  8
LAY-6
  6
CONTINUOUS
 62
     1
100
AcDbLine
 10
649.977356
 20
165.2
 30
0.0
 11
651.977356
 21
164.866667
 31
0.0
  0
LINE
  5
41F
100
AcDbEntity
  8
LAY-6
  6
CONTINUOUS
 62
     1
100
AcDbLine
 10
672.977356
 20
164.866667
 30
0.0
 11
674.977356
 21
165.2
 31
0.0
  0
LINE
  5
420
100
AcDbEntity
  8
LAY-6
  6
CONTINUOUS
 62
     1
100
AcDbLine
 10
674.977356
 20
165.2
 30
0.0
 11
672.977356
 21
165.533333
 31
0.0
  0
LINE
  5
421
100
AcDbEntity
  8
LAY-6
  6
CONTINUOUS
 62
     1
100
AcDbLine
 10
714.977386
 20
183.965576
 30
0.0
 11
714.977386
 21
164.2
 31
0.0
  0
TEXT
  5
422
100
AcDbEntity
  8
LAY-6
  6
CONTINUOUS
 62
     2
100
AcDbText
 10
691.777371
 20
165.7
 30
0.0
 40
4.0
  1
４０
 41
0.672
  7
EXCADSTD
 72
     5
 11
697.643611
 21
165.7
 31
0.0
100
AcDbText
  0
LINE
  5
423
100
AcDbEntity
  8
LAY-6
  6
CONTINUOUS
 62
     1
100
AcDbLine
 10
674.977356
 20
165.2
 30
0.0
 11
714.977386
 21
165.2
 31
0.0
  0
LINE
  5
424
100
AcDbEntity
  8
LAY-6
  6
CONTINUOUS
 62
     1
100
AcDbLine
 10
676.977356
 20
165.533333
 30
0.0
 11
674.977356
 21
165.2
 31
0.0
  0
LINE
  5
425
100
AcDbEntity
  8
LAY-6
  6
CONTINUOUS
 62
     1
100
AcDbLine
 10
674.977356
 20
165.2
 30
0.0
 11
676.977356
 21
164.866667
 31
0.0
  0
LINE
  5
426
100
AcDbEntity
  8
LAY-6
  6
CONTINUOUS
 62
     1
100
AcDbLine
 10
712.977386
 20
164.866667
 30
0.0
 11
714.977386
 21
165.2
 31
0.0
  0
LINE
  5
427
100
AcDbEntity
  8
LAY-6
  6
CONTINUOUS
 62
     1
100
AcDbLine
 10
714.977386
 20
165.2
 30
0.0
 11
712.977386
 21
165.533333
 31
0.0
  0
TEXT
  5
428
100
AcDbEntity
  8
LAY-6
  6
CONTINUOUS
 62
     2
100
AcDbText
 10
430.2
 20
203.061282
 30
0.0
 40
5.0
  1
２５
 50
90.0
 41
0.672
  7
EXCADSTD
 72
     5
 11
430.2
 21
210.394082
 31
0.0
100
AcDbText
  0
LINE
  5
429
100
AcDbEntity
  8
LAY-6
  6
CONTINUOUS
 62
     1
100
AcDbLine
 10
381.903275
 20
194.561279
 30
0.0
 11
431.7
 21
194.561279
 31
0.0
  0
LINE
  5
42A
100
AcDbEntity
  8
LAY-6
  6
CONTINUOUS
 62
     1
100
AcDbLine
 10
430.7
 20
194.561279
 30
0.0
 11
430.7
 21
219.561285
 31
0.0
  0
LINE
  5
42B
100
AcDbEntity
  8
LAY-6
  6
CONTINUOUS
 62
     1
100
AcDbLine
 10
430.366667
 20
196.561279
 30
0.0
 11
430.7
 21
194.561279
 31
0.0
  0
LINE
  5
42C
100
AcDbEntity
  8
LAY-6
  6
CONTINUOUS
 62
     1
100
AcDbLine
 10
430.7
 20
194.561279
 30
0.0
 11
431.033333
 21
196.561279
 31
0.0
  0
LINE
  5
42D
100
AcDbEntity
  8
LAY-6
  6
CONTINUOUS
 62
     1
100
AcDbLine
 10
431.033333
 20
217.561285
 30
0.0
 11
430.7
 21
219.561285
 31
0.0
  0
LINE
  5
42E
100
AcDbEntity
  8
LAY-6
  6
CONTINUOUS
 62
     1
100
AcDbLine
 10
430.7
 20
219.561285
 30
0.0
 11
430.366667
 21
217.561285
 31
0.0
  0
TEXT
  5
42F
100
AcDbEntity
  8
LAY-6
  6
CONTINUOUS
 62
     2
100
AcDbText
 10
430.2
 20
235.561297
 30
0.0
 40
5.0
  1
４０
 50
90.0
 41
0.672
  7
EXCADSTD
 72
     5
 11
430.2
 21
242.894097
 31
0.0
100
AcDbText
  0
LINE
  5
430
100
AcDbEntity
  8
LAY-6
  6
CONTINUOUS
 62
     1
100
AcDbLine
 10
403.903383
 20
259.56131
 30
0.0
 11
431.7
 21
259.56131
 31
0.0
  0
LINE
  5
431
100
AcDbEntity
  8
LAY-6
  6
CONTINUOUS
 62
     1
100
AcDbLine
 10
430.7
 20
219.561285
 30
0.0
 11
430.7
 21
259.56131
 31
0.0
  0
LINE
  5
432
100
AcDbEntity
  8
LAY-6
  6
CONTINUOUS
 62
     1
100
AcDbLine
 10
430.366667
 20
221.561285
 30
0.0
 11
430.7
 21
219.561285
 31
0.0
  0
LINE
  5
433
100
AcDbEntity
  8
LAY-6
  6
CONTINUOUS
 62
     1
100
AcDbLine
 10
430.7
 20
219.561285
 30
0.0
 11
431.033333
 21
221.561285
 31
0.0
  0
LINE
  5
434
100
AcDbEntity
  8
LAY-6
  6
CONTINUOUS
 62
     1
100
AcDbLine
 10
431.033333
 20
257.56131
 30
0.0
 11
430.7
 21
259.56131
 31
0.0
  0
LINE
  5
435
100
AcDbEntity
  8
LAY-6
  6
CONTINUOUS
 62
     1
100
AcDbLine
 10
430.7
 20
259.56131
 30
0.0
 11
430.366667
 21
257.56131
 31
0.0
  0
CIRCLE
  5
436
100
AcDbEntity
  8
LAY-6
  6
CONTINUOUS
 62
     2
100
AcDbCircle
 10
288.2
 20
22.8
 30
0.0
 40
5.0
  0
TEXT
  5
437
100
AcDbEntity
  8
LAY-6
  6
CONTINUOUS
 62
     2
100
AcDbText
 10
288.66
 20
27.38
 30
0.0
 40
4.5
  1
山崎
 41
1.222222
  7
EXCADVERT
 72
     3
 11
288.66
 21
18.38
 31
0.0
100
AcDbText
  0
TEXT
  5
438
100
AcDbEntity
  8
LAY-6
  6
CONTINUOUS
 62
     2
100
AcDbText
 10
196.338856
 20
425.861235
 30
0.0
 40
5.0
  1
（タップ穴加工付はオプション）
 41
0.672
  7
EXCADSTD
 72
     5
 11
256.338856
 21
425.861236
 31
0.0
100
AcDbText
  0
TEXT
  5
439
100
AcDbEntity
  8
LAY-6
  6
CONTINUOUS
 62
     2
100
AcDbText
 10
414.38719
 20
270.625794
 30
0.0
 40
5.0
  1
（タップ穴加工付はオプション）
 41
0.672
  7
EXCADSTD
 72
     5
 11
474.38719
 21
270.625794
 31
0.0
100
AcDbText
  0
TEXT
  5
43A
100
AcDbEntity
  8
LAY-6
  6
CONTINUOUS
 62
     2
100
AcDbText
 10
729.855956
 20
243.288089
 30
0.0
 40
5.0
  1
裏板４.５ｔ以上（別途）
 41
0.654222
  7
EXCADSTD
 72
     5
 11
775.855956
 21
243.288089
 31
0.0
100
AcDbText
  0
POLYLINE
  5
43B
100
AcDbEntity
  8
LAY-6
  6
CONTINUOUS
 62
     1
100
AcDb2dPolyline
 66
     1
 10
0.0
 20
0.0
 30
0.0
 70
   128
  0
VERTEX
  5
43C
100
AcDbEntity
  8
LAY-6
  6
CONTINUOUS
 62
     1
100
AcDbVertex
100
AcDb2dVertex
 10
707.289337
 20
222.465515
 30
0.0
  0
VERTEX
  5
43D
100
AcDbEntity
  8
LAY-6
  6
CONTINUOUS
 62
     1
100
AcDbVertex
100
AcDb2dVertex
 10
727.611911
 20
242.788089
 30
0.0
  0
VERTEX
  5
43E
100
AcDbEntity
  8
LAY-6
  6
CONTINUOUS
 62
     1
100
AcDbVertex
100
AcDb2dVertex
 10
778.1
 20
242.788089
 30
0.0
  0
SEQEND
  5
43F
100
AcDbEntity
  8
LAY-6
  6
CONTINUOUS
 62
     1
  0
LINE
  5
440
100
AcDbEntity
  8
LAY-6
  6
CONTINUOUS
 62
     1
100
AcDbLine
 10
708.467848
 20
224.115431
 30
0.0
 11
707.289337
 21
222.465515
 31
0.0
  0
LINE
  5
441
100
AcDbEntity
  8
LAY-6
  6
CONTINUOUS
 62
     1
100
AcDbLine
 10
707.289337
 20
222.465515
 30
0.0
 11
708.939253
 21
223.644026
 31
0.0
  0
TEXT
  5
442
100
AcDbEntity
  8
LAY-6
  6
CONTINUOUS
 62
     2
100
AcDbText
 10
726.308085
 20
157.697153
 30
0.0
 40
5.0
  1
裏板（別途）
 41
0.672
  7
EXCADSTD
 72
     5
 11
750.308085
 21
157.697153
 31
0.0
100
AcDbText
  0
POLYLINE
  5
443
100
AcDbEntity
  8
LAY-6
  6
CONTINUOUS
 62
     1
100
AcDb2dPolyline
 66
     1
 10
0.0
 20
0.0
 30
0.0
 70
   128
  0
VERTEX
  5
444
100
AcDbEntity
  8
LAY-6
  6
CONTINUOUS
 62
     1
100
AcDbVertex
100
AcDb2dVertex
 10
715.6
 20
191.965576
 30
0.0
  0
VERTEX
  5
445
100
AcDbEntity
  8
LAY-6
  6
CONTINUOUS
 62
     1
100
AcDbVertex
100
AcDb2dVertex
 10
724.916171
 20
157.197153
 30
0.0
  0
VERTEX
  5
446
100
AcDbEntity
  8
LAY-6
  6
CONTINUOUS
 62
     1
100
AcDbVertex
100
AcDb2dVertex
 10
751.7
 20
157.197153
 30
0.0
  0
SEQEND
  5
447
100
AcDbEntity
  8
LAY-6
  6
CONTINUOUS
 62
     1
  0
LINE
  5
448
100
AcDbEntity
  8
LAY-6
  6
CONTINUOUS
 62
     1
100
AcDbLine
 10
716.439613
 20
190.119997
 30
0.0
 11
715.6
 21
191.965576
 31
0.0
  0
LINE
  5
449
100
AcDbEntity
  8
LAY-6
  6
CONTINUOUS
 62
     1
100
AcDbLine
 10
715.6
 20
191.965576
 30
0.0
 11
715.795663
 21
189.947451
 31
0.0
  0
TEXT
  5
44A
100
AcDbEntity
  8
LAY-6
  6
CONTINUOUS
 62
     2
100
AcDbText
 10
710.826209
 20
424.913113
 30
0.0
 40
5.0
  1
裏板（別途）
 41
0.672
  7
EXCADSTD
 72
     5
 11
734.826209
 21
424.913113
 31
0.0
100
AcDbText
  0
POLYLINE
  5
44B
100
AcDbEntity
  8
LAY-6
  6
CONTINUOUS
 62
     1
100
AcDb2dPolyline
 66
     1
 10
0.0
 20
0.0
 30
0.0
 70
   128
  0
VERTEX
  5
44C
100
AcDbEntity
  8
LAY-6
  6
CONTINUOUS
 62
     1
100
AcDbVertex
100
AcDb2dVertex
 10
716.977295
 20
389.815186
 30
0.0
  0
VERTEX
  5
44D
100
AcDbEntity
  8
LAY-6
  6
CONTINUOUS
 62
     1
100
AcDbVertex
100
AcDb2dVertex
 10
736.952417
 20
424.413113
 30
0.0
  0
VERTEX
  5
44E
100
AcDbEntity
  8
LAY-6
  6
CONTINUOUS
 62
     1
100
AcDbVertex
100
AcDb2dVertex
 10
708.7
 20
424.413113
 30
0.0
  0
SEQEND
  5
44F
100
AcDbEntity
  8
LAY-6
  6
CONTINUOUS
 62
     1
  0
LINE
  5
450
100
AcDbEntity
  8
LAY-6
  6
CONTINUOUS
 62
     1
100
AcDbLine
 10
717.68862
 20
391.713903
 30
0.0
 11
716.977295
 21
389.815186
 31
0.0
  0
LINE
  5
451
100
AcDbEntity
  8
LAY-6
  6
CONTINUOUS
 62
     1
100
AcDbLine
 10
716.977295
 20
389.815186
 30
0.0
 11
718.26597
 21
391.38057
 31
0.0
  0
TEXT
  5
452
100
AcDbEntity
  8
LAY-6
  6
CONTINUOUS
 62
     2
100
AcDbText
 10
607.760816
 20
418.586898
 30
0.0
 40
5.0
  1
キャップ
 41
0.672
  7
EXCADSTD
 72
     5
 11
623.760816
 21
418.586898
 31
0.0
100
AcDbText
  0
LINE
  5
453
100
AcDbEntity
  8
LAY-6
  6
CONTINUOUS
 62
     1
100
AcDbLine
 10
640.577295
 20
400.315247
 30
0.0
 11
640.577295
 21
408.2
 31
0.0
  0
LINE
  5
454
100
AcDbEntity
  8
LAY-6
  6
CONTINUOUS
 62
     1
100
AcDbLine
 10
659.377295
 20
400.315247
 30
0.0
 11
659.377295
 21
408.2
 31
0.0
  0
TEXT
  5
455
100
AcDbEntity
  8
LAY-6
  6
CONTINUOUS
 62
     2
100
AcDbText
 10
641.877295
 20
407.2
 30
0.0
 40
5.0
  1
φ
 41
0.672
  7
EXCADSTD
 72
     5
 11
645.077295
 21
407.2
 31
0.0
100
AcDbText
  0
TEXT
  5
456
100
AcDbEntity
  8
LAY-6
  6
CONTINUOUS
 62
     2
100
AcDbText
 10
645.877295
 20
407.2
 30
0.0
 40
5.0
  1
１８.８
 41
0.616
  7
EXCADSTD
 72
     5
 11
659.877295
 21
407.2
 31
0.0
100
AcDbText
  0
LINE
  5
457
100
AcDbEntity
  8
LAY-6
  6
CONTINUOUS
 62
     1
100
AcDbLine
 10
640.577295
 20
406.7
 30
0.0
 11
659.377295
 21
406.7
 31
0.0
  0
LINE
  5
458
100
AcDbEntity
  8
LAY-6
  6
CONTINUOUS
 62
     1
100
AcDbLine
 10
643.577295
 20
407.2
 30
0.0
 11
640.577295
 21
406.7
 31
0.0
  0
LINE
  5
459
100
AcDbEntity
  8
LAY-6
  6
CONTINUOUS
 62
     1
100
AcDbLine
 10
640.577295
 20
406.7
 30
0.0
 11
643.577295
 21
406.2
 31
0.0
  0
LINE
  5
45A
100
AcDbEntity
  8
LAY-6
  6
CONTINUOUS
 62
     1
100
AcDbLine
 10
656.377295
 20
406.2
 30
0.0
 11
659.377295
 21
406.7
 31
0.0
  0
LINE
  5
45B
100
AcDbEntity
  8
LAY-6
  6
CONTINUOUS
 62
     1
100
AcDbLine
 10
659.377295
 20
406.7
 30
0.0
 11
656.377295
 21
407.2
 31
0.0
  0
LINE
  5
45C
100
AcDbEntity
  8
LAY-6
  6
CONTINUOUS
 62
     1
100
AcDbLine
 10
643.077295
 20
402.815247
 30
0.0
 11
617.9
 21
402.815247
 31
0.0
  0
LINE
  5
45D
100
AcDbEntity
  8
LAY-6
  6
CONTINUOUS
 62
     1
100
AcDbLine
 10
628.477295
 20
398.815247
 30
0.0
 11
617.9
 21
398.815247
 31
0.0
  0
TEXT
  5
45E
100
AcDbEntity
  8
LAY-6
  6
CONTINUOUS
 62
     2
100
AcDbText
 10
618.93
 20
398.835247
 30
0.0
 40
5.0
  1
４
 50
90.0
 41
0.672
  7
EXCADSTD
 72
     5
 11
618.93
 21
402.035247
 31
0.0
100
AcDbText
  0
LINE
  5
45F
100
AcDbEntity
  8
LAY-6
  6
CONTINUOUS
 62
     1
100
AcDbLine
 10
619.4
 20
407.59
 30
0.0
 11
619.4
 21
393.815247
 31
0.0
  0
LINE
  5
460
100
AcDbEntity
  8
LAY-6
  6
CONTINUOUS
 62
     1
100
AcDbLine
 10
618.9
 20
405.815247
 30
0.0
 11
619.4
 21
402.815247
 31
0.0
  0
LINE
  5
461
100
AcDbEntity
  8
LAY-6
  6
CONTINUOUS
 62
     1
100
AcDbLine
 10
619.4
 20
402.815247
 30
0.0
 11
619.9
 21
405.815247
 31
0.0
  0
LINE
  5
462
100
AcDbEntity
  8
LAY-6
  6
CONTINUOUS
 62
     1
100
AcDbLine
 10
619.9
 20
395.815247
 30
0.0
 11
619.4
 21
398.815247
 31
0.0
  0
LINE
  5
463
100
AcDbEntity
  8
LAY-6
  6
CONTINUOUS
 62
     1
100
AcDbLine
 10
619.4
 20
398.815247
 30
0.0
 11
618.9
 21
395.815247
 31
0.0
  0
TEXT
  5
464
100
AcDbEntity
  8
LAY-6
  6
CONTINUOUS
 62
     2
100
AcDbText
 10
706.455956
 20
330.088089
 30
0.0
 40
5.0
  1
裏板４.５ｔ以上（別途）
 41
0.654222
  7
EXCADSTD
 72
     5
 11
752.455956
 21
330.088089
 31
0.0
100
AcDbText
  0
LINE
  5
465
100
AcDbEntity
  8
LAY-6
  6
CONTINUOUS
 62
     1
100
AcDbLine
 10
313.52161
 20
178.463731
 30
0.0
 11
324.082873
 21
184.561279
 31
0.0
  0
LINE
  5
466
100
AcDbEntity
  8
LAY-6
  6
CONTINUOUS
 62
     1
100
AcDbLine
 10
313.52161
 20
330.393541
 30
0.0
 11
324.082873
 21
336.491089
 31
0.0
  0
INSERT
  5
467
100
AcDbEntity
  8
LAY-6
  6
CONTINUOUS
 62
     0
100
AcDbBlockReference
  2
SYM-1
 10
327.0
 20
445.0
 30
0.0
  0
TEXT
  5
468
100
AcDbEntity
  8
LAY-6
  6
CONTINUOUS
 62
     2
100
AcDbText
 10
490.899987
 20
385.077373
 30
0.0
 40
6.0
  1
ド　ア
 41
0.672
  7
EXCADSTD
 72
     5
 11
505.299987
 21
385.077373
 31
0.0
100
AcDbText
  0
TEXT
  5
469
100
AcDbEntity
  8
LAY-6
  6
CONTINUOUS
 62
     2
100
AcDbText
 10
442.599979
 20
228.577312
 30
0.0
 40
6.0
  1
沓　摺
 41
0.672
  7
EXCADSTD
 72
     5
 11
456.999979
 21
228.577312
 31
0.0
100
AcDbText
  0
TEXT
  5
46A
100
AcDbEntity
  8
LAY-6
  6
CONTINUOUS
 62
     2
100
AcDbText
 10
318.399979
 20
245.777312
 30
0.0
 40
6.0
  1
竪　枠
 41
0.672
  7
EXCADSTD
 72
     5
 11
332.799979
 21
245.777312
 31
0.0
100
AcDbText
  0
LINE
  5
46B
100
AcDbEntity
  8
LAY-6
  6
CONTINUOUS
 62
     1
100
AcDbLine
 10
478.1
 20
377.491089
 30
0.0
 11
478.1
 21
371.491363
 31
0.0
  0
LINE
  5
46C
100
AcDbEntity
  8
LAY-6
  6
CONTINUOUS
 62
     1
100
AcDbLine
 10
346.403381
 20
432.7
 30
0.0
 11
341.403375
 21
432.7
 31
0.0
  0
LINE
  5
46D
100
AcDbEntity
  8
LAY-6
  6
CONTINUOUS
 62
     1
100
AcDbLine
 10
726.7
 20
383.815247
 30
0.0
 11
726.7
 21
354.6
 31
0.0
  0
LINE
  5
46E
100
AcDbEntity
  8
LAY-6
  6
CONTINUOUS
 62
     1
100
AcDbLine
 10
619.4
 20
382.4
 30
0.0
 11
611.4
 21
382.4
 31
0.0
  0
LINE
  5
46F
100
AcDbEntity
  8
LAY-6
  6
CONTINUOUS
 62
     1
100
AcDbLine
 10
659.5
 20
199.965485
 30
0.0
 11
659.5
 21
191.965546
 31
0.0
  0
TEXT
  5
470
100
AcDbEntity
  8
LAY-6
  6
CONTINUOUS
 62
     2
100
AcDbText
 10
727.751575
 20
402.149668
 30
0.0
 40
6.0
  1
上　枠
 41
0.672
  7
EXCADSTD
 72
     5
 11
742.151576
 21
402.149668
 31
0.0
100
AcDbText
  0
TEXT
  5
471
100
AcDbEntity
  8
LAY-6
  6
CONTINUOUS
 62
     2
100
AcDbText
 10
586.7
 20
186.399933
 30
0.0
 40
6.0
  1
床　面
 41
0.672
  7
EXCADSTD
 72
     5
 11
601.100001
 21
186.399933
 31
0.0
100
AcDbText
  0
TEXT
  5
472
100
AcDbEntity
  8
LAY-6
  6
CONTINUOUS
 62
     2
100
AcDbText
 10
689.851575
 20
304.349668
 30
0.0
 40
6.0
  1
ド　ア
 41
0.672
  7
EXCADSTD
 72
     5
 11
704.251576
 21
304.349668
 31
0.0
100
AcDbText
  0
LINE
  5
473
100
AcDbEntity
  8
LAY-6
  6
CONTINUOUS
 62
     1
100
AcDbLine
 10
659.5
 20
199.965485
 30
0.0
 11
659.5
 21
195.2
 31
0.0
  0
LINE
  5
474
100
AcDbEntity
  8
LAY-6
  6
CONTINUOUS
 62
     1
100
AcDbLine
 10
738.0
 20
213.6
 30
0.0
 11
738.0
 21
199.965485
 31
0.0
  0
LINE
  5
475
100
AcDbEntity
  8
LAY-6
  6
CONTINUOUS
 62
     1
100
AcDbLine
 10
726.7
 20
389.815186
 30
0.0
 11
726.7
 21
383.815247
 31
0.0
  0
LINE
  5
476
100
AcDbEntity
  8
LAY-6
  6
CONTINUOUS
 62
     1
100
AcDbLine
 10
738.0
 20
383.815247
 30
0.0
 11
738.0
 21
380.815217
 31
0.0
  0
LINE
  5
477
100
AcDbEntity
  8
LAY-6
  6
CONTINUOUS
 62
     1
100
AcDbLine
 10
619.4
 20
383.815247
 30
0.0
 11
619.4
 21
373.315186
 31
0.0
  0
TEXT
  5
478
100
AcDbEntity
  8
LAY-6
  6
CONTINUOUS
 62
     2
100
AcDbText
 10
722.599979
 20
168.577312
 30
0.0
 40
6.0
  1
沓　摺
 41
0.672
  7
EXCADSTD
 72
     5
 11
736.999979
 21
168.577312
 31
0.0
100
AcDbText
  0
POLYLINE
  5
479
100
AcDbEntity
  8
LAY-6
  6
CONTINUOUS
 62
     1
100
AcDb2dPolyline
 66
     1
 10
0.0
 20
0.0
 30
0.0
 70
   128
  0
VERTEX
  5
47A
100
AcDbEntity
  8
LAY-6
  6
CONTINUOUS
 62
     1
100
AcDbVertex
100
AcDb2dVertex
 10
694.7
 20
368.315186
 30
0.0
  0
VERTEX
  5
47B
100
AcDbEntity
  8
LAY-6
  6
CONTINUOUS
 62
     1
100
AcDbVertex
100
AcDb2dVertex
 10
705.2
 20
329.5
 30
0.0
  0
VERTEX
  5
47C
100
AcDbEntity
  8
LAY-6
  6
CONTINUOUS
 62
     1
100
AcDbVertex
100
AcDb2dVertex
 10
751.2
 20
329.5
 30
0.0
  0
SEQEND
  5
47D
100
AcDbEntity
  8
LAY-6
  6
CONTINUOUS
 62
     1
  0
LINE
  5
47E
100
AcDbEntity
  8
LAY-6
  6
CONTINUOUS
 62
     1
100
AcDbLine
 10
695.544022
 20
366.47162
 30
0.0
 11
694.7
 21
368.315186
 31
0.0
  0
LINE
  5
47F
100
AcDbEntity
  8
LAY-6
  6
CONTINUOUS
 62
     1
100
AcDbLine
 10
694.7
 20
368.315186
 30
0.0
 11
694.900486
 21
366.297535
 31
0.0
  0
LINE
  5
480
100
AcDbEntity
  8
LAY-6
  6
CONTINUOUS
 62
     1
100
AcDbLine
 10
96.52161
 20
328.51616
 30
0.0
 11
107.082873
 21
334.613708
 31
0.0
  0
LINE
  5
481
100
AcDbEntity
  8
LAY-6
  6
CONTINUOUS
 62
     1
100
AcDbLine
 10
96.521626
 20
159.779405
 30
0.0
 11
107.082888
 21
165.876953
 31
0.0
  0
TEXT
  5
482
100
AcDbEntity
  8
LAY-6
  6
CONTINUOUS
 62
     2
100
AcDbText
 10
101.5
 20
400.791088
 30
0.0
 40
6.0
  1
竪　枠
 41
0.672
  7
EXCADSTD
 72
     5
 11
115.900001
 21
400.791088
 31
0.0
100
AcDbText
  0
TEXT
  5
483
100
AcDbEntity
  8
LAY-6
  6
CONTINUOUS
 62
     2
100
AcDbText
 10
233.3
 20
374.099998
 30
0.0
 40
6.0
  1
上　枠
 41
0.672
  7
EXCADSTD
 72
     5
 11
247.700001
 21
374.099998
 31
0.0
100
AcDbText
  0
TEXT
  5
484
100
AcDbEntity
  8
LAY-6
  6
CONTINUOUS
 62
     2
100
AcDbText
 10
248.900008
 20
214.699996
 30
0.0
 40
6.0
  1
ド　ア
 41
0.672
  7
EXCADSTD
 72
     5
 11
263.300008
 21
214.699996
 31
0.0
100
AcDbText
  0
INSERT
  5
485
100
AcDbEntity
  8
LAY-6
  6
CONTINUOUS
 62
     0
100
AcDbBlockReference
  2
SYM-2
 10
92.0
 20
446.0
 30
0.0
  0
LINE
  5
486
100
AcDbEntity
  8
LAY-6
  6
CONTINUOUS
 62
     1
100
AcDbLine
 10
240.2
 20
206.876953
 30
0.0
 11
240.2
 21
188.37709
 31
0.0
  0
ARC
  5
487
100
AcDbEntity
  8
LAY-6
  6
CONTINUOUS
 62
     4
100
AcDbCircle
 10
774.999999
 20
96.0
 30
0.0
 40
18.0
100
AcDbArc
 50
180.0
 51
225.487766
  0
ARC
  5
488
100
AcDbEntity
  8
LAY-6
  6
CONTINUOUS
 62
     4
100
AcDbCircle
 10
739.0
 20
96.0
 30
0.0
 40
18.0
100
AcDbArc
 50
314.424746
 51
0.0
  0
LINE
  5
489
100
AcDbEntity
  8
LAY-6
  6
CONTINUOUS
 62
     4
100
AcDbLine
 10
760.658807
 20
85.122032
 30
0.0
 11
779.5
 21
96.0
 31
0.0
  0
LINE
  5
48A
100
AcDbEntity
  8
LAY-6
  6
CONTINUOUS
 62
     4
100
AcDbLine
 10
753.341193
 20
85.122032
 30
0.0
 11
734.499999
 21
96.0
 31
0.0
  0
LINE
  5
48B
100
AcDbEntity
  8
LAY-6
  6
CONTINUOUS
 62
     4
100
AcDbLine
 10
734.5
 20
96.0
 30
0.0
 11
779.5
 21
96.0
 31
0.0
  0
LINE
  5
48C
100
AcDbEntity
  8
LAY-6
  6
CONTINUOUS
 62
     4
100
AcDbLine
 10
779.5
 20
99.75
 30
0.0
 11
787.0
 21
99.75
 31
0.0
  0
LINE
  5
48D
100
AcDbEntity
  8
LAY-6
  6
CONTINUOUS
 62
     4
100
AcDbLine
 10
734.5
 20
99.75
 30
0.0
 11
727.0
 21
99.75
 31
0.0
  0
LINE
  5
48E
100
AcDbEntity
  8
LAY-6
  6
CONTINUOUS
 62
     4
100
AcDbLine
 10
734.5
 20
92.25
 30
0.0
 11
727.0
 21
92.25
 31
0.0
  0
LINE
  5
48F
100
AcDbEntity
  8
LAY-6
  6
CONTINUOUS
 62
     4
100
AcDbLine
 10
734.5
 20
92.25
 30
0.0
 11
734.5
 21
99.75
 31
0.0
  0
LINE
  5
490
100
AcDbEntity
  8
LAY-6
  6
CONTINUOUS
 62
     4
100
AcDbLine
 10
727.0
 20
92.25
 30
0.0
 11
727.0
 21
99.75
 31
0.0
  0
LINE
  5
491
100
AcDbEntity
  8
LAY-6
  6
CONTINUOUS
 62
     4
100
AcDbLine
 10
779.5
 20
92.25
 30
0.0
 11
787.0
 21
92.25
 31
0.0
  0
LINE
  5
492
100
AcDbEntity
  8
LAY-6
  6
CONTINUOUS
 62
     4
100
AcDbLine
 10
779.5
 20
92.25
 30
0.0
 11
779.5
 21
99.75
 31
0.0
  0
LINE
  5
493
100
AcDbEntity
  8
LAY-6
  6
CONTINUOUS
 62
     4
100
AcDbLine
 10
787.0
 20
92.25
 30
0.0
 11
787.0
 21
99.75
 31
0.0
  0
LINE
  5
494
100
AcDbEntity
  8
LAY-6
  6
CONTINUOUS
 62
     2
100
AcDbLine
 10
763.000003
 20
108.765001
 30
0.0
 11
757.0
 21
102.764998
 31
0.0
  0
LINE
  5
495
100
AcDbEntity
  8
LAY-6
  6
CONTINUOUS
 62
     2
100
AcDbLine
 10
760.0
 20
108.765
 30
0.0
 11
763.000003
 21
108.765001
 31
0.0
  0
LINE
  5
496
100
AcDbEntity
  8
LAY-6
  6
CONTINUOUS
 62
     2
100
AcDbLine
 10
751.000003
 20
108.764995
 30
0.0
 11
757.0
 21
102.764998
 31
0.0
  0
LINE
  5
497
100
AcDbEntity
  8
LAY-6
  6
CONTINUOUS
 62
     2
100
AcDbLine
 10
751.000003
 20
108.764995
 30
0.0
 11
754.0
 21
108.764996
 31
0.0
  0
LINE
  5
498
100
AcDbEntity
  8
LAY-6
  6
CONTINUOUS
 62
     2
100
AcDbLine
 10
760.0
 20
108.765
 30
0.0
 11
760.0
 21
114.765
 31
0.0
  0
LINE
  5
499
100
AcDbEntity
  8
LAY-6
  6
CONTINUOUS
 62
     2
100
AcDbLine
 10
760.0
 20
114.765
 30
0.0
 11
757.0
 21
114.765
 31
0.0
  0
LINE
  5
49A
100
AcDbEntity
  8
LAY-6
  6
CONTINUOUS
 62
     2
100
AcDbLine
 10
757.0
 20
114.765
 30
0.0
 11
754.0
 21
114.765
 31
0.0
  0
LINE
  5
49B
100
AcDbEntity
  8
LAY-6
  6
CONTINUOUS
 62
     2
100
AcDbLine
 10
754.0
 20
108.764996
 30
0.0
 11
754.0
 21
114.764999
 31
0.0
  0
TEXT
  5
49C
100
AcDbEntity
  8
LAY-6
  6
CONTINUOUS
 62
     2
100
AcDbText
 10
723.322841
 20
121.108318
 30
0.0
 40
9.0
  1
ドアの開き勝手基準
 41
0.672
  7
EXCADSTD
 72
     5
 11
788.122844
 21
121.108318
 31
0.0
100
AcDbText
  0
LINE
  5
49D
100
AcDbEntity
  8
LAY-6
  6
CONTINUOUS
 62
     2
100
AcDbLine
 10
722.113457
 20
119.279497
 30
0.0
 11
791.263457
 21
119.279497
 31
0.0
  0
TEXT
  5
49E
100
AcDbEntity
  8
LAY-6
  6
CONTINUOUS
 62
     2
100
AcDbText
 10
719.244428
 20
66.110529
 30
0.0
 40
9.0
  1
本図は右開きを示します
 41
0.672
  7
EXCADSTD
 72
     5
 11
798.444431
 21
66.110529
 31
0.0
100
AcDbText
  0
TEXT
  5
49F
100
AcDbEntity
  8
LAY-6
  6
CONTINUOUS
 62
     2
100
AcDbText
 10
748.813134
 20
87.896519
 30
0.0
 40
7.5
  1
右
 41
0.672
  7
EXCADSTD
 72
     5
 11
753.613134
 21
87.896519
 31
0.0
100
AcDbText
  0
TEXT
  5
4A0
100
AcDbEntity
  8
LAY-6
  6
CONTINUOUS
 62
     2
100
AcDbText
 10
759.528085
 20
87.885
 30
0.0
 40
7.5
  1
左
 41
0.672
  7
EXCADSTD
 72
     5
 11
764.328085
 21
87.885
 31
0.0
100
AcDbText
  0
TEXT
  5
4A1
100
AcDbEntity
  8
LAY-6
  6
CONTINUOUS
 62
     2
100
AcDbText
 10
120.903381
 20
429.1
 30
0.0
 40
5.0
  1
３
 41
0.672
  7
EXCADSTD
 72
     5
 11
124.103381
 21
429.1
 31
0.0
100
AcDbText
  0
LINE
  5
4A2
100
AcDbEntity
  8
LAY-6
  6
CONTINUOUS
 62
     1
100
AcDbLine
 10
124.403381
 20
382.0
 30
0.0
 11
124.403381
 21
430.1
 31
0.0
  0
LINE
  5
4A3
100
AcDbEntity
  8
LAY-6
  6
CONTINUOUS
 62
     1
100
AcDbLine
 10
116.403381
 20
428.6
 30
0.0
 11
124.403381
 21
428.6
 31
0.0
  0
LINE
  5
4A4
100
AcDbEntity
  8
LAY-6
  6
CONTINUOUS
 62
     1
100
AcDbLine
 10
118.403381
 20
428.1
 30
0.0
 11
121.403381
 21
428.6
 31
0.0
  0
LINE
  5
4A5
100
AcDbEntity
  8
LAY-6
  6
CONTINUOUS
 62
     1
100
AcDbLine
 10
121.403381
 20
428.6
 30
0.0
 11
118.403381
 21
429.1
 31
0.0
  0
TEXT
  5
4A6
100
AcDbEntity
  8
LAY-6
  6
CONTINUOUS
 62
     2
100
AcDbText
 10
124.903381
 20
429.1
 30
0.0
 40
5.0
  1
５
 41
0.672
  7
EXCADSTD
 72
     5
 11
128.103381
 21
429.1
 31
0.0
100
AcDbText
  0
LINE
  5
4A7
100
AcDbEntity
  8
LAY-6
  6
CONTINUOUS
 62
     1
100
AcDbLine
 10
124.403381
 20
428.6
 30
0.0
 11
129.403381
 21
428.6
 31
0.0
  0
CIRCLE
  5
4A8
100
AcDbEntity
  8
LAY-6
  6
CONTINUOUS
 62
     1
100
AcDbCircle
 10
124.403381
 20
428.6
 30
0.0
 40
1.0
  0
CIRCLE
  5
4A9
100
AcDbEntity
  8
LAY-6
  6
CONTINUOUS
 62
     1
100
AcDbCircle
 10
124.403381
 20
428.6
 30
0.0
 40
0.5
  0
TEXT
  5
4AA
100
AcDbEntity
  8
LAY-6
  6
CONTINUOUS
 62
     2
100
AcDbText
 10
155.403381
 20
429.1
 30
0.0
 40
5.0
  1
６０
 41
0.672
  7
EXCADSTD
 72
     5
 11
162.736181
 21
429.1
 31
0.0
100
AcDbText
  0
LINE
  5
4AB
100
AcDbEntity
  8
LAY-6
  6
CONTINUOUS
 62
     1
100
AcDbLine
 10
189.403381
 20
407.113647
 30
0.0
 11
189.403381
 21
430.1
 31
0.0
  0
LINE
  5
4AC
100
AcDbEntity
  8
LAY-6
  6
CONTINUOUS
 62
     1
100
AcDbLine
 10
129.403381
 20
428.6
 30
0.0
 11
189.403381
 21
428.6
 31
0.0
  0
LINE
  5
4AD
100
AcDbEntity
  8
LAY-6
  6
CONTINUOUS
 62
     1
100
AcDbLine
 10
132.403381
 20
429.1
 30
0.0
 11
129.403381
 21
428.6
 31
0.0
  0
LINE
  5
4AE
100
AcDbEntity
  8
LAY-6
  6
CONTINUOUS
 62
     1
100
AcDbLine
 10
129.403381
 20
428.6
 30
0.0
 11
132.403381
 21
428.1
 31
0.0
  0
LINE
  5
4AF
100
AcDbEntity
  8
LAY-6
  6
CONTINUOUS
 62
     1
100
AcDbLine
 10
186.403381
 20
428.1
 30
0.0
 11
189.403381
 21
428.6
 31
0.0
  0
LINE
  5
4B0
100
AcDbEntity
  8
LAY-6
  6
CONTINUOUS
 62
     1
100
AcDbLine
 10
189.403381
 20
428.6
 30
0.0
 11
186.403381
 21
429.1
 31
0.0
  0
TEXT
  5
4B1
100
AcDbEntity
  8
LAY-6
  6
CONTINUOUS
 62
     2
100
AcDbText
 10
123.403381
 20
436.4
 30
0.0
 40
5.0
  1
８
 41
0.672
  7
EXCADSTD
 72
     5
 11
126.603381
 21
436.4
 31
0.0
100
AcDbText
  0
LINE
  5
4B2
100
AcDbEntity
  8
LAY-6
  6
CONTINUOUS
 62
     1
100
AcDbLine
 10
121.403381
 20
412.113714
 30
0.0
 11
121.403381
 21
437.4
 31
0.0
  0
LINE
  5
4B3
100
AcDbEntity
  8
LAY-6
  6
CONTINUOUS
 62
     1
100
AcDbLine
 10
129.403381
 20
407.113647
 30
0.0
 11
129.403381
 21
437.4
 31
0.0
  0
LINE
  5
4B4
100
AcDbEntity
  8
LAY-6
  6
CONTINUOUS
 62
     1
100
AcDbLine
 10
121.403381
 20
435.9
 30
0.0
 11
129.403381
 21
435.9
 31
0.0
  0
LINE
  5
4B5
100
AcDbEntity
  8
LAY-6
  6
CONTINUOUS
 62
     1
100
AcDbLine
 10
124.403381
 20
436.4
 30
0.0
 11
121.403381
 21
435.9
 31
0.0
  0
LINE
  5
4B6
100
AcDbEntity
  8
LAY-6
  6
CONTINUOUS
 62
     1
100
AcDbLine
 10
121.403381
 20
435.9
 30
0.0
 11
124.403381
 21
435.4
 31
0.0
  0
LINE
  5
4B7
100
AcDbEntity
  8
LAY-6
  6
CONTINUOUS
 62
     1
100
AcDbLine
 10
126.403381
 20
435.4
 30
0.0
 11
129.403381
 21
435.9
 31
0.0
  0
LINE
  5
4B8
100
AcDbEntity
  8
LAY-6
  6
CONTINUOUS
 62
     1
100
AcDbLine
 10
129.403381
 20
435.9
 30
0.0
 11
126.403381
 21
436.4
 31
0.0
  0
TEXT
  5
4B9
100
AcDbEntity
  8
LAY-6
  6
CONTINUOUS
 62
     2
100
AcDbText
 10
128.903381
 20
419.9
 30
0.0
 40
5.0
  1
(
 41
0.4
  7
EXCADSTD
 72
     5
 11
130.203381
 21
419.9
 31
0.0
100
AcDbText
  0
TEXT
  5
4BA
100
AcDbEntity
  8
LAY-6
  6
CONTINUOUS
 62
     2
100
AcDbText
 10
130.903381
 20
419.9
 30
0.0
 40
5.0
  1
１０
 41
0.672
  7
EXCADSTD
 72
     5
 11
138.236181
 21
419.9
 31
0.0
100
AcDbText
  0
TEXT
  5
4BB
100
AcDbEntity
  8
LAY-6
  6
CONTINUOUS
 62
     2
100
AcDbText
 10
138.903381
 20
419.9
 30
0.0
 40
5.0
  1
)
 41
0.4
  7
EXCADSTD
 72
     5
 11
140.203381
 21
419.9
 31
0.0
100
AcDbText
  0
LINE
  5
4BC
100
AcDbEntity
  8
LAY-6
  6
CONTINUOUS
 62
     1
100
AcDbLine
 10
129.403381
 20
407.113647
 30
0.0
 11
129.403381
 21
420.9
 31
0.0
  0
LINE
  5
4BD
100
AcDbEntity
  8
LAY-6
  6
CONTINUOUS
 62
     1
100
AcDbLine
 10
139.403381
 20
404.113686
 30
0.0
 11
139.403381
 21
420.9
 31
0.0
  0
LINE
  5
4BE
100
AcDbEntity
  8
LAY-6
  6
CONTINUOUS
 62
     1
100
AcDbLine
 10
129.403381
 20
419.4
 30
0.0
 11
139.403381
 21
419.4
 31
0.0
  0
LINE
  5
4BF
100
AcDbEntity
  8
LAY-6
  6
CONTINUOUS
 62
     1
100
AcDbLine
 10
132.403381
 20
419.9
 30
0.0
 11
129.403381
 21
419.4
 31
0.0
  0
LINE
  5
4C0
100
AcDbEntity
  8
LAY-6
  6
CONTINUOUS
 62
     1
100
AcDbLine
 10
129.403381
 20
419.4
 30
0.0
 11
132.403381
 21
418.9
 31
0.0
  0
LINE
  5
4C1
100
AcDbEntity
  8
LAY-6
  6
CONTINUOUS
 62
     1
100
AcDbLine
 10
136.403381
 20
418.9
 30
0.0
 11
139.403381
 21
419.4
 31
0.0
  0
LINE
  5
4C2
100
AcDbEntity
  8
LAY-6
  6
CONTINUOUS
 62
     1
100
AcDbLine
 10
139.403381
 20
419.4
 30
0.0
 11
136.403381
 21
419.9
 31
0.0
  0
TEXT
  5
4C3
100
AcDbEntity
  8
LAY-6
  6
CONTINUOUS
 62
     2
100
AcDbText
 10
151.403381
 20
419.9
 30
0.0
 40
5.0
  1
（
 41
0.672
  7
EXCADSTD
 72
     5
 11
154.603381
 21
419.9
 31
0.0
100
AcDbText
  0
TEXT
  5
4C4
100
AcDbEntity
  8
LAY-6
  6
CONTINUOUS
 62
     2
100
AcDbText
 10
155.403381
 20
419.9
 30
0.0
 40
5.0
  1
４０
 41
0.672
  7
EXCADSTD
 72
     5
 11
162.736181
 21
419.9
 31
0.0
100
AcDbText
  0
TEXT
  5
4C5
100
AcDbEntity
  8
LAY-6
  6
CONTINUOUS
 62
     2
100
AcDbText
 10
163.403381
 20
419.9
 30
0.0
 40
5.0
  1
）
 41
0.672
  7
EXCADSTD
 72
     5
 11
166.603381
 21
419.9
 31
0.0
100
AcDbText
  0
LINE
  5
4C6
100
AcDbEntity
  8
LAY-6
  6
CONTINUOUS
 62
     1
100
AcDbLine
 10
179.403381
 20
404.113686
 30
0.0
 11
179.403381
 21
420.9
 31
0.0
  0
LINE
  5
4C7
100
AcDbEntity
  8
LAY-6
  6
CONTINUOUS
 62
     1
100
AcDbLine
 10
139.403381
 20
419.4
 30
0.0
 11
179.403381
 21
419.4
 31
0.0
  0
LINE
  5
4C8
100
AcDbEntity
  8
LAY-6
  6
CONTINUOUS
 62
     1
100
AcDbLine
 10
142.403381
 20
419.9
 30
0.0
 11
139.403381
 21
419.4
 31
0.0
  0
LINE
  5
4C9
100
AcDbEntity
  8
LAY-6
  6
CONTINUOUS
 62
     1
100
AcDbLine
 10
139.403381
 20
419.4
 30
0.0
 11
142.403381
 21
418.9
 31
0.0
  0
LINE
  5
4CA
100
AcDbEntity
  8
LAY-6
  6
CONTINUOUS
 62
     1
100
AcDbLine
 10
176.403381
 20
418.9
 30
0.0
 11
179.403381
 21
419.4
 31
0.0
  0
LINE
  5
4CB
100
AcDbEntity
  8
LAY-6
  6
CONTINUOUS
 62
     1
100
AcDbLine
 10
179.403381
 20
419.4
 30
0.0
 11
176.403381
 21
419.9
 31
0.0
  0
TEXT
  5
4CC
100
AcDbEntity
  8
LAY-6
  6
CONTINUOUS
 62
     2
100
AcDbText
 10
201.2
 20
365.1137
 30
0.0
 40
5.0
  1
（
 50
90.0
 41
0.672
  7
EXCADSTD
 72
     5
 11
201.2
 21
368.3137
 31
0.0
100
AcDbText
  0
TEXT
  5
4CD
100
AcDbEntity
  8
LAY-6
  6
CONTINUOUS
 62
     2
100
AcDbText
 10
201.2
 20
369.1137
 30
0.0
 40
5.0
  1
１３
 50
90.0
 41
0.672
  7
EXCADSTD
 72
     5
 11
201.2
 21
376.4465
 31
0.0
100
AcDbText
  0
TEXT
  5
4CE
100
AcDbEntity
  8
LAY-6
  6
CONTINUOUS
 62
     2
100
AcDbText
 10
201.2
 20
377.1137
 30
0.0
 40
5.0
  1
）
 50
90.0
 41
0.672
  7
EXCADSTD
 72
     5
 11
201.2
 21
380.3137
 31
0.0
100
AcDbText
  0
LINE
  5
4CF
100
AcDbEntity
  8
LAY-6
  6
CONTINUOUS
 62
     1
100
AcDbLine
 10
184.903381
 20
379.613686
 30
0.0
 11
203.2
 21
379.613686
 31
0.0
  0
LINE
  5
4D0
100
AcDbEntity
  8
LAY-6
  6
CONTINUOUS
 62
     1
100
AcDbLine
 10
201.7
 20
366.613714
 30
0.0
 11
201.7
 21
379.613686
 31
0.0
  0
LINE
  5
4D1
100
AcDbEntity
  8
LAY-6
  6
CONTINUOUS
 62
     1
100
AcDbLine
 10
201.366667
 20
368.613714
 30
0.0
 11
201.7
 21
366.613714
 31
0.0
  0
LINE
  5
4D2
100
AcDbEntity
  8
LAY-6
  6
CONTINUOUS
 62
     1
100
AcDbLine
 10
201.7
 20
366.613714
 30
0.0
 11
202.033333
 21
368.613714
 31
0.0
  0
LINE
  5
4D3
100
AcDbEntity
  8
LAY-6
  6
CONTINUOUS
 62
     1
100
AcDbLine
 10
202.033333
 20
377.613686
 30
0.0
 11
201.7
 21
379.613686
 31
0.0
  0
LINE
  5
4D4
100
AcDbEntity
  8
LAY-6
  6
CONTINUOUS
 62
     1
100
AcDbLine
 10
201.7
 20
379.613686
 30
0.0
 11
201.366667
 21
377.613686
 31
0.0
  0
TEXT
  5
4D5
100
AcDbEntity
  8
LAY-6
  6
CONTINUOUS
 62
     2
100
AcDbText
 10
201.2
 20
381.113686
 30
0.0
 40
5.0
  1
（
 50
90.0
 41
0.672
  7
EXCADSTD
 72
     5
 11
201.2
 21
384.313686
 31
0.0
100
AcDbText
  0
TEXT
  5
4D6
100
AcDbEntity
  8
LAY-6
  6
CONTINUOUS
 62
     2
100
AcDbText
 10
201.2
 20
385.113686
 30
0.0
 40
5.0
  1
１９
 50
90.0
 41
0.672
  7
EXCADSTD
 72
     5
 11
201.2
 21
392.446486
 31
0.0
100
AcDbText
  0
TEXT
  5
4D7
100
AcDbEntity
  8
LAY-6
  6
CONTINUOUS
 62
     2
100
AcDbText
 10
201.2
 20
393.113686
 30
0.0
 40
5.0
  1
）
 50
90.0
 41
0.672
  7
EXCADSTD
 72
     5
 11
201.2
 21
396.313686
 31
0.0
100
AcDbText
  0
LINE
  5
4D8
100
AcDbEntity
  8
LAY-6
  6
CONTINUOUS
 62
     1
100
AcDbLine
 10
184.903381
 20
398.613686
 30
0.0
 11
203.2
 21
398.613686
 31
0.0
  0
LINE
  5
4D9
100
AcDbEntity
  8
LAY-6
  6
CONTINUOUS
 62
     1
100
AcDbLine
 10
201.7
 20
379.613686
 30
0.0
 11
201.7
 21
398.613686
 31
0.0
  0
LINE
  5
4DA
100
AcDbEntity
  8
LAY-6
  6
CONTINUOUS
 62
     1
100
AcDbLine
 10
201.2
 20
382.613686
 30
0.0
 11
201.7
 21
379.613686
 31
0.0
  0
LINE
  5
4DB
100
AcDbEntity
  8
LAY-6
  6
CONTINUOUS
 62
     1
100
AcDbLine
 10
201.7
 20
379.613686
 30
0.0
 11
202.2
 21
382.613686
 31
0.0
  0
LINE
  5
4DC
100
AcDbEntity
  8
LAY-6
  6
CONTINUOUS
 62
     1
100
AcDbLine
 10
202.2
 20
395.613686
 30
0.0
 11
201.7
 21
398.613686
 31
0.0
  0
LINE
  5
4DD
100
AcDbEntity
  8
LAY-6
  6
CONTINUOUS
 62
     1
100
AcDbLine
 10
201.7
 20
398.613686
 30
0.0
 11
201.2
 21
395.613686
 31
0.0
  0
TEXT
  5
4DE
100
AcDbEntity
  8
LAY-6
  6
CONTINUOUS
 62
     2
100
AcDbText
 10
198.0
 20
431.6
 30
0.0
 40
5.0
  1
４－Ｍ５×２０皿小ネジ(P=0.8)(別途)
 41
0.576198
  7
EXCADSTD
 72
     5
 11
268.0
 21
431.6
 31
0.0
100
AcDbText
  0
POLYLINE
  5
4DF
100
AcDbEntity
  8
LAY-6
  6
CONTINUOUS
 62
     1
100
AcDb2dPolyline
 66
     1
 10
0.0
 20
0.0
 30
0.0
 70
   128
  0
VERTEX
  5
4E0
100
AcDbEntity
  8
LAY-6
  6
CONTINUOUS
 62
     1
100
AcDbVertex
100
AcDb2dVertex
 10
180.572993
 20
400.823213
 30
0.0
  0
VERTEX
  5
4E1
100
AcDbEntity
  8
LAY-6
  6
CONTINUOUS
 62
     1
100
AcDbVertex
100
AcDb2dVertex
 10
196.6
 20
431.1
 30
0.0
  0
VERTEX
  5
4E2
100
AcDbEntity
  8
LAY-6
  6
CONTINUOUS
 62
     1
100
AcDbVertex
100
AcDb2dVertex
 10
269.4
 20
431.1
 30
0.0
  0
SEQEND
  5
4E3
100
AcDbEntity
  8
LAY-6
  6
CONTINUOUS
 62
     1
  0
LINE
  5
4E4
100
AcDbEntity
  8
LAY-6
  6
CONTINUOUS
 62
     1
100
AcDbLine
 10
181.214079
 20
402.746782
 30
0.0
 11
180.572993
 21
400.823213
 31
0.0
  0
LINE
  5
4E5
100
AcDbEntity
  8
LAY-6
  6
CONTINUOUS
 62
     1
100
AcDbLine
 10
180.572993
 20
400.823213
 30
0.0
 11
181.803286
 21
402.434885
 31
0.0
  0
INSERT
  5
4E6
100
AcDbEntity
  8
LAY-6
  6
CONTINUOUS
 62
     0
100
AcDbBlockReference
  2
SYM-3
 10
92.0
 20
284.0
 30
0.0
  0
INSERT
  5
4E7
100
AcDbEntity
  8
LAY-6
  6
CONTINUOUS
 62
     0
100
AcDbBlockReference
  2
SYM-4
 10
327.0
 20
292.0
 30
0.0
  0
TEXT
  5
4E8
100
AcDbEntity
  8
LAY-6
  6
CONTINUOUS
 62
     2
100
AcDbText
 10
337.903381
 20
276.0
 30
0.0
 40
5.0
  1
３
 41
0.672
  7
EXCADSTD
 72
     5
 11
341.103381
 21
276.0
 31
0.0
100
AcDbText
  0
LINE
  5
4E9
100
AcDbEntity
  8
LAY-6
  6
CONTINUOUS
 62
     1
100
AcDbLine
 10
341.403381
 20
231.4
 30
0.0
 11
341.403381
 21
277.0
 31
0.0
  0
LINE
  5
4EA
100
AcDbEntity
  8
LAY-6
  6
CONTINUOUS
 62
     1
100
AcDbLine
 10
333.403381
 20
275.5
 30
0.0
 11
341.403381
 21
275.5
 31
0.0
  0
LINE
  5
4EB
100
AcDbEntity
  8
LAY-6
  6
CONTINUOUS
 62
     1
100
AcDbLine
 10
335.403381
 20
275.0
 30
0.0
 11
338.403381
 21
275.5
 31
0.0
  0
LINE
  5
4EC
100
AcDbEntity
  8
LAY-6
  6
CONTINUOUS
 62
     1
100
AcDbLine
 10
338.403381
 20
275.5
 30
0.0
 11
335.403381
 21
276.0
 31
0.0
  0
TEXT
  5
4ED
100
AcDbEntity
  8
LAY-6
  6
CONTINUOUS
 62
     2
100
AcDbText
 10
341.903381
 20
276.0
 30
0.0
 40
5.0
  1
５
 41
0.672
  7
EXCADSTD
 72
     5
 11
345.103381
 21
276.0
 31
0.0
100
AcDbText
  0
LINE
  5
4EE
100
AcDbEntity
  8
LAY-6
  6
CONTINUOUS
 62
     1
100
AcDbLine
 10
341.403381
 20
275.5
 30
0.0
 11
346.403381
 21
275.5
 31
0.0
  0
CIRCLE
  5
4EF
100
AcDbEntity
  8
LAY-6
  6
CONTINUOUS
 62
     1
100
AcDbCircle
 10
341.403381
 20
275.5
 30
0.0
 40
1.0
  0
CIRCLE
  5
4F0
100
AcDbEntity
  8
LAY-6
  6
CONTINUOUS
 62
     1
100
AcDbCircle
 10
341.403381
 20
275.5
 30
0.0
 40
0.5
  0
LINE
  5
4F1
100
AcDbEntity
  8
LAY-6
  6
CONTINUOUS
 62
     1
100
AcDbLine
 10
406.403381
 20
257.06131
 30
0.0
 11
406.403381
 21
277.0
 31
0.0
  0
LINE
  5
4F2
100
AcDbEntity
  8
LAY-6
  6
CONTINUOUS
 62
     1
100
AcDbLine
 10
346.403381
 20
275.5
 30
0.0
 11
406.403381
 21
275.5
 31
0.0
  0
LINE
  5
4F3
100
AcDbEntity
  8
LAY-6
  6
CONTINUOUS
 62
     1
100
AcDbLine
 10
349.403381
 20
276.0
 30
0.0
 11
346.403381
 21
275.5
 31
0.0
  0
LINE
  5
4F4
100
AcDbEntity
  8
LAY-6
  6
CONTINUOUS
 62
     1
100
AcDbLine
 10
346.403381
 20
275.5
 30
0.0
 11
349.403381
 21
275.0
 31
0.0
  0
LINE
  5
4F5
100
AcDbEntity
  8
LAY-6
  6
CONTINUOUS
 62
     1
100
AcDbLine
 10
403.403381
 20
275.0
 30
0.0
 11
406.403381
 21
275.5
 31
0.0
  0
LINE
  5
4F6
100
AcDbEntity
  8
LAY-6
  6
CONTINUOUS
 62
     1
100
AcDbLine
 10
406.403381
 20
275.5
 30
0.0
 11
403.403381
 21
276.0
 31
0.0
  0
TEXT
  5
4F7
100
AcDbEntity
  8
LAY-6
  6
CONTINUOUS
 62
     2
100
AcDbText
 10
372.403381
 20
276.0
 30
0.0
 40
5.0
  1
６０
 41
0.672
  7
EXCADSTD
 72
     5
 11
379.736181
 21
276.0
 31
0.0
100
AcDbText
  0
LINE
  5
4F8
100
AcDbEntity
  8
LAY-6
  6
CONTINUOUS
 62
     1
100
AcDbLine
 10
338.403381
 20
262.061285
 30
0.0
 11
338.403381
 21
283.6
 31
0.0
  0
LINE
  5
4F9
100
AcDbEntity
  8
LAY-6
  6
CONTINUOUS
 62
     1
100
AcDbLine
 10
346.403381
 20
257.06134
 30
0.0
 11
346.403381
 21
283.6
 31
0.0
  0
LINE
  5
4FA
100
AcDbEntity
  8
LAY-6
  6
CONTINUOUS
 62
     1
100
AcDbLine
 10
338.403381
 20
282.1
 30
0.0
 11
346.403381
 21
282.1
 31
0.0
  0
LINE
  5
4FB
100
AcDbEntity
  8
LAY-6
  6
CONTINUOUS
 62
     1
100
AcDbLine
 10
341.403381
 20
282.6
 30
0.0
 11
338.403381
 21
282.1
 31
0.0
  0
LINE
  5
4FC
100
AcDbEntity
  8
LAY-6
  6
CONTINUOUS
 62
     1
100
AcDbLine
 10
338.403381
 20
282.1
 30
0.0
 11
341.403381
 21
281.6
 31
0.0
  0
LINE
  5
4FD
100
AcDbEntity
  8
LAY-6
  6
CONTINUOUS
 62
     1
100
AcDbLine
 10
343.403381
 20
281.6
 30
0.0
 11
346.403381
 21
282.1
 31
0.0
  0
LINE
  5
4FE
100
AcDbEntity
  8
LAY-6
  6
CONTINUOUS
 62
     1
100
AcDbLine
 10
346.403381
 20
282.1
 30
0.0
 11
343.403381
 21
282.6
 31
0.0
  0
TEXT
  5
4FF
100
AcDbEntity
  8
LAY-6
  6
CONTINUOUS
 62
     2
100
AcDbText
 10
340.403381
 20
282.6
 30
0.0
 40
5.0
  1
８
 41
0.672
  7
EXCADSTD
 72
     5
 11
343.603381
 21
282.6
 31
0.0
100
AcDbText
  0
LINE
  5
500
100
AcDbEntity
  8
LAY-6
  6
CONTINUOUS
 62
     1
100
AcDbLine
 10
356.403381
 20
254.061257
 30
0.0
 11
356.403381
 21
268.1
 31
0.0
  0
LINE
  5
501
100
AcDbEntity
  8
LAY-6
  6
CONTINUOUS
 62
     1
100
AcDbLine
 10
346.403381
 20
266.6
 30
0.0
 11
356.403381
 21
266.6
 31
0.0
  0
LINE
  5
502
100
AcDbEntity
  8
LAY-6
  6
CONTINUOUS
 62
     1
100
AcDbLine
 10
349.403381
 20
267.1
 30
0.0
 11
346.403381
 21
266.6
 31
0.0
  0
LINE
  5
503
100
AcDbEntity
  8
LAY-6
  6
CONTINUOUS
 62
     1
100
AcDbLine
 10
346.403381
 20
266.6
 30
0.0
 11
349.403381
 21
266.1
 31
0.0
  0
LINE
  5
504
100
AcDbEntity
  8
LAY-6
  6
CONTINUOUS
 62
     1
100
AcDbLine
 10
353.403381
 20
266.1
 30
0.0
 11
356.403381
 21
266.6
 31
0.0
  0
LINE
  5
505
100
AcDbEntity
  8
LAY-6
  6
CONTINUOUS
 62
     1
100
AcDbLine
 10
356.403381
 20
266.6
 30
0.0
 11
353.403381
 21
267.1
 31
0.0
  0
TEXT
  5
506
100
AcDbEntity
  8
LAY-6
  6
CONTINUOUS
 62
     2
100
AcDbText
 10
346.383381
 20
267.1
 30
0.0
 40
5.0
  1
(
 41
0.4
  7
EXCADSTD
 72
     5
 11
347.683381
 21
267.1
 31
0.0
100
AcDbText
  0
TEXT
  5
507
100
AcDbEntity
  8
LAY-6
  6
CONTINUOUS
 62
     2
100
AcDbText
 10
348.383381
 20
267.1
 30
0.0
 40
5.0
  1
１０
 41
0.672
  7
EXCADSTD
 72
     5
 11
355.716181
 21
267.1
 31
0.0
100
AcDbText
  0
TEXT
  5
508
100
AcDbEntity
  8
LAY-6
  6
CONTINUOUS
 62
     2
100
AcDbText
 10
356.383381
 20
267.1
 30
0.0
 40
5.0
  1
)
 41
0.4
  7
EXCADSTD
 72
     5
 11
357.683381
 21
267.1
 31
0.0
100
AcDbText
  0
TEXT
  5
509
100
AcDbEntity
  8
LAY-6
  6
CONTINUOUS
 62
     2
100
AcDbText
 10
368.403381
 20
267.1
 30
0.0
 40
5.0
  1
（
 41
0.672
  7
EXCADSTD
 72
     5
 11
371.603381
 21
267.1
 31
0.0
100
AcDbText
  0
TEXT
  5
50A
100
AcDbEntity
  8
LAY-6
  6
CONTINUOUS
 62
     2
100
AcDbText
 10
372.403381
 20
267.1
 30
0.0
 40
5.0
  1
４０
 41
0.672
  7
EXCADSTD
 72
     5
 11
379.736181
 21
267.1
 31
0.0
100
AcDbText
  0
TEXT
  5
50B
100
AcDbEntity
  8
LAY-6
  6
CONTINUOUS
 62
     2
100
AcDbText
 10
380.403381
 20
267.1
 30
0.0
 40
5.0
  1
）
 41
0.672
  7
EXCADSTD
 72
     5
 11
383.603381
 21
267.1
 31
0.0
100
AcDbText
  0
LINE
  5
50C
100
AcDbEntity
  8
LAY-6
  6
CONTINUOUS
 62
     1
100
AcDbLine
 10
396.403381
 20
254.061257
 30
0.0
 11
396.403381
 21
268.1
 31
0.0
  0
LINE
  5
50D
100
AcDbEntity
  8
LAY-6
  6
CONTINUOUS
 62
     1
100
AcDbLine
 10
356.403381
 20
266.6
 30
0.0
 11
396.403381
 21
266.6
 31
0.0
  0
LINE
  5
50E
100
AcDbEntity
  8
LAY-6
  6
CONTINUOUS
 62
     1
100
AcDbLine
 10
359.403381
 20
267.1
 30
0.0
 11
356.403381
 21
266.6
 31
0.0
  0
LINE
  5
50F
100
AcDbEntity
  8
LAY-6
  6
CONTINUOUS
 62
     1
100
AcDbLine
 10
356.403381
 20
266.6
 30
0.0
 11
359.403381
 21
266.1
 31
0.0
  0
LINE
  5
510
100
AcDbEntity
  8
LAY-6
  6
CONTINUOUS
 62
     1
100
AcDbLine
 10
393.403381
 20
266.1
 30
0.0
 11
396.403381
 21
266.6
 31
0.0
  0
LINE
  5
511
100
AcDbEntity
  8
LAY-6
  6
CONTINUOUS
 62
     1
100
AcDbLine
 10
396.403381
 20
266.6
 30
0.0
 11
393.403381
 21
267.1
 31
0.0
  0
TEXT
  5
512
100
AcDbEntity
  8
LAY-6
  6
CONTINUOUS
 62
     2
100
AcDbText
 10
421.8
 20
218.861299
 30
0.0
 40
5.0
  1
(
 50
90.0
 41
0.38
  7
EXCADSTD
 72
     5
 11
421.8
 21
220.096299
 31
0.0
100
AcDbText
  0
TEXT
  5
513
100
AcDbEntity
  8
LAY-6
  6
CONTINUOUS
 62
     2
100
AcDbText
 10
421.8
 20
220.761299
 30
0.0
 40
5.0
  1
１０
 50
90.0
 41
0.6384
  7
EXCADSTD
 72
     5
 11
421.8
 21
227.727458
 31
0.0
100
AcDbText
  0
TEXT
  5
514
100
AcDbEntity
  8
LAY-6
  6
CONTINUOUS
 62
     2
100
AcDbText
 10
421.8
 20
228.361298
 30
0.0
 40
5.0
  1
)
 50
90.0
 41
0.38
  7
EXCADSTD
 72
     5
 11
421.8
 21
229.596298
 31
0.0
100
AcDbText
  0
LINE
  5
515
100
AcDbEntity
  8
LAY-6
  6
CONTINUOUS
 62
     1
100
AcDbLine
 10
401.903381
 20
229.561257
 30
0.0
 11
423.8
 21
229.561257
 31
0.0
  0
LINE
  5
516
100
AcDbEntity
  8
LAY-6
  6
CONTINUOUS
 62
     1
100
AcDbLine
 10
422.3
 20
219.56134
 30
0.0
 11
422.3
 21
229.561257
 31
0.0
  0
LINE
  5
517
100
AcDbEntity
  8
LAY-6
  6
CONTINUOUS
 62
     1
100
AcDbLine
 10
421.8
 20
222.56134
 30
0.0
 11
422.3
 21
219.56134
 31
0.0
  0
LINE
  5
518
100
AcDbEntity
  8
LAY-6
  6
CONTINUOUS
 62
     1
100
AcDbLine
 10
422.3
 20
219.56134
 30
0.0
 11
422.8
 21
222.56134
 31
0.0
  0
LINE
  5
519
100
AcDbEntity
  8
LAY-6
  6
CONTINUOUS
 62
     1
100
AcDbLine
 10
422.8
 20
226.561257
 30
0.0
 11
422.3
 21
229.561257
 31
0.0
  0
LINE
  5
51A
100
AcDbEntity
  8
LAY-6
  6
CONTINUOUS
 62
     1
100
AcDbLine
 10
422.3
 20
229.561257
 30
0.0
 11
421.8
 21
226.561257
 31
0.0
  0
TEXT
  5
51B
100
AcDbEntity
  8
LAY-6
  6
CONTINUOUS
 62
     2
100
AcDbText
 10
421.8
 20
231.061257
 30
0.0
 40
5.0
  1
（
 50
90.0
 41
0.672
  7
EXCADSTD
 72
     5
 11
421.8
 21
234.261257
 31
0.0
100
AcDbText
  0
TEXT
  5
51C
100
AcDbEntity
  8
LAY-6
  6
CONTINUOUS
 62
     2
100
AcDbText
 10
421.8
 20
235.061257
 30
0.0
 40
5.0
  1
１９
 50
90.0
 41
0.672
  7
EXCADSTD
 72
     5
 11
421.8
 21
242.394057
 31
0.0
100
AcDbText
  0
TEXT
  5
51D
100
AcDbEntity
  8
LAY-6
  6
CONTINUOUS
 62
     2
100
AcDbText
 10
421.8
 20
243.061257
 30
0.0
 40
5.0
  1
）
 50
90.0
 41
0.672
  7
EXCADSTD
 72
     5
 11
421.8
 21
246.261257
 31
0.0
100
AcDbText
  0
LINE
  5
51E
100
AcDbEntity
  8
LAY-6
  6
CONTINUOUS
 62
     1
100
AcDbLine
 10
401.903381
 20
248.561257
 30
0.0
 11
423.8
 21
248.561257
 31
0.0
  0
LINE
  5
51F
100
AcDbEntity
  8
LAY-6
  6
CONTINUOUS
 62
     1
100
AcDbLine
 10
422.3
 20
229.561257
 30
0.0
 11
422.3
 21
248.561257
 31
0.0
  0
LINE
  5
520
100
AcDbEntity
  8
LAY-6
  6
CONTINUOUS
 62
     1
100
AcDbLine
 10
421.8
 20
232.561257
 30
0.0
 11
422.3
 21
229.561257
 31
0.0
  0
LINE
  5
521
100
AcDbEntity
  8
LAY-6
  6
CONTINUOUS
 62
     1
100
AcDbLine
 10
422.3
 20
229.561257
 30
0.0
 11
422.8
 21
232.561257
 31
0.0
  0
LINE
  5
522
100
AcDbEntity
  8
LAY-6
  6
CONTINUOUS
 62
     1
100
AcDbLine
 10
422.8
 20
245.561257
 30
0.0
 11
422.3
 21
248.561257
 31
0.0
  0
LINE
  5
523
100
AcDbEntity
  8
LAY-6
  6
CONTINUOUS
 62
     1
100
AcDbLine
 10
422.3
 20
248.561257
 30
0.0
 11
421.8
 21
245.561257
 31
0.0
  0
TEXT
  5
524
100
AcDbEntity
  8
LAY-6
  6
CONTINUOUS
 62
     2
100
AcDbText
 10
416.0
 20
276.3
 30
0.0
 40
5.0
  1
４－Ｍ５×２０皿小ネジ(P=0.8)(別途)
 41
0.576198
  7
EXCADSTD
 72
     5
 11
486.0
 21
276.3
 31
0.0
100
AcDbText
  0
POLYLINE
  5
525
100
AcDbEntity
  8
LAY-6
  6
CONTINUOUS
 62
     1
100
AcDb2dPolyline
 66
     1
 10
0.0
 20
0.0
 30
0.0
 70
   128
  0
VERTEX
  5
526
100
AcDbEntity
  8
LAY-6
  6
CONTINUOUS
 62
     1
100
AcDbVertex
100
AcDb2dVertex
 10
397.75451
 20
250.664695
 30
0.0
  0
VERTEX
  5
527
100
AcDbEntity
  8
LAY-6
  6
CONTINUOUS
 62
     1
100
AcDbVertex
100
AcDb2dVertex
 10
413.9
 20
275.8
 30
0.0
  0
VERTEX
  5
528
100
AcDbEntity
  8
LAY-6
  6
CONTINUOUS
 62
     1
100
AcDbVertex
100
AcDb2dVertex
 10
488.1
 20
275.8
 30
0.0
  0
SEQEND
  5
529
100
AcDbEntity
  8
LAY-6
  6
CONTINUOUS
 62
     1
  0
LINE
  5
52A
100
AcDbEntity
  8
LAY-6
  6
CONTINUOUS
 62
     1
100
AcDbLine
 10
398.554955
 20
252.527596
 30
0.0
 11
397.75451
 21
250.664695
 31
0.0
  0
LINE
  5
52B
100
AcDbEntity
  8
LAY-6
  6
CONTINUOUS
 62
     1
100
AcDbLine
 10
397.75451
 20
250.664695
 30
0.0
 11
399.115871
 21
252.167295
 31
0.0
  0
POLYLINE
  5
52C
100
AcDbEntity
  8
LAY-6
  6
CONTINUOUS
 62
     1
100
AcDb2dPolyline
 66
     1
 10
0.0
 20
0.0
 30
0.0
 70
   128
  0
VERTEX
  5
52D
100
AcDbEntity
  8
LAY-6
  6
CONTINUOUS
 62
     1
100
AcDbVertex
100
AcDb2dVertex
 10
644.577295
 20
402.815247
 30
0.0
  0
VERTEX
  5
52E
100
AcDbEntity
  8
LAY-6
  6
CONTINUOUS
 62
     1
100
AcDbVertex
100
AcDb2dVertex
 10
623.8
 20
418.5
 30
0.0
  0
VERTEX
  5
52F
100
AcDbEntity
  8
LAY-6
  6
CONTINUOUS
 62
     1
100
AcDbVertex
100
AcDb2dVertex
 10
606.0
 20
418.5
 30
0.0
  0
SEQEND
  5
530
100
AcDbEntity
  8
LAY-6
  6
CONTINUOUS
 62
     1
  0
LINE
  5
531
100
AcDbEntity
  8
LAY-6
  6
CONTINUOUS
 62
     1
100
AcDbLine
 10
642.780223
 20
403.754206
 30
0.0
 11
644.577295
 21
402.815247
 31
0.0
  0
LINE
  5
532
100
AcDbEntity
  8
LAY-6
  6
CONTINUOUS
 62
     1
100
AcDbLine
 10
644.577295
 20
402.815247
 30
0.0
 11
643.181889
 21
404.286285
 31
0.0
  0
LINE
  5
533
100
AcDbEntity
  8
LAY-6
  6
CONTINUOUS
 62
     1
100
AcDbLine
 10
643.727295
 20
382.315222
 30
0.0
 11
656.227295
 21
382.315222
 31
0.0
  0
LINE
  5
534
100
AcDbEntity
  8
LAY-6
  6
CONTINUOUS
 62
     1
100
AcDbLine
 10
646.727295
 20
382.815222
 30
0.0
 11
643.727295
 21
382.315222
 31
0.0
  0
LINE
  5
535
100
AcDbEntity
  8
LAY-6
  6
CONTINUOUS
 62
     1
100
AcDbLine
 10
643.727295
 20
382.315222
 30
0.0
 11
646.727295
 21
381.815222
 31
0.0
  0
LINE
  5
536
100
AcDbEntity
  8
LAY-6
  6
CONTINUOUS
 62
     1
100
AcDbLine
 10
653.227295
 20
381.815222
 30
0.0
 11
656.227295
 21
382.315222
 31
0.0
  0
LINE
  5
537
100
AcDbEntity
  8
LAY-6
  6
CONTINUOUS
 62
     1
100
AcDbLine
 10
656.227295
 20
382.315222
 30
0.0
 11
653.227295
 21
382.815222
 31
0.0
  0
TEXT
  5
538
100
AcDbEntity
  8
LAY-6
  6
CONTINUOUS
 62
     2
100
AcDbText
 10
631.15
 20
340.1
 30
0.0
 40
5.0
  1
φ
 41
0.672
  7
EXCADSTD
 72
     5
 11
634.35
 21
340.1
 31
0.0
100
AcDbText
  0
TEXT
  5
539
100
AcDbEntity
  8
LAY-6
  6
CONTINUOUS
 62
     2
100
AcDbText
 10
635.15
 20
340.1
 30
0.0
 40
5.0
  1
１２.５
 41
0.616
  7
EXCADSTD
 72
     5
 11
649.15
 21
340.1
 31
0.0
100
AcDbText
  0
POLYLINE
  5
53A
100
AcDbEntity
  8
LAY-6
  6
CONTINUOUS
 62
     1
100
AcDb2dPolyline
 66
     1
 10
0.0
 20
0.0
 30
0.0
 70
   128
  0
VERTEX
  5
53B
100
AcDbEntity
  8
LAY-6
  6
CONTINUOUS
 62
     1
100
AcDbVertex
100
AcDb2dVertex
 10
649.977295
 20
382.315222
 30
0.0
  0
VERTEX
  5
53C
100
AcDbEntity
  8
LAY-6
  6
CONTINUOUS
 62
     1
100
AcDbVertex
100
AcDb2dVertex
 10
627.9
 20
339.6
 30
0.0
  0
VERTEX
  5
53D
100
AcDbEntity
  8
LAY-6
  6
CONTINUOUS
 62
     1
100
AcDbVertex
100
AcDb2dVertex
 10
649.2
 20
339.6
 30
0.0
  0
SEQEND
  5
53E
100
AcDbEntity
  8
LAY-6
  6
CONTINUOUS
 62
     1
  0
TEXT
  5
53F
100
AcDbEntity
  8
LAY-6
  6
CONTINUOUS
 62
     2
100
AcDbText
 10
621.1
 20
332.4
 30
0.0
 40
5.0
  1
４－Ｍ６×２０皿小ネジ
 50
359.706679
 41
0.672
  7
EXCADSTD
 72
     5
 11
665.099423
 21
332.174747
 31
0.0
100
AcDbText
  0
TEXT
  5
540
100
AcDbEntity
  8
LAY-6
  6
CONTINUOUS
 62
     2
100
AcDbText
 10
334.0
 20
87.0
 30
0.0
 40
9.0
  1
■タップ型(①④タ ップ穴加工付)は品番の後にＴＡＰを付けて下さい。(オプション)　発注例：１２ＡＴ ＴＡＰ
 41
0.651808
  7
EXCADSTD
 72
     5
 11
697.59999
 21
87.0
 31
0.0
100
AcDbText
  0
TEXT
  5
541
100
AcDbEntity
  8
LAY-6
  6
CONTINUOUS
 62
     2
100
AcDbText
 10
334.0
 20
78.0
 30
0.0
 40
9.0
  1
　タップ穴は(　)内寸法をご参照下さい。
 41
0.65056
  7
EXCADSTD
 72
     5
 11
470.799996
 21
78.0
 31
0.0
100
AcDbText
  0
TEXT
  5
542
100
AcDbEntity
  8
LAY-6
  6
CONTINUOUS
 62
     2
100
AcDbText
 10
334.0
 20
69.0
 30
0.0
 40
9.0
  1
■①カバー３㎜伸ばしは品番の後に①Ｔを付けて下さい。(オプション)　発注例：１２ＡＴ ①Ｔ
 41
0.657849
  7
EXCADSTD
 72
     5
 11
647.199992
 21
69.0
 31
0.0
100
AcDbText
  0
LINE
  5
543
100
AcDbEntity
  8
LAY-9
  6
CONTINUOUS
 62
     1
100
AcDbLine
 10
716.874008
 20
385.415247
 30
0.0
 11
716.977295
 21
385.518534
 31
0.0
  0
LINE
  5
544
100
AcDbEntity
  8
LAY-9
  6
CONTINUOUS
 62
     1
100
AcDbLine
 10
680.104456
 20
385.415247
 30
0.0
 11
684.504395
 21
389.815186
 31
0.0
  0
LINE
  5
545
100
AcDbEntity
  8
LAY-9
  6
CONTINUOUS
 62
     1
100
AcDbLine
 10
682.932883
 20
385.415247
 30
0.0
 11
687.332822
 21
389.815186
 31
0.0
  0
LINE
  5
546
100
AcDbEntity
  8
LAY-9
  6
CONTINUOUS
 62
     1
100
AcDbLine
 10
706.731873
 20
385.415247
 30
0.0
 11
711.131812
 21
389.815186
 31
0.0
  0
LINE
  5
547
100
AcDbEntity
  8
LAY-9
  6
CONTINUOUS
 62
     1
100
AcDbLine
 10
709.5603
 20
385.415247
 30
0.0
 11
713.960239
 21
389.815186
 31
0.0
  0
LINE
  5
548
100
AcDbEntity
  8
LAY-9
  6
CONTINUOUS
 62
     1
100
AcDbLine
 10
683.718164
 20
368.315186
 30
0.0
 11
688.218183
 21
372.815205
 31
0.0
  0
LINE
  5
549
100
AcDbEntity
  8
LAY-9
  6
CONTINUOUS
 62
     1
100
AcDbLine
 10
686.546591
 20
368.315186
 30
0.0
 11
691.046608
 21
372.815203
 31
0.0
  0
LINE
  5
54A
100
AcDbEntity
  8
LAY-9
  6
CONTINUOUS
 62
     1
100
AcDbLine
 10
703.718164
 20
368.315186
 30
0.0
 11
708.218183
 21
372.815205
 31
0.0
  0
LINE
  5
54B
100
AcDbEntity
  8
LAY-9
  6
CONTINUOUS
 62
     1
100
AcDbLine
 10
706.546591
 20
368.315186
 30
0.0
 11
711.046608
 21
372.815203
 31
0.0
  0
LINE
  5
54C
100
AcDbEntity
  8
LAY-9
  6
CONTINUOUS
 62
     1
100
AcDbLine
 10
682.789337
 20
217.965515
 30
0.0
 11
687.289337
 21
222.465515
 31
0.0
  0
LINE
  5
54D
100
AcDbEntity
  8
LAY-9
  6
CONTINUOUS
 62
     1
100
AcDbLine
 10
685.617764
 20
217.965515
 30
0.0
 11
690.117764
 21
222.465515
 31
0.0
  0
LINE
  5
54E
100
AcDbEntity
  8
LAY-9
  6
CONTINUOUS
 62
     1
100
AcDbLine
 10
678.875664
 20
191.965551
 30
0.0
 11
685.275599
 21
198.365485
 31
0.0
  0
LINE
  5
54F
100
AcDbEntity
  8
LAY-9
  6
CONTINUOUS
 62
     1
100
AcDbLine
 10
681.704094
 20
191.965553
 30
0.0
 11
688.104026
 21
198.365485
 31
0.0
  0
LINE
  5
550
100
AcDbEntity
  8
LAY-9
  6
CONTINUOUS
 62
     1
100
AcDbLine
 10
705.503101
 20
191.96557
 30
0.0
 11
711.903016
 21
198.365485
 31
0.0
  0
LINE
  5
551
100
AcDbEntity
  8
LAY-9
  6
CONTINUOUS
 62
     1
100
AcDbLine
 10
708.33153
 20
191.965572
 30
0.0
 11
714.731443
 21
198.365485
 31
0.0
  0
LINE
  5
552
100
AcDbEntity
  8
LAY-9
  6
CONTINUOUS
 62
     1
100
AcDbLine
 10
702.789337
 20
217.965515
 30
0.0
 11
707.289337
 21
222.465515
 31
0.0
  0
LINE
  5
553
100
AcDbEntity
  8
LAY-9
  6
CONTINUOUS
 62
     1
100
AcDbLine
 10
705.617764
 20
217.965515
 30
0.0
 11
710.117764
 21
222.465515
 31
0.0
  0
LINE
  5
554
100
AcDbEntity
  8
LAY-9
  6
CONTINUOUS
 62
     1
100
AcDbLine
 10
341.403379
 20
373.091363
 30
0.0
 11
341.403375
 21
409.891363
 31
0.0
  0
LINE
  5
555
100
AcDbEntity
  8
LAY-9
  6
CONTINUOUS
 62
     1
100
AcDbLine
 10
343.003375
 20
411.491363
 30
0.0
 11
516.403375
 21
411.491363
 31
0.0
  0
ARC
  5
556
100
AcDbEntity
  8
LAY-9
  6
CONTINUOUS
 62
     1
100
AcDbCircle
 10
343.003375
 20
409.891363
 30
0.0
 40
1.6
100
AcDbArc
 50
90.0
 51
180.000006
  0
ARC
  5
557
100
AcDbEntity
  8
LAY-9
  6
CONTINUOUS
 62
     1
100
AcDbCircle
 10
343.003379
 20
373.091363
 30
0.0
 40
1.6
100
AcDbArc
 50
180.000006
 51
270.0
  0
POLYLINE
  5
558
100
AcDbEntity
  8
LAY-9
  6
CONTINUOUS
 62
     1
100
AcDb2dPolyline
 66
     1
 10
0.0
 20
0.0
 30
0.0
 70
   128
  0
VERTEX
  5
559
100
AcDbEntity
  8
LAY-9
  6
CONTINUOUS
 62
     1
100
AcDbVertex
100
AcDb2dVertex
 10
516.403375
 20
411.491363
 30
0.0
  0
VERTEX
  5
55A
100
AcDbEntity
  8
LAY-9
  6
CONTINUOUS
 62
     1
100
AcDbVertex
100
AcDb2dVertex
 10
516.442161
 20
411.409746
 30
0.0
  0
VERTEX
  5
55B
100
AcDbEntity
  8
LAY-9
  6
CONTINUOUS
 62
     1
100
AcDbVertex
100
AcDb2dVertex
 10
516.55093
 20
411.17667
 30
0.0
  0
VERTEX
  5
55C
100
AcDbEntity
  8
LAY-9
  6
CONTINUOUS
 62
     1
100
AcDbVertex
100
AcDb2dVertex
 10
516.718292
 20
410.809795
 30
0.0
  0
VERTEX
  5
55D
100
AcDbEntity
  8
LAY-9
  6
CONTINUOUS
 62
     1
100
AcDbVertex
100
AcDb2dVertex
 10
516.93286
 20
410.326783
 30
0.0
  0
VERTEX
  5
55E
100
AcDbEntity
  8
LAY-9
  6
CONTINUOUS
 62
     1
100
AcDbVertex
100
AcDb2dVertex
 10
517.183245
 20
409.745295
 30
0.0
  0
VERTEX
  5
55F
100
AcDbEntity
  8
LAY-9
  6
CONTINUOUS
 62
     1
100
AcDbVertex
100
AcDb2dVertex
 10
517.458059
 20
409.08299
 30
0.0
  0
VERTEX
  5
560
100
AcDbEntity
  8
LAY-9
  6
CONTINUOUS
 62
     1
100
AcDbVertex
100
AcDb2dVertex
 10
517.745914
 20
408.357532
 30
0.0
  0
VERTEX
  5
561
100
AcDbEntity
  8
LAY-9
  6
CONTINUOUS
 62
     1
100
AcDbVertex
100
AcDb2dVertex
 10
518.035423
 20
407.58658
 30
0.0
  0
VERTEX
  5
562
100
AcDbEntity
  8
LAY-9
  6
CONTINUOUS
 62
     1
100
AcDbVertex
100
AcDb2dVertex
 10
518.315197
 20
406.787795
 30
0.0
  0
VERTEX
  5
563
100
AcDbEntity
  8
LAY-9
  6
CONTINUOUS
 62
     1
100
AcDbVertex
100
AcDb2dVertex
 10
518.573847
 20
405.978839
 30
0.0
  0
VERTEX
  5
564
100
AcDbEntity
  8
LAY-9
  6
CONTINUOUS
 62
     1
100
AcDbVertex
100
AcDb2dVertex
 10
518.799987
 20
405.177373
 30
0.0
  0
VERTEX
  5
565
100
AcDbEntity
  8
LAY-9
  6
CONTINUOUS
 62
     1
100
AcDbVertex
100
AcDb2dVertex
 10
519.130892
 20
403.619982
 30
0.0
  0
VERTEX
  5
566
100
AcDbEntity
  8
LAY-9
  6
CONTINUOUS
 62
     1
100
AcDbVertex
100
AcDb2dVertex
 10
519.298625
 20
402.156852
 30
0.0
  0
VERTEX
  5
567
100
AcDbEntity
  8
LAY-9
  6
CONTINUOUS
 62
     1
100
AcDbVertex
100
AcDb2dVertex
 10
519.320971
 20
400.77857
 30
0.0
  0
VERTEX
  5
568
100
AcDbEntity
  8
LAY-9
  6
CONTINUOUS
 62
     1
100
AcDbVertex
100
AcDb2dVertex
 10
519.215714
 20
399.475724
 30
0.0
  0
VERTEX
  5
569
100
AcDbEntity
  8
LAY-9
  6
CONTINUOUS
 62
     1
100
AcDbVertex
100
AcDb2dVertex
 10
519.00064
 20
398.238901
 30
0.0
  0
VERTEX
  5
56A
100
AcDbEntity
  8
LAY-9
  6
CONTINUOUS
 62
     1
100
AcDbVertex
100
AcDb2dVertex
 10
518.693534
 20
397.05869
 30
0.0
  0
VERTEX
  5
56B
100
AcDbEntity
  8
LAY-9
  6
CONTINUOUS
 62
     1
100
AcDbVertex
100
AcDb2dVertex
 10
518.31218
 20
395.925678
 30
0.0
  0
VERTEX
  5
56C
100
AcDbEntity
  8
LAY-9
  6
CONTINUOUS
 62
     1
100
AcDbVertex
100
AcDb2dVertex
 10
517.874363
 20
394.830453
 30
0.0
  0
VERTEX
  5
56D
100
AcDbEntity
  8
LAY-9
  6
CONTINUOUS
 62
     1
100
AcDbVertex
100
AcDb2dVertex
 10
517.397869
 20
393.763602
 30
0.0
  0
VERTEX
  5
56E
100
AcDbEntity
  8
LAY-9
  6
CONTINUOUS
 62
     1
100
AcDbVertex
100
AcDb2dVertex
 10
516.900482
 20
392.715713
 30
0.0
  0
VERTEX
  5
56F
100
AcDbEntity
  8
LAY-9
  6
CONTINUOUS
 62
     1
100
AcDbVertex
100
AcDb2dVertex
 10
516.399987
 20
391.677373
 30
0.0
  0
VERTEX
  5
570
100
AcDbEntity
  8
LAY-9
  6
CONTINUOUS
 62
     1
100
AcDbVertex
100
AcDb2dVertex
 10
515.972727
 20
390.768516
 30
0.0
  0
VERTEX
  5
571
100
AcDbEntity
  8
LAY-9
  6
CONTINUOUS
 62
     1
100
AcDbVertex
100
AcDb2dVertex
 10
515.565266
 20
389.851545
 30
0.0
  0
VERTEX
  5
572
100
AcDbEntity
  8
LAY-9
  6
CONTINUOUS
 62
     1
100
AcDbVertex
100
AcDb2dVertex
 10
515.186155
 20
388.918239
 30
0.0
  0
VERTEX
  5
573
100
AcDbEntity
  8
LAY-9
  6
CONTINUOUS
 62
     1
100
AcDbVertex
100
AcDb2dVertex
 10
514.843945
 20
387.960379
 30
0.0
  0
VERTEX
  5
574
100
AcDbEntity
  8
LAY-9
  6
CONTINUOUS
 62
     1
100
AcDbVertex
100
AcDb2dVertex
 10
514.547186
 20
386.969745
 30
0.0
  0
VERTEX
  5
575
100
AcDbEntity
  8
LAY-9
  6
CONTINUOUS
 62
     1
100
AcDbVertex
100
AcDb2dVertex
 10
514.304431
 20
385.938117
 30
0.0
  0
VERTEX
  5
576
100
AcDbEntity
  8
LAY-9
  6
CONTINUOUS
 62
     1
100
AcDbVertex
100
AcDb2dVertex
 10
514.12423
 20
384.857275
 30
0.0
  0
VERTEX
  5
577
100
AcDbEntity
  8
LAY-9
  6
CONTINUOUS
 62
     1
100
AcDbVertex
100
AcDb2dVertex
 10
514.015133
 20
383.718999
 30
0.0
  0
VERTEX
  5
578
100
AcDbEntity
  8
LAY-9
  6
CONTINUOUS
 62
     1
100
AcDbVertex
100
AcDb2dVertex
 10
513.985694
 20
382.51507
 30
0.0
  0
VERTEX
  5
579
100
AcDbEntity
  8
LAY-9
  6
CONTINUOUS
 62
     1
100
AcDbVertex
100
AcDb2dVertex
 10
514.044461
 20
381.237268
 30
0.0
  0
VERTEX
  5
57A
100
AcDbEntity
  8
LAY-9
  6
CONTINUOUS
 62
     1
100
AcDbVertex
100
AcDb2dVertex
 10
514.199987
 20
379.877373
 30
0.0
  0
VERTEX
  5
57B
100
AcDbEntity
  8
LAY-9
  6
CONTINUOUS
 62
     1
100
AcDbVertex
100
AcDb2dVertex
 10
514.374736
 20
378.844078
 30
0.0
  0
VERTEX
  5
57C
100
AcDbEntity
  8
LAY-9
  6
CONTINUOUS
 62
     1
100
AcDbVertex
100
AcDb2dVertex
 10
514.591975
 20
377.788986
 30
0.0
  0
VERTEX
  5
57D
100
AcDbEntity
  8
LAY-9
  6
CONTINUOUS
 62
     1
100
AcDbVertex
100
AcDb2dVertex
 10
514.839245
 20
376.737425
 30
0.0
  0
VERTEX
  5
57E
100
AcDbEntity
  8
LAY-9
  6
CONTINUOUS
 62
     1
100
AcDbVertex
100
AcDb2dVertex
 10
515.104086
 20
375.714722
 30
0.0
  0
VERTEX
  5
57F
100
AcDbEntity
  8
LAY-9
  6
CONTINUOUS
 62
     1
100
AcDbVertex
100
AcDb2dVertex
 10
515.37404
 20
374.746205
 30
0.0
  0
VERTEX
  5
580
100
AcDbEntity
  8
LAY-9
  6
CONTINUOUS
 62
     1
100
AcDbVertex
100
AcDb2dVertex
 10
515.636645
 20
373.857202
 30
0.0
  0
VERTEX
  5
581
100
AcDbEntity
  8
LAY-9
  6
CONTINUOUS
 62
     1
100
AcDbVertex
100
AcDb2dVertex
 10
515.879444
 20
373.07304
 30
0.0
  0
VERTEX
  5
582
100
AcDbEntity
  8
LAY-9
  6
CONTINUOUS
 62
     1
100
AcDbVertex
100
AcDb2dVertex
 10
516.089976
 20
372.419048
 30
0.0
  0
VERTEX
  5
583
100
AcDbEntity
  8
LAY-9
  6
CONTINUOUS
 62
     1
100
AcDbVertex
100
AcDb2dVertex
 10
516.255783
 20
371.920553
 30
0.0
  0
VERTEX
  5
584
100
AcDbEntity
  8
LAY-9
  6
CONTINUOUS
 62
     1
100
AcDbVertex
100
AcDb2dVertex
 10
516.364403
 20
371.602882
 30
0.0
  0
VERTEX
  5
585
100
AcDbEntity
  8
LAY-9
  6
CONTINUOUS
 62
     1
100
AcDbVertex
100
AcDb2dVertex
 10
516.403379
 20
371.491363
 30
0.0
  0
SEQEND
  5
586
100
AcDbEntity
  8
LAY-9
  6
CONTINUOUS
 62
     1
  0
LINE
  5
587
100
AcDbEntity
  8
LAY-9
  6
CONTINUOUS
 62
     1
100
AcDbLine
 10
338.403381
 20
218.161285
 30
0.0
 11
338.403381
 21
261.561285
 31
0.0
  0
LINE
  5
588
100
AcDbEntity
  8
LAY-9
  6
CONTINUOUS
 62
     1
100
AcDbLine
 10
338.403381
 20
261.561285
 30
0.0
 11
351.803381
 21
261.561285
 31
0.0
  0
LINE
  5
589
100
AcDbEntity
  8
LAY-9
  6
CONTINUOUS
 62
     1
100
AcDbLine
 10
313.403381
 20
221.161285
 30
0.0
 11
313.403381
 21
234.561285
 31
0.0
  0
LINE
  5
58A
100
AcDbEntity
  8
LAY-9
  6
CONTINUOUS
 62
     1
100
AcDbLine
 10
313.403381
 20
234.561285
 30
0.0
 11
315.003381
 21
234.561285
 31
0.0
  0
LINE
  5
58B
100
AcDbEntity
  8
LAY-9
  6
CONTINUOUS
 62
     1
100
AcDbLine
 10
315.003381
 20
221.161285
 30
0.0
 11
336.803381
 21
221.161285
 31
0.0
  0
LINE
  5
58C
100
AcDbEntity
  8
LAY-9
  6
CONTINUOUS
 62
     1
100
AcDbLine
 10
336.803381
 20
221.161285
 30
0.0
 11
336.803381
 21
261.561285
 31
0.0
  0
LINE
  5
58D
100
AcDbEntity
  8
LAY-9
  6
CONTINUOUS
 62
     1
100
AcDbLine
 10
338.403381
 20
263.161285
 30
0.0
 11
351.803381
 21
263.161285
 31
0.0
  0
LINE
  5
58E
100
AcDbEntity
  8
LAY-9
  6
CONTINUOUS
 62
     1
100
AcDbLine
 10
315.003381
 20
234.561285
 30
0.0
 11
315.003381
 21
221.161285
 31
0.0
  0
ARC
  5
58F
100
AcDbEntity
  8
LAY-9
  6
CONTINUOUS
 62
     1
100
AcDbCircle
 10
351.803381
 20
263.161285
 30
0.0
 40
1.6
100
AcDbArc
 50
270.0
 51
0.0
  0
ARC
  5
590
100
AcDbEntity
  8
LAY-9
  6
CONTINUOUS
 62
     1
100
AcDbCircle
 10
338.403381
 20
261.561285
 30
0.0
 40
1.6
100
AcDbArc
 50
90.0
 51
180.0
  0
ARC
  5
591
100
AcDbEntity
  8
LAY-9
  6
CONTINUOUS
 62
     1
100
AcDbCircle
 10
336.803381
 20
221.161285
 30
0.0
 40
1.6
100
AcDbArc
 50
270.0
 51
0.0
  0
ARC
  5
592
100
AcDbEntity
  8
LAY-9
  6
CONTINUOUS
 62
     1
100
AcDbCircle
 10
315.003381
 20
221.161285
 30
0.0
 40
1.6
100
AcDbArc
 50
180.0
 51
270.0
  0
LINE
  5
593
100
AcDbEntity
  8
LAY-9
  6
CONTINUOUS
 62
     1
100
AcDbLine
 10
471.3
 20
219.561285
 30
0.0
 11
411.403412
 21
219.561285
 31
0.0
  0
LINE
  5
594
100
AcDbEntity
  8
LAY-9
  6
CONTINUOUS
 62
     1
100
AcDbLine
 10
346.403381
 20
219.561285
 30
0.0
 11
315.003381
 21
219.561285
 31
0.0
  0
POLYLINE
  5
595
100
AcDbEntity
  8
LAY-9
  6
CONTINUOUS
 62
     1
100
AcDb2dPolyline
 66
     1
 10
0.0
 20
0.0
 30
0.0
 70
   128
  0
VERTEX
  5
596
100
AcDbEntity
  8
LAY-9
  6
CONTINUOUS
 62
     1
100
AcDbVertex
100
AcDb2dVertex
 10
471.3
 20
260.561285
 30
0.0
  0
VERTEX
  5
597
100
AcDbEntity
  8
LAY-9
  6
CONTINUOUS
 62
     1
100
AcDbVertex
100
AcDb2dVertex
 10
471.3538
 20
260.43135
 30
0.0
  0
VERTEX
  5
598
100
AcDbEntity
  8
LAY-9
  6
CONTINUOUS
 62
     1
100
AcDbVertex
100
AcDb2dVertex
 10
471.502938
 20
260.06174
 30
0.0
  0
VERTEX
  5
599
100
AcDbEntity
  8
LAY-9
  6
CONTINUOUS
 62
     1
100
AcDbVertex
100
AcDb2dVertex
 10
471.729016
 20
259.482743
 30
0.0
  0
VERTEX
  5
59A
100
AcDbEntity
  8
LAY-9
  6
CONTINUOUS
 62
     1
100
AcDbVertex
100
AcDb2dVertex
 10
472.01364
 20
258.724648
 30
0.0
  0
VERTEX
  5
59B
100
AcDbEntity
  8
LAY-9
  6
CONTINUOUS
 62
     1
100
AcDbVertex
100
AcDb2dVertex
 10
472.338412
 20
257.817746
 30
0.0
  0
VERTEX
  5
59C
100
AcDbEntity
  8
LAY-9
  6
CONTINUOUS
 62
     1
100
AcDbVertex
100
AcDb2dVertex
 10
472.684937
 20
256.792325
 30
0.0
  0
VERTEX
  5
59D
100
AcDbEntity
  8
LAY-9
  6
CONTINUOUS
 62
     1
100
AcDbVertex
100
AcDb2dVertex
 10
473.03482
 20
255.678675
 30
0.0
  0
VERTEX
  5
59E
100
AcDbEntity
  8
LAY-9
  6
CONTINUOUS
 62
     1
100
AcDbVertex
100
AcDb2dVertex
 10
473.369663
 20
254.507085
 30
0.0
  0
VERTEX
  5
59F
100
AcDbEntity
  8
LAY-9
  6
CONTINUOUS
 62
     1
100
AcDbVertex
100
AcDb2dVertex
 10
473.671072
 20
253.307844
 30
0.0
  0
VERTEX
  5
5A0
100
AcDbEntity
  8
LAY-9
  6
CONTINUOUS
 62
     1
100
AcDbVertex
100
AcDb2dVertex
 10
473.920649
 20
252.111242
 30
0.0
  0
VERTEX
  5
5A1
100
AcDbEntity
  8
LAY-9
  6
CONTINUOUS
 62
     1
100
AcDbVertex
100
AcDb2dVertex
 10
474.1
 20
250.947569
 30
0.0
  0
VERTEX
  5
5A2
100
AcDbEntity
  8
LAY-9
  6
CONTINUOUS
 62
     1
100
AcDbVertex
100
AcDb2dVertex
 10
474.200034
 20
249.728944
 30
0.0
  0
VERTEX
  5
5A3
100
AcDbEntity
  8
LAY-9
  6
CONTINUOUS
 62
     1
100
AcDbVertex
100
AcDb2dVertex
 10
474.201244
 20
248.580462
 30
0.0
  0
VERTEX
  5
5A4
100
AcDbEntity
  8
LAY-9
  6
CONTINUOUS
 62
     1
100
AcDbVertex
100
AcDb2dVertex
 10
474.112932
 20
247.495135
 30
0.0
  0
VERTEX
  5
5A5
100
AcDbEntity
  8
LAY-9
  6
CONTINUOUS
 62
     1
100
AcDbVertex
100
AcDb2dVertex
 10
473.944401
 20
246.465975
 30
0.0
  0
VERTEX
  5
5A6
100
AcDbEntity
  8
LAY-9
  6
CONTINUOUS
 62
     1
100
AcDbVertex
100
AcDb2dVertex
 10
473.704954
 20
245.485995
 30
0.0
  0
VERTEX
  5
5A7
100
AcDbEntity
  8
LAY-9
  6
CONTINUOUS
 62
     1
100
AcDbVertex
100
AcDb2dVertex
 10
473.403894
 20
244.548207
 30
0.0
  0
VERTEX
  5
5A8
100
AcDbEntity
  8
LAY-9
  6
CONTINUOUS
 62
     1
100
AcDbVertex
100
AcDb2dVertex
 10
473.050524
 20
243.645623
 30
0.0
  0
VERTEX
  5
5A9
100
AcDbEntity
  8
LAY-9
  6
CONTINUOUS
 62
     1
100
AcDbVertex
100
AcDb2dVertex
 10
472.654147
 20
242.771254
 30
0.0
  0
VERTEX
  5
5AA
100
AcDbEntity
  8
LAY-9
  6
CONTINUOUS
 62
     1
100
AcDbVertex
100
AcDb2dVertex
 10
472.224065
 20
241.918115
 30
0.0
  0
VERTEX
  5
5AB
100
AcDbEntity
  8
LAY-9
  6
CONTINUOUS
 62
     1
100
AcDbVertex
100
AcDb2dVertex
 10
471.769582
 20
241.079215
 30
0.0
  0
VERTEX
  5
5AC
100
AcDbEntity
  8
LAY-9
  6
CONTINUOUS
 62
     1
100
AcDbVertex
100
AcDb2dVertex
 10
471.3
 20
240.247569
 30
0.0
  0
VERTEX
  5
5AD
100
AcDbEntity
  8
LAY-9
  6
CONTINUOUS
 62
     1
100
AcDbVertex
100
AcDb2dVertex
 10
470.775892
 20
239.330476
 30
0.0
  0
VERTEX
  5
5AE
100
AcDbEntity
  8
LAY-9
  6
CONTINUOUS
 62
     1
100
AcDbVertex
100
AcDb2dVertex
 10
470.25861
 20
238.405843
 30
0.0
  0
VERTEX
  5
5AF
100
AcDbEntity
  8
LAY-9
  6
CONTINUOUS
 62
     1
100
AcDbVertex
100
AcDb2dVertex
 10
469.76203
 20
237.465808
 30
0.0
  0
VERTEX
  5
5B0
100
AcDbEntity
  8
LAY-9
  6
CONTINUOUS
 62
     1
100
AcDbVertex
100
AcDb2dVertex
 10
469.300031
 20
236.502508
 30
0.0
  0
VERTEX
  5
5B1
100
AcDbEntity
  8
LAY-9
  6
CONTINUOUS
 62
     1
100
AcDbVertex
100
AcDb2dVertex
 10
468.88649
 20
235.508082
 30
0.0
  0
VERTEX
  5
5B2
100
AcDbEntity
  8
LAY-9
  6
CONTINUOUS
 62
     1
100
AcDbVertex
100
AcDb2dVertex
 10
468.535284
 20
234.474666
 30
0.0
  0
VERTEX
  5
5B3
100
AcDbEntity
  8
LAY-9
  6
CONTINUOUS
 62
     1
100
AcDbVertex
100
AcDb2dVertex
 10
468.260291
 20
233.394399
 30
0.0
  0
VERTEX
  5
5B4
100
AcDbEntity
  8
LAY-9
  6
CONTINUOUS
 62
     1
100
AcDbVertex
100
AcDb2dVertex
 10
468.075388
 20
232.259418
 30
0.0
  0
VERTEX
  5
5B5
100
AcDbEntity
  8
LAY-9
  6
CONTINUOUS
 62
     1
100
AcDbVertex
100
AcDb2dVertex
 10
467.994454
 20
231.061861
 30
0.0
  0
VERTEX
  5
5B6
100
AcDbEntity
  8
LAY-9
  6
CONTINUOUS
 62
     1
100
AcDbVertex
100
AcDb2dVertex
 10
468.031365
 20
229.793865
 30
0.0
  0
VERTEX
  5
5B7
100
AcDbEntity
  8
LAY-9
  6
CONTINUOUS
 62
     1
100
AcDbVertex
100
AcDb2dVertex
 10
468.2
 20
228.447569
 30
0.0
  0
VERTEX
  5
5B8
100
AcDbEntity
  8
LAY-9
  6
CONTINUOUS
 62
     1
100
AcDbVertex
100
AcDb2dVertex
 10
468.424648
 20
227.355671
 30
0.0
  0
VERTEX
  5
5B9
100
AcDbEntity
  8
LAY-9
  6
CONTINUOUS
 62
     1
100
AcDbVertex
100
AcDb2dVertex
 10
468.717136
 20
226.23952
 30
0.0
  0
VERTEX
  5
5BA
100
AcDbEntity
  8
LAY-9
  6
CONTINUOUS
 62
     1
100
AcDbVertex
100
AcDb2dVertex
 10
469.058663
 20
225.126139
 30
0.0
  0
VERTEX
  5
5BB
100
AcDbEntity
  8
LAY-9
  6
CONTINUOUS
 62
     1
100
AcDbVertex
100
AcDb2dVertex
 10
469.430426
 20
224.042547
 30
0.0
  0
VERTEX
  5
5BC
100
AcDbEntity
  8
LAY-9
  6
CONTINUOUS
 62
     1
100
AcDbVertex
100
AcDb2dVertex
 10
469.813623
 20
223.015767
 30
0.0
  0
VERTEX
  5
5BD
100
AcDbEntity
  8
LAY-9
  6
CONTINUOUS
 62
     1
100
AcDbVertex
100
AcDb2dVertex
 10
470.189451
 20
222.072818
 30
0.0
  0
VERTEX
  5
5BE
100
AcDbEntity
  8
LAY-9
  6
CONTINUOUS
 62
     1
100
AcDbVertex
100
AcDb2dVertex
 10
470.53911
 20
221.240722
 30
0.0
  0
VERTEX
  5
5BF
100
AcDbEntity
  8
LAY-9
  6
CONTINUOUS
 62
     1
100
AcDbVertex
100
AcDb2dVertex
 10
470.843796
 20
220.5465
 30
0.0
  0
VERTEX
  5
5C0
100
AcDbEntity
  8
LAY-9
  6
CONTINUOUS
 62
     1
100
AcDbVertex
100
AcDb2dVertex
 10
471.084708
 20
220.017172
 30
0.0
  0
VERTEX
  5
5C1
100
AcDbEntity
  8
LAY-9
  6
CONTINUOUS
 62
     1
100
AcDbVertex
100
AcDb2dVertex
 10
471.243043
 20
219.67976
 30
0.0
  0
VERTEX
  5
5C2
100
AcDbEntity
  8
LAY-9
  6
CONTINUOUS
 62
     1
100
AcDbVertex
100
AcDb2dVertex
 10
471.3
 20
219.561285
 30
0.0
  0
SEQEND
  5
5C3
100
AcDbEntity
  8
LAY-9
  6
CONTINUOUS
 62
     1
  0
LINE
  5
5C4
100
AcDbEntity
  8
LAY-9
  6
CONTINUOUS
 62
     1
100
AcDbLine
 10
673.577295
 20
408.815247
 30
0.0
 11
686.977295
 21
408.815247
 31
0.0
  0
LINE
  5
5C5
100
AcDbEntity
  8
LAY-9
  6
CONTINUOUS
 62
     1
100
AcDbLine
 10
686.977295
 20
408.815247
 30
0.0
 11
686.977295
 21
407.215247
 31
0.0
  0
LINE
  5
5C6
100
AcDbEntity
  8
LAY-9
  6
CONTINUOUS
 62
     1
100
AcDbLine
 10
673.577295
 20
383.815247
 30
0.0
 11
716.977295
 21
383.815247
 31
0.0
  0
LINE
  5
5C7
100
AcDbEntity
  8
LAY-9
  6
CONTINUOUS
 62
     1
100
AcDbLine
 10
718.577295
 20
368.315247
 30
0.0
 11
722.8
 21
368.315247
 31
0.0
  0
LINE
  5
5C8
100
AcDbEntity
  8
LAY-9
  6
CONTINUOUS
 62
     1
100
AcDbLine
 10
673.577295
 20
385.415247
 30
0.0
 11
716.977295
 21
385.415247
 31
0.0
  0
LINE
  5
5C9
100
AcDbEntity
  8
LAY-9
  6
CONTINUOUS
 62
     1
100
AcDbLine
 10
718.577295
 20
383.815247
 30
0.0
 11
718.577295
 21
369.915247
 31
0.0
  0
LINE
  5
5CA
100
AcDbEntity
  8
LAY-9
  6
CONTINUOUS
 62
     1
100
AcDbLine
 10
718.577295
 20
369.915247
 30
0.0
 11
722.8
 21
369.915247
 31
0.0
  0
LINE
  5
5CB
100
AcDbEntity
  8
LAY-9
  6
CONTINUOUS
 62
     1
100
AcDbLine
 10
686.977295
 20
407.215247
 30
0.0
 11
673.577295
 21
407.215247
 31
0.0
  0
ARC
  5
5CC
100
AcDbEntity
  8
LAY-9
  6
CONTINUOUS
 62
     1
100
AcDbCircle
 10
673.577295
 20
407.215247
 30
0.0
 40
1.6
100
AcDbArc
 50
90.0
 51
180.0
  0
ARC
  5
5CD
100
AcDbEntity
  8
LAY-9
  6
CONTINUOUS
 62
     1
100
AcDbCircle
 10
673.577295
 20
385.415247
 30
0.0
 40
1.6
100
AcDbArc
 50
180.0
 51
270.0
  0
ARC
  5
5CE
100
AcDbEntity
  8
LAY-9
  6
CONTINUOUS
 62
     1
100
AcDbCircle
 10
716.977295
 20
383.815247
 30
0.0
 40
1.6
100
AcDbArc
 50
0.0
 51
90.0
  0
ARC
  5
5CF
100
AcDbEntity
  8
LAY-9
  6
CONTINUOUS
 62
     1
100
AcDbCircle
 10
718.577295
 20
369.915247
 30
0.0
 40
1.6
100
AcDbArc
 50
180.0
 51
270.0
  0
LINE
  5
5D0
100
AcDbEntity
  8
LAY-9
  6
CONTINUOUS
 62
     1
100
AcDbLine
 10
713.377722
 20
379.215217
 30
0.0
 11
709.977325
 21
379.215217
 31
0.0
  0
LINE
  5
5D1
100
AcDbEntity
  8
LAY-9
  6
CONTINUOUS
 62
     1
100
AcDbLine
 10
711.077722
 20
376.915217
 30
0.0
 11
709.977325
 21
376.915217
 31
0.0
  0
LINE
  5
5D2
100
AcDbEntity
  8
LAY-9
  6
CONTINUOUS
 62
     1
100
AcDbLine
 10
678.877722
 20
372.815213
 30
0.0
 11
678.877722
 21
364.215156
 31
0.0
  0
LINE
  5
5D3
100
AcDbEntity
  8
LAY-9
  6
CONTINUOUS
 62
     1
100
AcDbLine
 10
711.077722
 20
364.215156
 30
0.0
 11
711.077722
 21
376.915217
 31
0.0
  0
LINE
  5
5D4
100
AcDbEntity
  8
LAY-9
  6
CONTINUOUS
 62
     1
100
AcDbLine
 10
711.077722
 20
364.215156
 30
0.0
 11
713.377722
 21
364.215156
 31
0.0
  0
LINE
  5
5D5
100
AcDbEntity
  8
LAY-9
  6
CONTINUOUS
 62
     1
100
AcDbLine
 10
678.877722
 20
364.215156
 30
0.0
 11
676.577722
 21
364.215156
 31
0.0
  0
ARC
  5
5D6
100
AcDbEntity
  8
LAY-9
  6
CONTINUOUS
 62
     1
100
AcDbCircle
 10
713.377722
 20
379.215217
 30
0.0
 40
1.6
100
AcDbArc
 50
0.0
 51
90.0
  0
ARC
  5
5D7
100
AcDbEntity
  8
LAY-9
  6
CONTINUOUS
 62
     1
100
AcDbCircle
 10
711.077722
 20
376.915217
 30
0.0
 40
2.3
100
AcDbArc
 50
0.0
 51
90.0
  0
LINE
  5
5D8
100
AcDbEntity
  8
LAY-9
  6
CONTINUOUS
 62
     1
100
AcDbLine
 10
708.477325
 20
372.815186
 30
0.0
 11
711.077722
 21
372.815186
 31
0.0
  0
LINE
  5
5D9
100
AcDbEntity
  8
LAY-9
  6
CONTINUOUS
 62
     1
100
AcDbLine
 10
678.877722
 20
368.315186
 30
0.0
 11
711.077722
 21
368.315186
 31
0.0
  0
LINE
  5
5DA
100
AcDbEntity
  8
LAY-9
  6
DIVIDE
 62
     1
100
AcDbLine
 10
670.551575
 20
297.049668
 30
0.0
 11
720.851575
 21
297.049668
 31
0.0
  0
LINE
  5
5DB
100
AcDbEntity
  8
LAY-9
  6
CONTINUOUS
 62
     1
100
AcDbLine
 10
676.577722
 20
372.815215
 30
0.0
 11
676.577722
 21
297.049668
 31
0.0
  0
LINE
  5
5DC
100
AcDbEntity
  8
LAY-9
  6
CONTINUOUS
 62
     1
100
AcDbLine
 10
673.577295
 20
407.215247
 30
0.0
 11
673.577295
 21
398.815245
 31
0.0
  0
LINE
  5
5DD
100
AcDbEntity
  8
LAY-9
  6
CONTINUOUS
 62
     1
100
AcDbLine
 10
673.577295
 20
389.815186
 30
0.0
 11
673.577295
 21
385.415247
 31
0.0
  0
LINE
  5
5DE
100
AcDbEntity
  8
LAY-9
  6
CONTINUOUS
 62
     1
100
AcDbLine
 10
716.977295
 20
389.815186
 30
0.0
 11
716.977295
 21
385.415247
 31
0.0
  0
LINE
  5
5DF
100
AcDbEntity
  8
LAY-9
  6
CONTINUOUS
 62
     1
100
AcDbLine
 10
671.977295
 20
297.049668
 30
0.0
 11
671.977295
 21
365.815186
 31
0.0
  0
LINE
  5
5E0
100
AcDbEntity
  8
LAY-9
  6
CONTINUOUS
 62
     1
100
AcDbLine
 10
676.476898
 20
199.965485
 30
0.0
 11
717.028503
 21
199.965485
 31
0.0
  0
LINE
  5
5E1
100
AcDbEntity
  8
LAY-9
  6
CONTINUOUS
 62
     1
100
AcDbLine
 10
717.028503
 20
199.965485
 30
0.0
 11
717.028503
 21
213.365485
 31
0.0
  0
LINE
  5
5E2
100
AcDbEntity
  8
LAY-9
  6
CONTINUOUS
 62
     1
100
AcDbLine
 10
718.628503
 20
214.965485
 30
0.0
 11
727.028503
 21
214.965485
 31
0.0
  0
LINE
  5
5E3
100
AcDbEntity
  8
LAY-9
  6
CONTINUOUS
 62
     1
100
AcDbLine
 10
718.628503
 20
213.365485
 30
0.0
 11
718.628503
 21
199.965485
 31
0.0
  0
LINE
  5
5E4
100
AcDbEntity
  8
LAY-9
  6
CONTINUOUS
 62
     1
100
AcDbLine
 10
717.028503
 20
198.365485
 30
0.0
 11
676.478503
 21
198.365485
 31
0.0
  0
LINE
  5
5E5
100
AcDbEntity
  8
LAY-9
  6
CONTINUOUS
 62
     1
100
AcDbLine
 10
727.028503
 20
213.365485
 30
0.0
 11
718.628503
 21
213.365485
 31
0.0
  0
LINE
  5
5E6
100
AcDbEntity
  8
LAY-9
  6
CONTINUOUS
 62
     1
100
AcDbLine
 10
675.027356
 20
174.965485
 30
0.0
 11
676.577356
 21
174.965485
 31
0.0
  0
ARC
  5
5E7
100
AcDbEntity
  8
LAY-9
  6
CONTINUOUS
 62
     1
100
AcDbCircle
 10
676.476898
 20
198.365485
 30
0.0
 40
1.6
100
AcDbArc
 50
90.0
 51
180.0
  0
ARC
  5
5E8
100
AcDbEntity
  8
LAY-9
  6
CONTINUOUS
 62
     1
100
AcDbCircle
 10
717.028503
 20
199.965485
 30
0.0
 40
1.6
100
AcDbArc
 50
270.0
 51
0.0
  0
ARC
  5
5E9
100
AcDbEntity
  8
LAY-9
  6
CONTINUOUS
 62
     1
100
AcDbCircle
 10
718.628503
 20
213.365485
 30
0.0
 40
1.6
100
AcDbArc
 50
90.0
 51
180.0
  0
LINE
  5
5EA
100
AcDbEntity
  8
LAY-9
  6
CONTINUOUS
 62
     1
100
AcDbLine
 10
676.478503
 20
198.365485
 30
0.0
 11
676.478503
 21
191.965547
 31
0.0
  0
LINE
  5
5EB
100
AcDbEntity
  8
LAY-9
  6
CONTINUOUS
 62
     1
100
AcDbLine
 10
676.577356
 20
182.965546
 30
0.0
 11
676.577356
 21
174.965485
 31
0.0
  0
LINE
  5
5EC
100
AcDbEntity
  8
LAY-9
  6
CONTINUOUS
 62
     1
100
AcDbLine
 10
714.977325
 20
205.965515
 30
0.0
 11
708.444763
 21
205.965515
 31
0.0
  0
LINE
  5
5ED
100
AcDbEntity
  8
LAY-9
  6
CONTINUOUS
 62
     1
100
AcDbLine
 10
708.444763
 20
217.965515
 30
0.0
 11
711.077325
 21
217.965515
 31
0.0
  0
LINE
  5
5EE
100
AcDbEntity
  8
LAY-9
  6
CONTINUOUS
 62
     1
100
AcDbLine
 10
678.877325
 20
222.465515
 30
0.0
 11
711.077325
 21
222.465515
 31
0.0
  0
LINE
  5
5EF
100
AcDbEntity
  8
LAY-9
  6
CONTINUOUS
 62
     1
100
AcDbLine
 10
678.877325
 20
224.765515
 30
0.0
 11
711.077325
 21
224.765515
 31
0.0
  0
LINE
  5
5F0
100
AcDbEntity
  8
LAY-9
  6
CONTINUOUS
 62
     1
100
AcDbLine
 10
678.877325
 20
222.465515
 30
0.0
 11
678.877325
 21
217.965515
 31
0.0
  0
ARC
  5
5F1
100
AcDbEntity
  8
LAY-9
  6
CONTINUOUS
 62
     1
100
AcDbCircle
 10
678.877325
 20
222.465515
 30
0.0
 40
2.3
100
AcDbArc
 50
90.0
 51
180.0
  0
LINE
  5
5F2
100
AcDbEntity
  8
LAY-9
  6
CONTINUOUS
 62
     1
100
AcDbLine
 10
711.077325
 20
222.465515
 30
0.0
 11
711.077325
 21
205.965515
 31
0.0
  0
ARC
  5
5F3
100
AcDbEntity
  8
LAY-9
  6
CONTINUOUS
 62
     1
100
AcDbCircle
 10
711.077325
 20
222.465515
 30
0.0
 40
2.3
100
AcDbArc
 50
0.0
 51
90.0
  0
LINE
  5
5F4
100
AcDbEntity
  8
LAY-9
  6
CONTINUOUS
 62
     1
100
AcDbLine
 10
717.028503
 20
191.965579
 30
0.0
 11
717.028503
 21
198.365485
 31
0.0
  0
LINE
  5
5F5
100
AcDbEntity
  8
LAY-9
  6
DIVIDE
 62
     1
100
AcDbLine
 10
670.551178
 20
291.999939
 30
0.0
 11
720.851178
 21
291.999939
 31
0.0
  0
LINE
  5
5F6
100
AcDbEntity
  8
LAY-9
  6
CONTINUOUS
 62
     1
100
AcDbLine
 10
714.977325
 20
291.999939
 30
0.0
 11
714.977325
 21
205.965515
 31
0.0
  0
LINE
  5
5F7
100
AcDbEntity
  8
LAY-9
  6
CONTINUOUS
 62
     1
100
AcDbLine
 10
713.377325
 20
205.965515
 30
0.0
 11
713.377325
 21
291.999939
 31
0.0
  0
LINE
  5
5F8
100
AcDbEntity
  8
LAY-9
  6
CONTINUOUS
 62
     1
100
AcDbLine
 10
676.577325
 20
291.999939
 30
0.0
 11
676.577325
 21
217.965515
 31
0.0
  0
LINE
  5
5F9
100
AcDbEntity
  8
LAY-9
  6
CONTINUOUS
 62
     1
100
AcDbLine
 10
671.976898
 20
220.965515
 30
0.0
 11
671.976898
 21
291.999939
 31
0.0
  0
LINE
  5
5FA
100
AcDbEntity
  8
LAY-9
  6
CONTINUOUS
 62
     1
100
AcDbLine
 10
716.976898
 20
291.999939
 30
0.0
 11
716.976898
 21
213.365485
 31
0.0
  0
LINE
  5
5FB
100
AcDbEntity
  8
LAY-9
  6
CONTINUOUS
 62
     1
100
AcDbLine
 10
671.876898
 20
197.965576
 30
0.0
 11
671.876898
 21
205.965515
 31
0.0
  0
LINE
  5
5FC
100
AcDbEntity
  8
LAY-9
  6
CONTINUOUS
 62
     1
100
AcDbLine
 10
674.977356
 20
182.965546
 30
0.0
 11
674.977356
 21
174.965485
 31
0.0
  0
LINE
  5
5FD
100
AcDbEntity
  8
LAY-9
  6
CONTINUOUS
 62
     1
100
AcDbLine
 10
716.977295
 20
389.815186
 30
0.0
 11
713.477356
 21
389.815186
 31
0.0
  0
LINE
  5
5FE
100
AcDbEntity
  8
LAY-9
  6
CONTINUOUS
 62
     1
100
AcDbLine
 10
717.028503
 20
191.965579
 30
0.0
 11
713.477386
 21
191.965579
 31
0.0
  0
LINE
  5
5FF
100
AcDbEntity
  8
LAY-9
  6
CONTINUOUS
 62
     1
100
AcDbLine
 10
629.977325
 20
197.365479
 30
0.0
 11
576.6
 21
197.365479
 31
0.0
  0
LINE
  5
600
100
AcDbEntity
  8
LAY-9
  6
CONTINUOUS
 62
     1
100
AcDbLine
 10
716.977295
 20
383.815247
 30
0.0
 11
716.977295
 21
338.1
 31
0.0
  0
LINE
  5
601
100
AcDbEntity
  8
LAY-9
  6
CONTINUOUS
 62
     1
100
AcDbLine
 10
716.977295
 20
326.5
 30
0.0
 11
716.977295
 21
297.049668
 31
0.0
  0
LINE
  5
602
100
AcDbEntity
  8
LAY-9
  6
CONTINUOUS
 62
     1
100
AcDbLine
 10
714.977722
 20
379.215217
 30
0.0
 11
714.977722
 21
338.1
 31
0.0
  0
LINE
  5
603
100
AcDbEntity
  8
LAY-9
  6
CONTINUOUS
 62
     1
100
AcDbLine
 10
714.977722
 20
326.5
 30
0.0
 11
714.977722
 21
297.049668
 31
0.0
  0
LINE
  5
604
100
AcDbEntity
  8
LAY-9
  6
CONTINUOUS
 62
     1
100
AcDbLine
 10
713.377722
 20
297.049668
 30
0.0
 11
713.377722
 21
326.5
 31
0.0
  0
LINE
  5
605
100
AcDbEntity
  8
LAY-9
  6
CONTINUOUS
 62
     1
100
AcDbLine
 10
713.377722
 20
338.1
 30
0.0
 11
713.377722
 21
379.215217
 31
0.0
  0
POLYLINE
  5
606
100
AcDbEntity
  8
LAY-9
  6
CONTINUOUS
 62
     1
100
AcDb2dPolyline
 66
     1
 10
0.0
 20
0.0
 30
0.0
 70
   128
  0
VERTEX
  5
607
100
AcDbEntity
  8
LAY-9
  6
CONTINUOUS
 62
     1
100
AcDbVertex
100
AcDb2dVertex
 10
576.6
 20
197.365479
 30
0.0
  0
VERTEX
  5
608
100
AcDbEntity
  8
LAY-9
  6
CONTINUOUS
 62
     1
100
AcDbVertex
100
AcDb2dVertex
 10
576.572909
 20
197.297302
 30
0.0
  0
VERTEX
  5
609
100
AcDbEntity
  8
LAY-9
  6
CONTINUOUS
 62
     1
100
AcDbVertex
100
AcDb2dVertex
 10
576.498176
 20
197.103626
 30
0.0
  0
VERTEX
  5
60A
100
AcDbEntity
  8
LAY-9
  6
CONTINUOUS
 62
     1
100
AcDbVertex
100
AcDb2dVertex
 10
576.385609
 20
196.800735
 30
0.0
  0
VERTEX
  5
60B
100
AcDbEntity
  8
LAY-9
  6
CONTINUOUS
 62
     1
100
AcDbVertex
100
AcDb2dVertex
 10
576.245015
 20
196.404914
 30
0.0
  0
VERTEX
  5
60C
100
AcDbEntity
  8
LAY-9
  6
CONTINUOUS
 62
     1
100
AcDbVertex
100
AcDb2dVertex
 10
576.086204
 20
195.932445
 30
0.0
  0
VERTEX
  5
60D
100
AcDbEntity
  8
LAY-9
  6
CONTINUOUS
 62
     1
100
AcDbVertex
100
AcDb2dVertex
 10
575.918981
 20
195.399613
 30
0.0
  0
VERTEX
  5
60E
100
AcDbEntity
  8
LAY-9
  6
CONTINUOUS
 62
     1
100
AcDbVertex
100
AcDb2dVertex
 10
575.753157
 20
194.822701
 30
0.0
  0
VERTEX
  5
60F
100
AcDbEntity
  8
LAY-9
  6
CONTINUOUS
 62
     1
100
AcDbVertex
100
AcDb2dVertex
 10
575.598539
 20
194.217993
 30
0.0
  0
VERTEX
  5
610
100
AcDbEntity
  8
LAY-9
  6
CONTINUOUS
 62
     1
100
AcDbVertex
100
AcDb2dVertex
 10
575.464934
 20
193.601773
 30
0.0
  0
VERTEX
  5
611
100
AcDbEntity
  8
LAY-9
  6
CONTINUOUS
 62
     1
100
AcDbVertex
100
AcDb2dVertex
 10
575.362152
 20
192.990325
 30
0.0
  0
VERTEX
  5
612
100
AcDbEntity
  8
LAY-9
  6
CONTINUOUS
 62
     1
100
AcDbVertex
100
AcDb2dVertex
 10
575.3
 20
192.399933
 30
0.0
  0
VERTEX
  5
613
100
AcDbEntity
  8
LAY-9
  6
CONTINUOUS
 62
     1
100
AcDbVertex
100
AcDb2dVertex
 10
575.284929
 20
191.906502
 30
0.0
  0
VERTEX
  5
614
100
AcDbEntity
  8
LAY-9
  6
CONTINUOUS
 62
     1
100
AcDbVertex
100
AcDb2dVertex
 10
575.305147
 20
191.439608
 30
0.0
  0
VERTEX
  5
615
100
AcDbEntity
  8
LAY-9
  6
CONTINUOUS
 62
     1
100
AcDbVertex
100
AcDb2dVertex
 10
575.356561
 20
190.996632
 30
0.0
  0
VERTEX
  5
616
100
AcDbEntity
  8
LAY-9
  6
CONTINUOUS
 62
     1
100
AcDbVertex
100
AcDb2dVertex
 10
575.43508
 20
190.574959
 30
0.0
  0
VERTEX
  5
617
100
AcDbEntity
  8
LAY-9
  6
CONTINUOUS
 62
     1
100
AcDbVertex
100
AcDb2dVertex
 10
575.536614
 20
190.171973
 30
0.0
  0
VERTEX
  5
618
100
AcDbEntity
  8
LAY-9
  6
CONTINUOUS
 62
     1
100
AcDbVertex
100
AcDb2dVertex
 10
575.657071
 20
189.785056
 30
0.0
  0
VERTEX
  5
619
100
AcDbEntity
  8
LAY-9
  6
CONTINUOUS
 62
     1
100
AcDbVertex
100
AcDb2dVertex
 10
575.792359
 20
189.411592
 30
0.0
  0
VERTEX
  5
61A
100
AcDbEntity
  8
LAY-9
  6
CONTINUOUS
 62
     1
100
AcDbVertex
100
AcDb2dVertex
 10
575.938387
 20
189.048964
 30
0.0
  0
VERTEX
  5
61B
100
AcDbEntity
  8
LAY-9
  6
CONTINUOUS
 62
     1
100
AcDbVertex
100
AcDb2dVertex
 10
576.091064
 20
188.694556
 30
0.0
  0
VERTEX
  5
61C
100
AcDbEntity
  8
LAY-9
  6
CONTINUOUS
 62
     1
100
AcDbVertex
100
AcDb2dVertex
 10
576.246299
 20
188.345751
 30
0.0
  0
VERTEX
  5
61D
100
AcDbEntity
  8
LAY-9
  6
CONTINUOUS
 62
     1
100
AcDbVertex
100
AcDb2dVertex
 10
576.4
 20
187.999933
 30
0.0
  0
VERTEX
  5
61E
100
AcDbEntity
  8
LAY-9
  6
CONTINUOUS
 62
     1
100
AcDbVertex
100
AcDb2dVertex
 10
576.601485
 20
187.527795
 30
0.0
  0
VERTEX
  5
61F
100
AcDbEntity
  8
LAY-9
  6
CONTINUOUS
 62
     1
100
AcDbVertex
100
AcDb2dVertex
 10
576.790016
 20
187.052055
 30
0.0
  0
VERTEX
  5
620
100
AcDbEntity
  8
LAY-9
  6
CONTINUOUS
 62
     1
100
AcDbVertex
100
AcDb2dVertex
 10
576.963146
 20
186.568419
 30
0.0
  0
VERTEX
  5
621
100
AcDbEntity
  8
LAY-9
  6
CONTINUOUS
 62
     1
100
AcDbVertex
100
AcDb2dVertex
 10
577.118426
 20
186.072596
 30
0.0
  0
VERTEX
  5
622
100
AcDbEntity
  8
LAY-9
  6
CONTINUOUS
 62
     1
100
AcDbVertex
100
AcDb2dVertex
 10
577.253409
 20
185.560291
 30
0.0
  0
VERTEX
  5
623
100
AcDbEntity
  8
LAY-9
  6
CONTINUOUS
 62
     1
100
AcDbVertex
100
AcDb2dVertex
 10
577.365648
 20
185.027211
 30
0.0
  0
VERTEX
  5
624
100
AcDbEntity
  8
LAY-9
  6
CONTINUOUS
 62
     1
100
AcDbVertex
100
AcDb2dVertex
 10
577.452694
 20
184.469063
 30
0.0
  0
VERTEX
  5
625
100
AcDbEntity
  8
LAY-9
  6
CONTINUOUS
 62
     1
100
AcDbVertex
100
AcDb2dVertex
 10
577.5121
 20
183.881555
 30
0.0
  0
VERTEX
  5
626
100
AcDbEntity
  8
LAY-9
  6
CONTINUOUS
 62
     1
100
AcDbVertex
100
AcDb2dVertex
 10
577.541418
 20
183.260393
 30
0.0
  0
VERTEX
  5
627
100
AcDbEntity
  8
LAY-9
  6
CONTINUOUS
 62
     1
100
AcDbVertex
100
AcDb2dVertex
 10
577.538201
 20
182.601283
 30
0.0
  0
VERTEX
  5
628
100
AcDbEntity
  8
LAY-9
  6
CONTINUOUS
 62
     1
100
AcDbVertex
100
AcDb2dVertex
 10
577.5
 20
181.899933
 30
0.0
  0
VERTEX
  5
629
100
AcDbEntity
  8
LAY-9
  6
CONTINUOUS
 62
     1
100
AcDbVertex
100
AcDb2dVertex
 10
577.439277
 20
181.269458
 30
0.0
  0
VERTEX
  5
62A
100
AcDbEntity
  8
LAY-9
  6
CONTINUOUS
 62
     1
100
AcDbVertex
100
AcDb2dVertex
 10
577.357149
 20
180.621571
 30
0.0
  0
VERTEX
  5
62B
100
AcDbEntity
  8
LAY-9
  6
CONTINUOUS
 62
     1
100
AcDbVertex
100
AcDb2dVertex
 10
577.259346
 20
179.972594
 30
0.0
  0
VERTEX
  5
62C
100
AcDbEntity
  8
LAY-9
  6
CONTINUOUS
 62
     1
100
AcDbVertex
100
AcDb2dVertex
 10
577.151594
 20
179.338846
 30
0.0
  0
VERTEX
  5
62D
100
AcDbEntity
  8
LAY-9
  6
CONTINUOUS
 62
     1
100
AcDbVertex
100
AcDb2dVertex
 10
577.039624
 20
178.736647
 30
0.0
  0
VERTEX
  5
62E
100
AcDbEntity
  8
LAY-9
  6
CONTINUOUS
 62
     1
100
AcDbVertex
100
AcDb2dVertex
 10
576.929163
 20
178.182319
 30
0.0
  0
VERTEX
  5
62F
100
AcDbEntity
  8
LAY-9
  6
CONTINUOUS
 62
     1
100
AcDbVertex
100
AcDb2dVertex
 10
576.825941
 20
177.692181
 30
0.0
  0
VERTEX
  5
630
100
AcDbEntity
  8
LAY-9
  6
CONTINUOUS
 62
     1
100
AcDbVertex
100
AcDb2dVertex
 10
576.735684
 20
177.282553
 30
0.0
  0
VERTEX
  5
631
100
AcDbEntity
  8
LAY-9
  6
CONTINUOUS
 62
     1
100
AcDbVertex
100
AcDb2dVertex
 10
576.664123
 20
176.969755
 30
0.0
  0
VERTEX
  5
632
100
AcDbEntity
  8
LAY-9
  6
CONTINUOUS
 62
     1
100
AcDbVertex
100
AcDb2dVertex
 10
576.616986
 20
176.770109
 30
0.0
  0
VERTEX
  5
633
100
AcDbEntity
  8
LAY-9
  6
CONTINUOUS
 62
     1
100
AcDbVertex
100
AcDb2dVertex
 10
576.6
 20
176.699933
 30
0.0
  0
SEQEND
  5
634
100
AcDbEntity
  8
LAY-9
  6
CONTINUOUS
 62
     1
  0
LINE
  5
635
100
AcDbEntity
  8
LAY-9
  6
CONTINUOUS
 62
     1
100
AcDbLine
 10
121.403381
 20
368.213714
 30
0.0
 11
121.403381
 21
411.613714
 31
0.0
  0
LINE
  5
636
100
AcDbEntity
  8
LAY-9
  6
CONTINUOUS
 62
     1
100
AcDbLine
 10
121.403381
 20
411.613714
 30
0.0
 11
134.803381
 21
411.613714
 31
0.0
  0
LINE
  5
637
100
AcDbEntity
  8
LAY-9
  6
CONTINUOUS
 62
     1
100
AcDbLine
 10
96.403381
 20
368.213714
 30
0.0
 11
96.403381
 21
381.613714
 31
0.0
  0
LINE
  5
638
100
AcDbEntity
  8
LAY-9
  6
CONTINUOUS
 62
     1
100
AcDbLine
 10
96.403381
 20
381.613714
 30
0.0
 11
98.003381
 21
381.613714
 31
0.0
  0
LINE
  5
639
100
AcDbEntity
  8
LAY-9
  6
CONTINUOUS
 62
     1
100
AcDbLine
 10
98.003381
 20
368.213714
 30
0.0
 11
119.803381
 21
368.213714
 31
0.0
  0
LINE
  5
63A
100
AcDbEntity
  8
LAY-9
  6
CONTINUOUS
 62
     1
100
AcDbLine
 10
119.803381
 20
368.213714
 30
0.0
 11
119.803381
 21
411.613714
 31
0.0
  0
LINE
  5
63B
100
AcDbEntity
  8
LAY-9
  6
CONTINUOUS
 62
     1
100
AcDbLine
 10
121.403381
 20
413.213714
 30
0.0
 11
134.803381
 21
413.213714
 31
0.0
  0
LINE
  5
63C
100
AcDbEntity
  8
LAY-9
  6
CONTINUOUS
 62
     1
100
AcDbLine
 10
98.003381
 20
381.613714
 30
0.0
 11
98.003381
 21
368.213714
 31
0.0
  0
ARC
  5
63D
100
AcDbEntity
  8
LAY-9
  6
CONTINUOUS
 62
     1
100
AcDbCircle
 10
134.803381
 20
413.213714
 30
0.0
 40
1.6
100
AcDbArc
 50
270.0
 51
0.0
  0
ARC
  5
63E
100
AcDbEntity
  8
LAY-9
  6
CONTINUOUS
 62
     1
100
AcDbCircle
 10
121.403381
 20
411.613714
 30
0.0
 40
1.6
100
AcDbArc
 50
90.0
 51
180.0
  0
ARC
  5
63F
100
AcDbEntity
  8
LAY-9
  6
CONTINUOUS
 62
     1
100
AcDbCircle
 10
119.803381
 20
368.213714
 30
0.0
 40
1.6
100
AcDbArc
 50
270.0
 51
0.0
  0
ARC
  5
640
100
AcDbEntity
  8
LAY-9
  6
CONTINUOUS
 62
     1
100
AcDbCircle
 10
98.003381
 20
368.213714
 30
0.0
 40
1.6
100
AcDbArc
 50
180.0
 51
270.0
  0
POLYLINE
  5
641
100
AcDbEntity
  8
LAY-9
  6
CONTINUOUS
 62
     1
100
AcDb2dPolyline
 66
     1
 10
0.0
 20
0.0
 30
0.0
 70
   128
  0
VERTEX
  5
642
100
AcDbEntity
  8
LAY-9
  6
CONTINUOUS
 62
     1
100
AcDbVertex
100
AcDb2dVertex
 10
259.3
 20
411.613714
 30
0.0
  0
VERTEX
  5
643
100
AcDbEntity
  8
LAY-9
  6
CONTINUOUS
 62
     1
100
AcDbVertex
100
AcDb2dVertex
 10
259.360459
 20
411.424826
 30
0.0
  0
VERTEX
  5
644
100
AcDbEntity
  8
LAY-9
  6
CONTINUOUS
 62
     1
100
AcDbVertex
100
AcDb2dVertex
 10
259.526908
 20
410.888712
 30
0.0
  0
VERTEX
  5
645
100
AcDbEntity
  8
LAY-9
  6
CONTINUOUS
 62
     1
100
AcDbVertex
100
AcDb2dVertex
 10
259.776956
 20
410.051201
 30
0.0
  0
VERTEX
  5
646
100
AcDbEntity
  8
LAY-9
  6
CONTINUOUS
 62
     1
100
AcDbVertex
100
AcDb2dVertex
 10
260.088213
 20
408.958118
 30
0.0
  0
VERTEX
  5
647
100
AcDbEntity
  8
LAY-9
  6
CONTINUOUS
 62
     1
100
AcDbVertex
100
AcDb2dVertex
 10
260.438287
 20
407.655291
 30
0.0
  0
VERTEX
  5
648
100
AcDbEntity
  8
LAY-9
  6
CONTINUOUS
 62
     1
100
AcDbVertex
100
AcDb2dVertex
 10
260.804788
 20
406.188546
 30
0.0
  0
VERTEX
  5
649
100
AcDbEntity
  8
LAY-9
  6
CONTINUOUS
 62
     1
100
AcDbVertex
100
AcDb2dVertex
 10
261.165323
 20
404.60371
 30
0.0
  0
VERTEX
  5
64A
100
AcDbEntity
  8
LAY-9
  6
CONTINUOUS
 62
     1
100
AcDbVertex
100
AcDb2dVertex
 10
261.497504
 20
402.946611
 30
0.0
  0
VERTEX
  5
64B
100
AcDbEntity
  8
LAY-9
  6
CONTINUOUS
 62
     1
100
AcDbVertex
100
AcDb2dVertex
 10
261.778937
 20
401.263074
 30
0.0
  0
VERTEX
  5
64C
100
AcDbEntity
  8
LAY-9
  6
CONTINUOUS
 62
     1
100
AcDbVertex
100
AcDb2dVertex
 10
261.987233
 20
399.598928
 30
0.0
  0
VERTEX
  5
64D
100
AcDbEntity
  8
LAY-9
  6
CONTINUOUS
 62
     1
100
AcDbVertex
100
AcDb2dVertex
 10
262.1
 20
397.999998
 30
0.0
  0
VERTEX
  5
64E
100
AcDbEntity
  8
LAY-9
  6
CONTINUOUS
 62
     1
100
AcDbVertex
100
AcDb2dVertex
 10
262.109364
 20
396.799832
 30
0.0
  0
VERTEX
  5
64F
100
AcDbEntity
  8
LAY-9
  6
CONTINUOUS
 62
     1
100
AcDbVertex
100
AcDb2dVertex
 10
262.049526
 20
395.663779
 30
0.0
  0
VERTEX
  5
650
100
AcDbEntity
  8
LAY-9
  6
CONTINUOUS
 62
     1
100
AcDbVertex
100
AcDb2dVertex
 10
261.92596
 20
394.585629
 30
0.0
  0
VERTEX
  5
651
100
AcDbEntity
  8
LAY-9
  6
CONTINUOUS
 62
     1
100
AcDbVertex
100
AcDb2dVertex
 10
261.744139
 20
393.559175
 30
0.0
  0
VERTEX
  5
652
100
AcDbEntity
  8
LAY-9
  6
CONTINUOUS
 62
     1
100
AcDbVertex
100
AcDb2dVertex
 10
261.509536
 20
392.578209
 30
0.0
  0
VERTEX
  5
653
100
AcDbEntity
  8
LAY-9
  6
CONTINUOUS
 62
     1
100
AcDbVertex
100
AcDb2dVertex
 10
261.227625
 20
391.636522
 30
0.0
  0
VERTEX
  5
654
100
AcDbEntity
  8
LAY-9
  6
CONTINUOUS
 62
     1
100
AcDbVertex
100
AcDb2dVertex
 10
260.903878
 20
390.727907
 30
0.0
  0
VERTEX
  5
655
100
AcDbEntity
  8
LAY-9
  6
CONTINUOUS
 62
     1
100
AcDbVertex
100
AcDb2dVertex
 10
260.543769
 20
389.846155
 30
0.0
  0
VERTEX
  5
656
100
AcDbEntity
  8
LAY-9
  6
CONTINUOUS
 62
     1
100
AcDbVertex
100
AcDb2dVertex
 10
260.152771
 20
388.985058
 30
0.0
  0
VERTEX
  5
657
100
AcDbEntity
  8
LAY-9
  6
CONTINUOUS
 62
     1
100
AcDbVertex
100
AcDb2dVertex
 10
259.736357
 20
388.138409
 30
0.0
  0
VERTEX
  5
658
100
AcDbEntity
  8
LAY-9
  6
CONTINUOUS
 62
     1
100
AcDbVertex
100
AcDb2dVertex
 10
259.3
 20
387.299998
 30
0.0
  0
VERTEX
  5
659
100
AcDbEntity
  8
LAY-9
  6
CONTINUOUS
 62
     1
100
AcDbVertex
100
AcDb2dVertex
 10
258.803396
 20
386.377306
 30
0.0
  0
VERTEX
  5
65A
100
AcDbEntity
  8
LAY-9
  6
CONTINUOUS
 62
     1
100
AcDbVertex
100
AcDb2dVertex
 10
258.304326
 20
385.448965
 30
0.0
  0
VERTEX
  5
65B
100
AcDbEntity
  8
LAY-9
  6
CONTINUOUS
 62
     1
100
AcDbVertex
100
AcDb2dVertex
 10
257.817932
 20
384.506856
 30
0.0
  0
VERTEX
  5
65C
100
AcDbEntity
  8
LAY-9
  6
CONTINUOUS
 62
     1
100
AcDbVertex
100
AcDb2dVertex
 10
257.359353
 20
383.54286
 30
0.0
  0
VERTEX
  5
65D
100
AcDbEntity
  8
LAY-9
  6
CONTINUOUS
 62
     1
100
AcDbVertex
100
AcDb2dVertex
 10
256.943732
 20
382.548857
 30
0.0
  0
VERTEX
  5
65E
100
AcDbEntity
  8
LAY-9
  6
CONTINUOUS
 62
     1
100
AcDbVertex
100
AcDb2dVertex
 10
256.58621
 20
381.516727
 30
0.0
  0
VERTEX
  5
65F
100
AcDbEntity
  8
LAY-9
  6
CONTINUOUS
 62
     1
100
AcDbVertex
100
AcDb2dVertex
 10
256.301926
 20
380.438352
 30
0.0
  0
VERTEX
  5
660
100
AcDbEntity
  8
LAY-9
  6
CONTINUOUS
 62
     1
100
AcDbVertex
100
AcDb2dVertex
 10
256.106022
 20
379.30561
 30
0.0
  0
VERTEX
  5
661
100
AcDbEntity
  8
LAY-9
  6
CONTINUOUS
 62
     1
100
AcDbVertex
100
AcDb2dVertex
 10
256.013639
 20
378.110384
 30
0.0
  0
VERTEX
  5
662
100
AcDbEntity
  8
LAY-9
  6
CONTINUOUS
 62
     1
100
AcDbVertex
100
AcDb2dVertex
 10
256.039918
 20
376.844553
 30
0.0
  0
VERTEX
  5
663
100
AcDbEntity
  8
LAY-9
  6
CONTINUOUS
 62
     1
100
AcDbVertex
100
AcDb2dVertex
 10
256.2
 20
375.499998
 30
0.0
  0
VERTEX
  5
664
100
AcDbEntity
  8
LAY-9
  6
CONTINUOUS
 62
     1
100
AcDbVertex
100
AcDb2dVertex
 10
256.420127
 20
374.40902
 30
0.0
  0
VERTEX
  5
665
100
AcDbEntity
  8
LAY-9
  6
CONTINUOUS
 62
     1
100
AcDbVertex
100
AcDb2dVertex
 10
256.709812
 20
373.29344
 30
0.0
  0
VERTEX
  5
666
100
AcDbEntity
  8
LAY-9
  6
CONTINUOUS
 62
     1
100
AcDbVertex
100
AcDb2dVertex
 10
257.049982
 20
372.180335
 30
0.0
  0
VERTEX
  5
667
100
AcDbEntity
  8
LAY-9
  6
CONTINUOUS
 62
     1
100
AcDbVertex
100
AcDb2dVertex
 10
257.421564
 20
371.096781
 30
0.0
  0
VERTEX
  5
668
100
AcDbEntity
  8
LAY-9
  6
CONTINUOUS
 62
     1
100
AcDbVertex
100
AcDb2dVertex
 10
257.805484
 20
370.069853
 30
0.0
  0
VERTEX
  5
669
100
AcDbEntity
  8
LAY-9
  6
CONTINUOUS
 62
     1
100
AcDbVertex
100
AcDb2dVertex
 10
258.18267
 20
369.126628
 30
0.0
  0
VERTEX
  5
66A
100
AcDbEntity
  8
LAY-9
  6
CONTINUOUS
 62
     1
100
AcDbVertex
100
AcDb2dVertex
 10
258.534046
 20
368.294182
 30
0.0
  0
VERTEX
  5
66B
100
AcDbEntity
  8
LAY-9
  6
CONTINUOUS
 62
     1
100
AcDbVertex
100
AcDb2dVertex
 10
258.840541
 20
367.599591
 30
0.0
  0
VERTEX
  5
66C
100
AcDbEntity
  8
LAY-9
  6
CONTINUOUS
 62
     1
100
AcDbVertex
100
AcDb2dVertex
 10
259.08308
 20
367.069933
 30
0.0
  0
VERTEX
  5
66D
100
AcDbEntity
  8
LAY-9
  6
CONTINUOUS
 62
     1
100
AcDbVertex
100
AcDb2dVertex
 10
259.242591
 20
366.732281
 30
0.0
  0
VERTEX
  5
66E
100
AcDbEntity
  8
LAY-9
  6
CONTINUOUS
 62
     1
100
AcDbVertex
100
AcDb2dVertex
 10
259.3
 20
366.613714
 30
0.0
  0
SEQEND
  5
66F
100
AcDbEntity
  8
LAY-9
  6
CONTINUOUS
 62
     1
  0
LINE
  5
670
100
AcDbEntity
  8
LAY-9
  6
CONTINUOUS
 62
     1
100
AcDbLine
 10
124.403394
 20
202.477227
 30
0.0
 11
124.40339
 21
239.277227
 31
0.0
  0
LINE
  5
671
100
AcDbEntity
  8
LAY-9
  6
CONTINUOUS
 62
     1
100
AcDbLine
 10
126.00339
 20
240.877227
 30
0.0
 11
274.40339
 21
240.877227
 31
0.0
  0
ARC
  5
672
100
AcDbEntity
  8
LAY-9
  6
CONTINUOUS
 62
     1
100
AcDbCircle
 10
126.00339
 20
239.277227
 30
0.0
 40
1.6
100
AcDbArc
 50
90.0
 51
180.000006
  0
ARC
  5
673
100
AcDbEntity
  8
LAY-9
  6
CONTINUOUS
 62
     1
100
AcDbCircle
 10
126.003394
 20
202.477227
 30
0.0
 40
1.6
100
AcDbArc
 50
180.000006
 51
270.0
  0
POLYLINE
  5
674
100
AcDbEntity
  8
LAY-9
  6
CONTINUOUS
 62
     1
100
AcDb2dPolyline
 66
     1
 10
0.0
 20
0.0
 30
0.0
 70
   128
  0
VERTEX
  5
675
100
AcDbEntity
  8
LAY-9
  6
CONTINUOUS
 62
     1
100
AcDbVertex
100
AcDb2dVertex
 10
274.40339
 20
240.877227
 30
0.0
  0
VERTEX
  5
676
100
AcDbEntity
  8
LAY-9
  6
CONTINUOUS
 62
     1
100
AcDbVertex
100
AcDb2dVertex
 10
274.453391
 20
240.735759
 30
0.0
  0
VERTEX
  5
677
100
AcDbEntity
  8
LAY-9
  6
CONTINUOUS
 62
     1
100
AcDbVertex
100
AcDb2dVertex
 10
274.591317
 20
240.333848
 30
0.0
  0
VERTEX
  5
678
100
AcDbEntity
  8
LAY-9
  6
CONTINUOUS
 62
     1
100
AcDbVertex
100
AcDb2dVertex
 10
274.79905
 20
239.705229
 30
0.0
  0
VERTEX
  5
679
100
AcDbEntity
  8
LAY-9
  6
CONTINUOUS
 62
     1
100
AcDbVertex
100
AcDb2dVertex
 10
275.058475
 20
238.88364
 30
0.0
  0
VERTEX
  5
67A
100
AcDbEntity
  8
LAY-9
  6
CONTINUOUS
 62
     1
100
AcDbVertex
100
AcDb2dVertex
 10
275.351474
 20
237.902817
 30
0.0
  0
VERTEX
  5
67B
100
AcDbEntity
  8
LAY-9
  6
CONTINUOUS
 62
     1
100
AcDbVertex
100
AcDb2dVertex
 10
275.659931
 20
236.796497
 30
0.0
  0
VERTEX
  5
67C
100
AcDbEntity
  8
LAY-9
  6
CONTINUOUS
 62
     1
100
AcDbVertex
100
AcDb2dVertex
 10
275.96573
 20
235.598418
 30
0.0
  0
VERTEX
  5
67D
100
AcDbEntity
  8
LAY-9
  6
CONTINUOUS
 62
     1
100
AcDbVertex
100
AcDb2dVertex
 10
276.250753
 20
234.342315
 30
0.0
  0
VERTEX
  5
67E
100
AcDbEntity
  8
LAY-9
  6
CONTINUOUS
 62
     1
100
AcDbVertex
100
AcDb2dVertex
 10
276.496883
 20
233.061926
 30
0.0
  0
VERTEX
  5
67F
100
AcDbEntity
  8
LAY-9
  6
CONTINUOUS
 62
     1
100
AcDbVertex
100
AcDb2dVertex
 10
276.686006
 20
231.790988
 30
0.0
  0
VERTEX
  5
680
100
AcDbEntity
  8
LAY-9
  6
CONTINUOUS
 62
     1
100
AcDbVertex
100
AcDb2dVertex
 10
276.800002
 20
230.563237
 30
0.0
  0
VERTEX
  5
681
100
AcDbEntity
  8
LAY-9
  6
CONTINUOUS
 62
     1
100
AcDbVertex
100
AcDb2dVertex
 10
276.82651
 20
229.489451
 30
0.0
  0
VERTEX
  5
682
100
AcDbEntity
  8
LAY-9
  6
CONTINUOUS
 62
     1
100
AcDbVertex
100
AcDb2dVertex
 10
276.780901
 20
228.475574
 30
0.0
  0
VERTEX
  5
683
100
AcDbEntity
  8
LAY-9
  6
CONTINUOUS
 62
     1
100
AcDbVertex
100
AcDb2dVertex
 10
276.670901
 20
227.515648
 30
0.0
  0
VERTEX
  5
684
100
AcDbEntity
  8
LAY-9
  6
CONTINUOUS
 62
     1
100
AcDbVertex
100
AcDb2dVertex
 10
276.504237
 20
226.603712
 30
0.0
  0
VERTEX
  5
685
100
AcDbEntity
  8
LAY-9
  6
CONTINUOUS
 62
     1
100
AcDbVertex
100
AcDb2dVertex
 10
276.288636
 20
225.733805
 30
0.0
  0
VERTEX
  5
686
100
AcDbEntity
  8
LAY-9
  6
CONTINUOUS
 62
     1
100
AcDbVertex
100
AcDb2dVertex
 10
276.031822
 20
224.899969
 30
0.0
  0
VERTEX
  5
687
100
AcDbEntity
  8
LAY-9
  6
CONTINUOUS
 62
     1
100
AcDbVertex
100
AcDb2dVertex
 10
275.741524
 20
224.096243
 30
0.0
  0
VERTEX
  5
688
100
AcDbEntity
  8
LAY-9
  6
CONTINUOUS
 62
     1
100
AcDbVertex
100
AcDb2dVertex
 10
275.425466
 20
223.316666
 30
0.0
  0
VERTEX
  5
689
100
AcDbEntity
  8
LAY-9
  6
CONTINUOUS
 62
     1
100
AcDbVertex
100
AcDb2dVertex
 10
275.091376
 20
222.55528
 30
0.0
  0
VERTEX
  5
68A
100
AcDbEntity
  8
LAY-9
  6
CONTINUOUS
 62
     1
100
AcDbVertex
100
AcDb2dVertex
 10
274.746979
 20
221.806124
 30
0.0
  0
VERTEX
  5
68B
100
AcDbEntity
  8
LAY-9
  6
CONTINUOUS
 62
     1
100
AcDbVertex
100
AcDb2dVertex
 10
274.400002
 20
221.063237
 30
0.0
  0
VERTEX
  5
68C
100
AcDbEntity
  8
LAY-9
  6
CONTINUOUS
 62
     1
100
AcDbVertex
100
AcDb2dVertex
 10
273.98188
 20
220.153447
 30
0.0
  0
VERTEX
  5
68D
100
AcDbEntity
  8
LAY-9
  6
CONTINUOUS
 62
     1
100
AcDbVertex
100
AcDb2dVertex
 10
273.580456
 20
219.23586
 30
0.0
  0
VERTEX
  5
68E
100
AcDbEntity
  8
LAY-9
  6
CONTINUOUS
 62
     1
100
AcDbVertex
100
AcDb2dVertex
 10
273.204705
 20
218.302211
 30
0.0
  0
VERTEX
  5
68F
100
AcDbEntity
  8
LAY-9
  6
CONTINUOUS
 62
     1
100
AcDbVertex
100
AcDb2dVertex
 10
272.863604
 20
217.344237
 30
0.0
  0
VERTEX
  5
690
100
AcDbEntity
  8
LAY-9
  6
CONTINUOUS
 62
     1
100
AcDbVertex
100
AcDb2dVertex
 10
272.566127
 20
216.353676
 30
0.0
  0
VERTEX
  5
691
100
AcDbEntity
  8
LAY-9
  6
CONTINUOUS
 62
     1
100
AcDbVertex
100
AcDb2dVertex
 10
272.321249
 20
215.322265
 30
0.0
  0
VERTEX
  5
692
100
AcDbEntity
  8
LAY-9
  6
CONTINUOUS
 62
     1
100
AcDbVertex
100
AcDb2dVertex
 10
272.137947
 20
214.241739
 30
0.0
  0
VERTEX
  5
693
100
AcDbEntity
  8
LAY-9
  6
CONTINUOUS
 62
     1
100
AcDbVertex
100
AcDb2dVertex
 10
272.025196
 20
213.103837
 30
0.0
  0
VERTEX
  5
694
100
AcDbEntity
  8
LAY-9
  6
CONTINUOUS
 62
     1
100
AcDbVertex
100
AcDb2dVertex
 10
271.991971
 20
211.900295
 30
0.0
  0
VERTEX
  5
695
100
AcDbEntity
  8
LAY-9
  6
CONTINUOUS
 62
     1
100
AcDbVertex
100
AcDb2dVertex
 10
272.047248
 20
210.622849
 30
0.0
  0
VERTEX
  5
696
100
AcDbEntity
  8
LAY-9
  6
CONTINUOUS
 62
     1
100
AcDbVertex
100
AcDb2dVertex
 10
272.200002
 20
209.263237
 30
0.0
  0
VERTEX
  5
697
100
AcDbEntity
  8
LAY-9
  6
CONTINUOUS
 62
     1
100
AcDbVertex
100
AcDb2dVertex
 10
272.373396
 20
208.23008
 30
0.0
  0
VERTEX
  5
698
100
AcDbEntity
  8
LAY-9
  6
CONTINUOUS
 62
     1
100
AcDbVertex
100
AcDb2dVertex
 10
272.589794
 20
207.175074
 30
0.0
  0
VERTEX
  5
699
100
AcDbEntity
  8
LAY-9
  6
CONTINUOUS
 62
     1
100
AcDbVertex
100
AcDb2dVertex
 10
272.836658
 20
206.123555
 30
0.0
  0
VERTEX
  5
69A
100
AcDbEntity
  8
LAY-9
  6
CONTINUOUS
 62
     1
100
AcDbVertex
100
AcDb2dVertex
 10
273.101445
 20
205.100857
 30
0.0
  0
VERTEX
  5
69B
100
AcDbEntity
  8
LAY-9
  6
CONTINUOUS
 62
     1
100
AcDbVertex
100
AcDb2dVertex
 10
273.371615
 20
204.132318
 30
0.0
  0
VERTEX
  5
69C
100
AcDbEntity
  8
LAY-9
  6
CONTINUOUS
 62
     1
100
AcDbVertex
100
AcDb2dVertex
 10
273.634627
 20
203.243274
 30
0.0
  0
VERTEX
  5
69D
100
AcDbEntity
  8
LAY-9
  6
CONTINUOUS
 62
     1
100
AcDbVertex
100
AcDb2dVertex
 10
273.877941
 20
202.45906
 30
0.0
  0
VERTEX
  5
69E
100
AcDbEntity
  8
LAY-9
  6
CONTINUOUS
 62
     1
100
AcDbVertex
100
AcDb2dVertex
 10
274.089016
 20
201.805012
 30
0.0
  0
VERTEX
  5
69F
100
AcDbEntity
  8
LAY-9
  6
CONTINUOUS
 62
     1
100
AcDbVertex
100
AcDb2dVertex
 10
274.25531
 20
201.306466
 30
0.0
  0
VERTEX
  5
6A0
100
AcDbEntity
  8
LAY-9
  6
CONTINUOUS
 62
     1
100
AcDbVertex
100
AcDb2dVertex
 10
274.364283
 20
200.988759
 30
0.0
  0
VERTEX
  5
6A1
100
AcDbEntity
  8
LAY-9
  6
CONTINUOUS
 62
     1
100
AcDbVertex
100
AcDb2dVertex
 10
274.403394
 20
200.877227
 30
0.0
  0
SEQEND
  5
6A2
100
AcDbEntity
  8
LAY-9
  6
CONTINUOUS
 62
     1
  0
LINE
  5
6A3
100
AcDbEntity
  8
LAY-9
  6
CONTINUOUS
 62
     1
100
AcDbLine
 10
129.403381
 20
366.613714
 30
0.0
 11
98.003381
 21
366.613714
 31
0.0
  0
LINE
  5
6A4
100
AcDbEntity
  8
LAY-9
  6
CONTINUOUS
 62
     1
100
AcDbLine
 10
259.3
 20
366.613714
 30
0.0
 11
193.803406
 21
366.613714
 31
0.0
  0
LINE
  5
6A5
100
AcDbEntity
  8
LAY-9
  6
CONTINUOUS
 62
     1
100
AcDbLine
 10
126.003394
 20
200.877227
 30
0.0
 11
129.403381
 21
200.877227
 31
0.0
  0
LINE
  5
6A6
100
AcDbEntity
  8
LAY-9
  6
CONTINUOUS
 62
     1
100
AcDbLine
 10
194.403442
 20
200.877227
 30
0.0
 11
274.403394
 21
200.877227
 31
0.0
  0
LINE
  5
6A7
100
AcDbEntity
  8
LAY-9
  6
CONTINUOUS
 62
     1
100
AcDbLine
 10
136.403381
 20
413.213714
 30
0.0
 11
136.403381
 21
420.0
 31
0.0
  0
LINE
  5
6A8
100
AcDbEntity
  8
LAY-9
  6
CONTINUOUS
 62
     1
100
AcDbLine
 10
136.403381
 20
425.1
 30
0.0
 11
136.403381
 21
428.0
 31
0.0
  0
LINE
  5
6A9
100
AcDbEntity
  8
LAY-9
  6
CONTINUOUS
 62
     1
100
AcDbLine
 10
134.803381
 20
413.213714
 30
0.0
 11
134.803381
 21
420.0
 31
0.0
  0
LINE
  5
6AA
100
AcDbEntity
  8
LAY-9
  6
CONTINUOUS
 62
     1
100
AcDbLine
 10
134.803381
 20
425.1
 30
0.0
 11
134.803381
 21
428.0
 31
0.0
  0
LINE
  5
6AB
100
AcDbEntity
  8
LAY-9
  6
CONTINUOUS
 62
     1
100
AcDbLine
 10
411.403381
 20
371.491363
 30
0.0
 11
516.403379
 21
371.491363
 31
0.0
  0
LINE
  5
6AC
100
AcDbEntity
  8
LAY-9
  6
CONTINUOUS
 62
     1
100
AcDbLine
 10
343.003379
 20
371.491363
 30
0.0
 11
346.403381
 21
371.491363
 31
0.0
  0
LINE
  5
6AD
100
AcDbEntity
  8
LAY-9
  6
CONTINUOUS
 62
     1
100
AcDbLine
 10
353.403381
 20
263.161285
 30
0.0
 11
353.403381
 21
267.08
 31
0.0
  0
LINE
  5
6AE
100
AcDbEntity
  8
LAY-9
  6
CONTINUOUS
 62
     1
100
AcDbLine
 10
353.403381
 20
272.09
 30
0.0
 11
353.403381
 21
276.561285
 31
0.0
  0
LINE
  5
6AF
100
AcDbEntity
  8
LAY-9
  6
CONTINUOUS
 62
     1
100
AcDbLine
 10
351.803381
 20
263.161285
 30
0.0
 11
351.803381
 21
267.08
 31
0.0
  0
LINE
  5
6B0
100
AcDbEntity
  8
LAY-9
  6
CONTINUOUS
 62
     1
100
AcDbLine
 10
351.803381
 20
272.09
 30
0.0
 11
351.803381
 21
276.561285
 31
0.0
  0
LINE
  5
6B1
100
AcDbEntity
  8
LAY-9
  6
CONTINUOUS
 62
     1
100
AcDbLine
 10
674.977325
 20
291.999939
 30
0.0
 11
674.977325
 21
220.965515
 31
0.0
  0
LINE
  5
6B2
100
AcDbEntity
  8
LAY-9
  6
CONTINUOUS
 62
     1
100
AcDbLine
 10
674.977722
 20
365.815186
 30
0.0
 11
674.977722
 21
297.049668
 31
0.0
  0
LINE
  5
6B3
100
AcDbEntity
  8
LAY-9
  6
CONTINUOUS
 62
     1
100
AcDbLine
 10
708.477325
 20
380.815217
 30
0.0
 11
713.377722
 21
380.815217
 31
0.0
  0
LINE
  5
6B4
100
AcDbEntity
  8
LAY-9
  6
CONTINUOUS
 62
     1
100
AcDbLine
 10
671.977295
 20
398.815247
 30
0.0
 11
671.977295
 21
407.215247
 31
0.0
  0
LINE
  5
6B5
100
AcDbEntity
  8
LAY-9
  6
CONTINUOUS
 62
     1
100
AcDbLine
 10
671.977295
 20
383.815247
 30
0.0
 11
671.977295
 21
380.815221
 31
0.0
  0
LINE
  5
6B6
100
AcDbEntity
  8
LAY-10
  6
CONTINUOUS
 62
     5
100
AcDbLine
 10
15.0
 20
15.0
 30
0.0
 11
826.0
 21
15.0
 31
0.0
  0
LINE
  5
6B7
100
AcDbEntity
  8
LAY-10
  6
CONTINUOUS
 62
     5
100
AcDbLine
 10
826.0
 20
15.0
 30
0.0
 11
826.0
 21
579.0
 31
0.0
  0
LINE
  5
6B8
100
AcDbEntity
  8
LAY-10
  6
CONTINUOUS
 62
     5
100
AcDbLine
 10
15.0
 20
15.0
 30
0.0
 11
15.0
 21
579.0
 31
0.0
  0
LINE
  5
6B9
100
AcDbEntity
  8
LAY-10
  6
CONTINUOUS
 62
     5
100
AcDbLine
 10
15.0
 20
579.0
 30
0.0
 11
826.0
 21
579.0
 31
0.0
  0
LINE
  5
6BA
100
AcDbEntity
  8
LAY-10
  6
CONTINUOUS
 62
     5
100
AcDbLine
 10
15.0
 20
40.0
 30
0.0
 11
826.0
 21
40.0
 31
0.0
  0
LINE
  5
6BB
100
AcDbEntity
  8
LAY-10
  6
CONTINUOUS
 62
     1
100
AcDbLine
 10
224.0
 20
40.0
 30
0.0
 11
224.0
 21
15.0
 31
0.0
  0
LINE
  5
6BC
100
AcDbEntity
  8
LAY-10
  6
CONTINUOUS
 62
     1
100
AcDbLine
 10
249.5
 20
40.0
 30
0.0
 11
249.5
 21
15.0
 31
0.0
  0
LINE
  5
6BD
100
AcDbEntity
  8
LAY-10
  6
CONTINUOUS
 62
     1
100
AcDbLine
 10
275.0
 20
40.0
 30
0.0
 11
275.0
 21
15.0
 31
0.0
  0
LINE
  5
6BE
100
AcDbEntity
  8
LAY-10
  6
CONTINUOUS
 62
     1
100
AcDbLine
 10
300.5
 20
40.0
 30
0.0
 11
300.5
 21
15.0
 31
0.0
  0
LINE
  5
6BF
100
AcDbEntity
  8
LAY-10
  6
CONTINUOUS
 62
     1
100
AcDbLine
 10
326.0
 20
40.0
 30
0.0
 11
326.0
 21
15.0
 31
0.0
  0
LINE
  5
6C0
100
AcDbEntity
  8
LAY-10
  6
CONTINUOUS
 62
     1
100
AcDbLine
 10
377.0
 20
40.0
 30
0.0
 11
377.0
 21
15.0
 31
0.0
  0
LINE
  5
6C1
100
AcDbEntity
  8
LAY-10
  6
CONTINUOUS
 62
     1
100
AcDbLine
 10
738.0
 20
40.0
 30
0.0
 11
738.0
 21
15.0
 31
0.0
  0
LINE
  5
6C2
100
AcDbEntity
  8
LAY-10
  6
CONTINUOUS
 62
     1
100
AcDbLine
 10
224.0
 20
32.0
 30
0.0
 11
377.0
 21
32.0
 31
0.0
  0
TEXT
  5
6C3
100
AcDbEntity
  8
LAY-10
  6
CONTINUOUS
 62
     4
100
AcDbText
 10
227.5
 20
33.0
 30
0.0
 40
6.0
  1
検　  図
 41
0.57856
  7
EXCADSTD
 72
     5
 11
246.700001
 21
33.0
 31
0.0
100
AcDbText
  0
TEXT
  5
6C4
100
AcDbEntity
  8
LAY-10
  6
CONTINUOUS
 62
     4
100
AcDbText
 10
253.2
 20
33.0
 30
0.0
 40
6.0
  1
担　　当
 41
0.672
  7
EXCADSTD
 72
     5
 11
272.400001
 21
33.0
 31
0.0
100
AcDbText
  0
TEXT
  5
6C5
100
AcDbEntity
  8
LAY-10
  6
CONTINUOUS
 62
     4
100
AcDbText
 10
278.4
 20
33.0
 30
0.0
 40
6.0
  1
製　　図
 41
0.672
  7
EXCADSTD
 72
     5
 11
297.600001
 21
33.0
 31
0.0
100
AcDbText
  0
TEXT
  5
6C6
100
AcDbEntity
  8
LAY-10
  6
CONTINUOUS
 62
     4
100
AcDbText
 10
303.9
 20
33.0
 30
0.0
 40
6.0
  1
尺　　度
 41
0.672
  7
EXCADSTD
 72
     5
 11
323.100001
 21
33.0
 31
0.0
100
AcDbText
  0
TEXT
  5
6C7
100
AcDbEntity
  8
LAY-10
  6
CONTINUOUS
 62
     4
100
AcDbText
 10
339.5
 20
33.0
 30
0.0
 40
6.0
  1
作成年月日
 41
0.672
  7
EXCADSTD
 72
     5
 11
363.500001
 21
33.0
 31
0.0
100
AcDbText
  0
TEXT
  5
6C8
100
AcDbEntity
  8
LAY-10
  6
CONTINUOUS
 62
   134
100
AcDbText
 10
42.98
 20
20.91
 30
0.0
 40
13.0
  1
日本ドアーチエック製造株式会社
 41
0.653908
  7
EXCADSTD
 72
     5
 11
194.779994
 21
20.91
 31
0.0
100
AcDbText
  0
LINE
  5
6C9
100
AcDbEntity
  8
LAY-10
  6
CONTINUOUS
 62
     1
100
AcDbLine
 10
841.0
 20
0.0
 30
0.0
 11
841.0
 21
2.0
 31
0.0
  0
LINE
  5
6CA
100
AcDbEntity
  8
LAY-10
  6
CONTINUOUS
 62
     1
100
AcDbLine
 10
841.0
 20
592.0
 30
0.0
 11
841.0
 21
594.0
 31
0.0
  0
LINE
  5
6CB
100
AcDbEntity
  8
LAY-10
  6
CONTINUOUS
 62
     1
100
AcDbLine
 10
841.0
 20
594.0
 30
0.0
 11
839.0
 21
594.0
 31
0.0
  0
LINE
  5
6CC
100
AcDbEntity
  8
LAY-10
  6
CONTINUOUS
 62
     1
100
AcDbLine
 10
2.0
 20
594.0
 30
0.0
 11
0.0
 21
594.0
 31
0.0
  0
LINE
  5
6CD
100
AcDbEntity
  8
LAY-10
  6
CONTINUOUS
 62
     1
100
AcDbLine
 10
0.0
 20
594.0
 30
0.0
 11
0.0
 21
592.0
 31
0.0
  0
LINE
  5
6CE
100
AcDbEntity
  8
LAY-10
  6
CONTINUOUS
 62
     1
100
AcDbLine
 10
0.0
 20
2.0
 30
0.0
 11
0.0
 21
0.0
 31
0.0
  0
LINE
  5
6CF
100
AcDbEntity
  8
LAY-10
  6
CONTINUOUS
 62
     1
100
AcDbLine
 10
0.0
 20
0.0
 30
0.0
 11
2.0
 21
0.0
 31
0.0
  0
LINE
  5
6D0
100
AcDbEntity
  8
LAY-10
  6
CONTINUOUS
 62
     1
100
AcDbLine
 10
839.0
 20
0.0
 30
0.0
 11
841.0
 21
0.0
 31
0.0
  0
TEXT
  5
6D1
100
AcDbEntity
  8
LAY-10
  6
CONTINUOUS
 62
     4
100
AcDbText
 10
383.0
 20
33.0
 30
0.0
 40
6.0
  1
図 面 名
 41
0.57856
  7
EXCADSTD
 72
     5
 11
402.200001
 21
33.0
 31
0.0
100
AcDbText
  0
TEXT
  5
6D2
100
AcDbEntity
  8
LAY-10
  6
CONTINUOUS
 62
     4
100
AcDbText
 10
744.0
 20
33.0
 30
0.0
 40
6.0
  1
図面番号
 41
0.672
  7
EXCADSTD
 72
     5
 11
763.200001
 21
33.0
 31
0.0
100
AcDbText
  0
TEXT
  5
6D3
100
AcDbEntity
  8
LAY-10
  6
CONTINUOUS
 62
     2
100
AcDbText
 10
306.5
 20
20.2
 30
0.0
 40
6.0
  1
１／１
 41
0.672
  7
EXCADSTD
 72
     5
 11
320.900001
 21
20.2
 31
0.0
100
AcDbText
  0
TEXT
  5
6D4
100
AcDbEntity
  8
LAY-10
  6
CONTINUOUS
 62
     2
100
AcDbText
 10
332.6
 20
20.2
 30
0.0
 40
6.0
  1
Ｈ１３.　７.　２
 41
0.622617
  7
EXCADSTD
 72
     5
 11
371.000002
 21
20.2
 31
0.0
100
AcDbText
  0
TEXT
  5
6D5
100
AcDbEntity
  8
LAY-10
  6
CONTINUOUS
 62
     2
100
AcDbText
 10
406.828367
 20
19.274519
 30
0.0
 40
10.0
  1
ピボットヒンジ　１２ＡＴ(沓摺挿入型 )　納まり図
 41
0.654222
  7
EXCADSTD
 72
     5
 11
590.828367
 21
19.274519
 31
0.0
100
AcDbText
  0
ENDSEC
  0
SECTION
  2
OBJECTS
  0
DICTIONARY
  5
19
100
AcDbDictionary
  3
ACAD_GROUP
350
1A
  3
ACAD_MLINESTYLE
350
1B
  0
DICTIONARY
  5
1A
102
{ACAD_REACTORS
330
19
102
}
100
AcDbDictionary
  0
DICTIONARY
  5
1B
102
{ACAD_REACTORS
330
19
102
}
100
AcDbDictionary
  3
STANDARD
350
1C
  0
MLINESTYLE
  5
1C
102
{ACAD_REACTORS
330
1B
102
}
100
AcDbMlineStyle
  2
Standard
 70
     0
  3

 62
     0
 51
90.0
 52
90.0
 71
     2
 49
0.5
 62
   256
  6
ByLayer
 49
-0.5
 62
   256
  6
ByLayer
  0
ENDSEC
  0
EOF
