  0
SECTION
  2
HEADER
  9
$ACADVER
  1
AC1014
  9
$ACADMAINTVER
 70
     0
  9
$DWGCODEPAGE
  3
ANSI_932
  9
$INSBASE
 10
0.0
 20
0.0
 30
0.0
  9
$EXTMIN
 10
0.0
 20
0.0
 30
0.0
  9
$EXTMAX
 10
841.0
 20
594.0
 30
0.0
  9
$LIMMIN
 10
0.0
 20
0.0
  9
$LIMMAX
 10
841.0
 20
594.0
  9
$ORTHOMODE
 70
     0
  9
$REGENMODE
 70
     1
  9
$FILLMODE
 70
     1
  9
$QTEXTMODE
 70
     0
  9
$MIRRTEXT
 70
     1
  9
$DRAGMODE
 70
     2
  9
$LTSCALE
 40
1.0
  9
$OSMODE
 70
     0
  9
$ATTMODE
 70
     1
  9
$TEXTSIZE
 40
0.2
  9
$TRACEWID
 40
0.05
  9
$TEXTSTYLE
  7
STANDARD
  9
$CLAYER
  8
LAY-1
  9
$CELTYPE
  6
CONTINUOUS
  9
$CECOLOR
 62
   256
  9
$CELTSCALE
 40
1.0
  9
$DELOBJ
 70
     1
  9
$DISPSILH
 70
     0
  9
$DIMSCALE
 40
1.0
  9
$DIMASZ
 40
0.18
  9
$DIMEXO
 40
0.0625
  9
$DIMDLI
 40
0.38
  9
$DIMRND
 40
0.0
  9
$DIMDLE
 40
0.0
  9
$DIMEXE
 40
0.18
  9
$DIMTP
 40
0.0
  9
$DIMTM
 40
0.0
  9
$DIMTXT
 40
0.18
  9
$DIMCEN
 40
0.09
  9
$DIMTSZ
 40
0.0
  9
$DIMTOL
 70
     0
  9
$DIMLIM
 70
     0
  9
$DIMTIH
 70
     1
  9
$DIMTOH
 70
     1
  9
$DIMSE1
 70
     0
  9
$DIMSE2
 70
     0
  9
$DIMTAD
 70
     0
  9
$DIMZIN
 70
     0
  9
$DIMBLK
  1

  9
$DIMASO
 70
     1
  9
$DIMSHO
 70
     1
  9
$DIMPOST
  1

  9
$DIMAPOST
  1

  9
$DIMALT
 70
     0
  9
$DIMALTD
 70
     2
  9
$DIMALTF
 40
25.4
  9
$DIMLFAC
 40
1.0
  9
$DIMTOFL
 70
     0
  9
$DIMTVP
 40
0.0
  9
$DIMTIX
 70
     0
  9
$DIMSOXD
 70
     0
  9
$DIMSAH
 70
     0
  9
$DIMBLK1
  1

  9
$DIMBLK2
  1

  9
$DIMSTYLE
  2
STANDARD
  9
$DIMCLRD
 70
     0
  9
$DIMCLRE
 70
     0
  9
$DIMCLRT
 70
     0
  9
$DIMTFAC
 40
1.0
  9
$DIMGAP
 40
0.09
  9
$DIMJUST
 70
     0
  9
$DIMSD1
 70
     0
  9
$DIMSD2
 70
     0
  9
$DIMTOLJ
 70
     1
  9
$DIMTZIN
 70
     0
  9
$DIMALTZ
 70
     0
  9
$DIMALTTZ
 70
     0
  9
$DIMFIT
 70
     3
  9
$DIMUPT
 70
     0
  9
$DIMUNIT
 70
     2
  9
$DIMDEC
 70
     4
  9
$DIMTDEC
 70
     4
  9
$DIMALTU
 70
     2
  9
$DIMALTTD
 70
     2
  9
$DIMTXSTY
  7
STANDARD
  9
$DIMAUNIT
 70
     0
  9
$LUNITS
 70
     2
  9
$LUPREC
 70
     4
  9
$SKETCHINC
 40
0.1
  9
$FILLETRAD
 40
0.0
  9
$AUNITS
 70
     0
  9
$AUPREC
 70
     0
  9
$MENU
  1
acad
  9
$ELEVATION
 40
0.0
  9
$PELEVATION
 40
0.0
  9
$THICKNESS
 40
0.0
  9
$LIMCHECK
 70
     0
  9
$BLIPMODE
 70
     1
  9
$CHAMFERA
 40
0.0
  9
$CHAMFERB
 40
0.0
  9
$CHAMFERC
 40
0.0
  9
$CHAMFERD
 40
0.0
  9
$SKPOLY
 70
     0
  9
$TDCREATE
 40
2454541.754317917
  9
$TDUPDATE
 40
2454541.754317917
  9
$TDINDWG
 40
0.0000000000
  9
$TDUSRTIMER
 40
0.0000000000
  9
$USRTIMER
 70
     1
  9
$ANGBASE
 50
0.0
  9
$ANGDIR
 70
     0
  9
$PDMODE
 70
     0
  9
$PDSIZE
 40
0.0
  9
$PLINEWID
 40
0.0
  9
$COORDS
 70
     1
  9
$SPLFRAME
 70
     0
  9
$SPLINETYPE
 70
     6
  9
$SPLINESEGS
 70
     8
  9
$ATTDIA
 70
     0
  9
$ATTREQ
 70
     1
  9
$HANDLING
 70
     1
  9
$HANDSEED
  5
589
  9
$SURFTAB1
 70
     6
  9
$SURFTAB2
 70
     6
  9
$SURFTYPE
 70
     6
  9
$SURFU
 70
     6
  9
$SURFV
 70
     6
  9
$UCSNAME
  2

  9
$UCSORG
 10
0.0
 20
0.0
 30
0.0
  9
$UCSXDIR
 10
1.0
 20
0.0
 30
0.0
  9
$UCSYDIR
 10
0.0
 20
1.0
 30
0.0
  9
$PUCSNAME
  2

  9
$PUCSORG
 10
0.0
 20
0.0
 30
0.0
  9
$PUCSXDIR
 10
1.0
 20
0.0
 30
0.0
  9
$PUCSYDIR
 10
0.0
 20
1.0
 30
0.0
  9
$USERI1
 70
     0
  9
$USERI2
 70
     0
  9
$USERI3
 70
     0
  9
$USERI4
 70
     0
  9
$USERI5
 70
     0
  9
$USERR1
 40
0.0
  9
$USERR2
 40
0.0
  9
$USERR3
 40
0.0
  9
$USERR4
 40
0.0
  9
$USERR5
 40
0.0
  9
$WORLDVIEW
 70
     1
  9
$SHADEDGE
 70
     3
  9
$SHADEDIF
 70
    70
  9
$TILEMODE
 70
     1
  9
$MAXACTVP
 70
    16
  9
$PINSBASE
 10
0.0
 20
0.0
 30
0.0
  9
$PLIMCHECK
 70
     0
  9
$PEXTMIN
 10
1.000000E+20
 20
1.000000E+20
 30
1.000000E+20
  9
$PEXTMAX
 10
-1.000000E+20
 20
-1.000000E+20
 30
-1.000000E+20
  9
$PLIMMIN
 10
0.0
 20
0.0
  9
$PLIMMAX
 10
12.0
 20
9.0
  9
$UNITMODE
 70
     0
  9
$VISRETAIN
 70
     0
  9
$PLINEGEN
 70
     1
  9
$PSLTSCALE
 70
     0
  9
$TREEDEPTH
 70
  3020
  9
$PICKSTYLE
 70
     1
  9
$CMLSTYLE
  2
Standard
  9
$CMLJUST
 70
     0
  9
$CMLSCALE
 40
1.0
  9
$PROXYGRAPHICS
 70
     0
  9
$MEASUREMENT
 70
     0
  0
ENDSEC
  0
SECTION
  2
CLASSES
  0
CLASS
  1
LWPOLYLINE
  2
AcDbPolyline
  3
"AutoCAD"
 90
        0
280
     0
281
     1
  0
CLASS
  1
IMAGE
  2
AcDbRasterImage
  3
ISM
 90
      127
280
     0
281
     1
  0
CLASS
  1
OLE2FRAME
  2
AcDbOle2Frame
  3
""
 90
        0
280
     0
281
     1
  0
CLASS
  1
HATCH
  2
AcDbHatch
  3
"ACAD_SEDONA"
 90
        0
280
     0
281
     1
  0
CLASS
  1
DICTIONARYVAR
  2
AcDbDictionaryVar
  3
"AutoCAD"
 90
        0
280
     0
281
     0
  0
CLASS
  1
RASTERVARIABLES
  2
AcDbRasterVariables
  3
ISM
 90
        0
280
     0
281
     0
  0
CLASS
  1
IMAGEDEF
  2
AcDbRasterImageDef
  3
ISM
 90
        0
280
     0
281
     0
  0
CLASS
  1
IMAGEDEF_REACTOR
  2
AcDbRasterImageDefReactor
  3
ISM
 90
        1
280
     0
281
     0
  0
CLASS
  1
IDBUFFER
  2
AcDbIdBuffer
  3
"Acad"
 90
        0
280
     0
281
     0
  0
CLASS
  1
SPATIAL_FILTER
  2
AcDbSpatialFilter
  3
"Acad"
 90
        0
280
     0
281
     0
  0
CLASS
  1
XRECORD
  2
AcDbXrecord
  3
"<Built In>"
 90
        0
280
     0
281
     0
  0
CLASS
  1
SORTENTSTABLE
  2
AcDbSortentsTable
  3
"AutoCAD"
 90
        0
280
     0
281
     0
  0
CLASS
  1
LAYER_INDEX
  2
AcDbLayerIndex
  3
"Acad"
 90
        0
280
     0
281
     0
  0
CLASS
  1
SPATIAL_INDEX
  2
AcDbSpatialIndex
  3
"Acad"
 90
        0
280
     0
281
     0
  0
CLASS
  1
OBJECT_PTR
  2
CAseDLPNTableRecord
  3
"ASE-LPNTableRecord"
 90
        1
280
     0
281
     0
  0
CLASS
  1
LAYOUT
  2
AcDbLayout
  3
"AutoCAD 2000"
 90
        0
280
     0
281
     0
  0
CLASS
  1
PLOTSETTINGS
  2
AcDbPlotSettings
  3
"AutoCAD 2000"
 90
        0
280
     0
281
     0
  0
CLASS
  1
ACDBDICTIONARYWDFLT
  2
AcDbDictionaryWithDefault
  3
"AutoCAD 2000"
 90
        0
280
     0
281
     0
  0
CLASS
  1
ACDBPLACEHOLDER
  2
AcDbPlaceHolder
  3
"AutoCAD 2000"
 90
        0
280
     0
281
     0
  0
CLASS
  1
VBA_PROJECT
  2
AcDbVbaProject
  3
"acadvba"
 90
        0
280
     0
281
     0
  0
CLASS
  1
WIPEOUT
  2
AcDbWipeout
  3
WipeOut|AutoCAD Express Tool|expresstools@autodesk.com
 90
      127
280
     0
281
     1
  0
CLASS
  1
WIPEOUTVARIABLES
  2
AcDbWipeoutVariables
  3
WipeOut|AutoCAD Express Tool|expresstools@autodesk.com
 90
        0
280
     0
281
     0
  0
CLASS
  1
RTEXT
  2
RText
  3
RText|AutoCAD Express Tool|expresstools@autodesk.com
 90
        0
280
     0
281
     1
  0
CLASS
  1
ARCALIGNEDTEXT
  2
AcDbArcAlignedText
  3
ATEXT|AutoCAD Express Tool|expresstools@autodesk.com
 90
        0
280
     0
281
     1
  0
ENDSEC
  0
SECTION
  2
TABLES
  0
TABLE
  2
VPORT
  5
7
100
AcDbSymbolTable
 70
     1
  0
VPORT
  5
15
100
AcDbSymbolTableRecord
100
AcDbViewportTableRecord
  2
*ACTIVE
 70
     0
 10
0.0
 20
0.0
 11
1.0
 21
1.0
 12
420.5
 22
297.0
 13
0.0
 23
0.0
 14
1.0
 24
1.0
 15
0.0
 25
0.0
 16
0.0
 26
0.0
 36
1.0
 17
0.0
 27
0.0
 37
0.0
 40
594.0
 41
1.722533
 42
50.0
 43
0.0
 44
0.0
 50
0.0
 51
0.0
 71
     0
 72
   100
 73
     1
 74
     1
 75
     0
 76
     0
 77
     0
 78
     0
  0
ENDTAB
  0
TABLE
  2
LTYPE
  5
4
100
AcDbSymbolTable
 70
     9
  0
LTYPE
  5
11
100
AcDbSymbolTableRecord
100
AcDbLinetypeTableRecord
  2
BYBLOCK
 70
    64
  3

 72
    65
 73
     0
 40
0.0
  0
LTYPE
  5
12
100
AcDbSymbolTableRecord
100
AcDbLinetypeTableRecord
  2
BYLAYER
 70
    64
  3

 72
    65
 73
     0
 40
0.0
  0
LTYPE
  5
13
100
AcDbSymbolTableRecord
100
AcDbLinetypeTableRecord
  2
CONTINUOUS
 70
    64
  3
実線
 72
    65
 73
     0
 40
0.0
  0
LTYPE
  5
1D
100
AcDbSymbolTableRecord
100
AcDbLinetypeTableRecord
  2
DASHED
 70
    64
  3
Dashed __ __ __ __ __ __ __ __ __ __ __ __ __ _
 72
    65
 73
     2
 40
19.05
 49
12.7
 74
     0
 49
-6.35
 74
     0
  0
LTYPE
  5
1E
100
AcDbSymbolTableRecord
100
AcDbLinetypeTableRecord
  2
DASHED2
 70
    64
  3
Dashed (.5x) _ _ _ _ _ _ _ _ _ _ _ _ _ _ _ _ _ 
 72
    65
 73
     2
 40
9.525
 49
6.35
 74
     0
 49
-3.175
 74
     0
  0
LTYPE
  5
1F
100
AcDbSymbolTableRecord
100
AcDbLinetypeTableRecord
  2
DASHDOT
 70
    64
  3
Dash dot __ . __ . __ . __ . __ . __ . __ . __
 72
    65
 73
     4
 40
25.4
 49
12.7
 74
     0
 49
-6.35
 74
     0
 49
0.0
 74
     0
 49
-6.35
 74
     0
  0
LTYPE
  5
20
100
AcDbSymbolTableRecord
100
AcDbLinetypeTableRecord
  2
DIVIDE
 70
    64
  3
Divide ____ . . ____ . . ____ . . ____ . . ____
 72
    65
 73
     6
 40
31.75
 49
12.7
 74
     0
 49
-6.35
 74
     0
 49
0.0
 74
     0
 49
-6.35
 74
     0
 49
0.0
 74
     0
 49
-6.35
 74
     0
  0
LTYPE
  5
21
100
AcDbSymbolTableRecord
100
AcDbLinetypeTableRecord
  2
ACAD_ISO06W100
 70
    64
  3
ISO long-dash triple-dot ____ ... ____ ... ____
 72
    65
 73
     8
 40
36.0
 49
24.0
 74
     0
 49
-3.0
 74
     0
 49
0.0
 74
     0
 49
-3.0
 74
     0
 49
0.0
 74
     0
 49
-3.0
 74
     0
 49
0.0
 74
     0
 49
-3.0
 74
     0
  0
LTYPE
  5
22
100
AcDbSymbolTableRecord
100
AcDbLinetypeTableRecord
  2
ACAD_ISO15W100
 70
    64
  3
ISO double-dash triple-dot __ __ . . . __ __ . .
 72
    65
 73
    10
 40
39.0
 49
12.0
 74
     0
 49
-3.0
 74
     0
 49
12.0
 74
     0
 49
-3.0
 74
     0
 49
0.0
 74
     0
 49
-3.0
 74
     0
 49
0.0
 74
     0
 49
-3.0
 74
     0
 49
0.0
 74
     0
 49
-3.0
 74
     0
  0
ENDTAB
  0
TABLE
  2
LAYER
  5
2
100
AcDbSymbolTable
 70
     9
  0
LAYER
  5
14
100
AcDbSymbolTableRecord
100
AcDbLayerTableRecord
  2
0
 70
     0
 62
     7
  6
CONTINUOUS
  0
LAYER
  5
25
100
AcDbSymbolTableRecord
100
AcDbLayerTableRecord
  2
LAY-1
 70
    64
 62
     3
  6
CONTINUOUS
  0
LAYER
  5
26
100
AcDbSymbolTableRecord
100
AcDbLayerTableRecord
  2
LAY-2
 70
    64
 62
     3
  6
CONTINUOUS
  0
LAYER
  5
27
100
AcDbSymbolTableRecord
100
AcDbLayerTableRecord
  2
LAY-3
 70
    64
 62
     3
  6
CONTINUOUS
  0
LAYER
  5
28
100
AcDbSymbolTableRecord
100
AcDbLayerTableRecord
  2
LAY-4
 70
    64
 62
     3
  6
CONTINUOUS
  0
LAYER
  5
29
100
AcDbSymbolTableRecord
100
AcDbLayerTableRecord
  2
LAY-5
 70
    64
 62
     1
  6
DASHDOT
  0
LAYER
  5
2A
100
AcDbSymbolTableRecord
100
AcDbLayerTableRecord
  2
LAY-6
 70
    64
 62
     2
  6
CONTINUOUS
  0
LAYER
  5
2B
100
AcDbSymbolTableRecord
100
AcDbLayerTableRecord
  2
LAY-9
 70
    64
 62
     4
  6
CONTINUOUS
  0
LAYER
  5
2C
100
AcDbSymbolTableRecord
100
AcDbLayerTableRecord
  2
LAY-10
 70
    64
 62
     5
  6
CONTINUOUS
  0
ENDTAB
  0
TABLE
  2
STYLE
  5
3
100
AcDbSymbolTable
 70
     3
  0
STYLE
  5
17
100
AcDbSymbolTableRecord
100
AcDbTextStyleTableRecord
  2
STANDARD
 70
     0
 40
0.0
 41
1.0
 50
0.0
 71
     0
 42
0.0
  3
monotxt
  4
extfont
  0
STYLE
  5
23
100
AcDbSymbolTableRecord
100
AcDbTextStyleTableRecord
  2
EXCADSTD
 70
    64
 40
0.0
 41
1.0
 50
0.0
 71
     0
 42
0.2
  3
monotxt
  4
extfont
  0
STYLE
  5
24
100
AcDbSymbolTableRecord
100
AcDbTextStyleTableRecord
  2
EXCADVERT
 70
    68
 40
0.0
 41
1.0
 50
0.0
 71
     0
 42
0.286885
  3
monotxt
  4
extfont
  0
ENDTAB
  0
TABLE
  2
VIEW
  5
5
100
AcDbSymbolTable
 70
     0
  0
ENDTAB
  0
TABLE
  2
UCS
  5
6
100
AcDbSymbolTable
 70
     0
  0
ENDTAB
  0
TABLE
  2
APPID
  5
8
100
AcDbSymbolTable
 70
     1
  0
APPID
  5
16
100
AcDbSymbolTableRecord
100
AcDbRegAppTableRecord
  2
ACAD
 70
     0
  0
ENDTAB
  0
TABLE
  2
DIMSTYLE
  5
9
100
AcDbSymbolTable
 70
     1
  0
DIMSTYLE
105
18
100
AcDbSymbolTableRecord
100
AcDbDimStyleTableRecord
  2
STANDARD
 70
     0
  3

  4

  5

  6

  7

 40
1.0
 41
0.18
 42
0.0625
 43
0.38
 44
0.18
 45
0.0
 46
0.0
 47
0.0
 48
0.0
 71
     0
 72
     0
 73
     1
 74
     1
 75
     0
 76
     0
 77
     0
 78
     0
140
0.18
141
0.09
142
0.0
143
25.4
144
1.0
145
0.0
146
1.0
147
0.09
170
     0
171
     2
172
     1
173
     0
174
     0
175
     0
176
     0
177
     0
178
     0
270
     2
271
     4
272
     4
273
     2
274
     2
275
     0
280
     0
281
     0
282
     0
283
     1
284
     0
285
     0
286
     0
287
     3
288
     0
340
17
  0
ENDTAB
  0
TABLE
  2
BLOCK_RECORD
  5
1
100
AcDbSymbolTable
 70
    14
  0
BLOCK_RECORD
  5
A
100
AcDbSymbolTableRecord
100
AcDbBlockTableRecord
  2
*MODEL_SPACE
  0
BLOCK_RECORD
  5
B
100
AcDbSymbolTableRecord
100
AcDbBlockTableRecord
  2
*PAPER_SPACE
  0
BLOCK_RECORD
  5
2D
100
AcDbSymbolTableRecord
100
AcDbBlockTableRecord
  2
_EX_NORM
  0
BLOCK_RECORD
  5
2E
100
AcDbSymbolTableRecord
100
AcDbBlockTableRecord
  2
_EX_BNORM
  0
BLOCK_RECORD
  5
2F
100
AcDbSymbolTableRecord
100
AcDbBlockTableRecord
  2
_EX_BCIR
  0
BLOCK_RECORD
  5
30
100
AcDbSymbolTableRecord
100
AcDbBlockTableRecord
  2
_EX_RCIVIL
  0
BLOCK_RECORD
  5
31
100
AcDbSymbolTableRecord
100
AcDbBlockTableRecord
  2
_EX_SLANT
  0
BLOCK_RECORD
  5
32
100
AcDbSymbolTableRecord
100
AcDbBlockTableRecord
  2
_EX_NONE
  0
BLOCK_RECORD
  5
33
100
AcDbSymbolTableRecord
100
AcDbBlockTableRecord
  2
_EX_CIVIL
  0
BLOCK_RECORD
  5
34
100
AcDbSymbolTableRecord
100
AcDbBlockTableRecord
  2
_EX_WCIR
  0
BLOCK_RECORD
  5
35
100
AcDbSymbolTableRecord
100
AcDbBlockTableRecord
  2
_EX_WCIR2
  0
BLOCK_RECORD
  5
36
100
AcDbSymbolTableRecord
100
AcDbBlockTableRecord
  2
_EX_WNORM
  0
BLOCK_RECORD
  5
37
100
AcDbSymbolTableRecord
100
AcDbBlockTableRecord
  2
_EX_NNORM
  0
BLOCK_RECORD
  5
38
100
AcDbSymbolTableRecord
100
AcDbBlockTableRecord
  2
_EX_BBOX
  0
BLOCK_RECORD
  5
39
100
AcDbSymbolTableRecord
100
AcDbBlockTableRecord
  2
_EX_WBOX
  0
BLOCK_RECORD
  5
3A
100
AcDbSymbolTableRecord
100
AcDbBlockTableRecord
  2
_EX_INTEGRAL
  0
ENDTAB
  0
ENDSEC
  0
SECTION
  2
BLOCKS
  0
BLOCK
  5
D
100
AcDbEntity
  8
0
100
AcDbBlockBegin
  2
*MODEL_SPACE
 70
     0
 10
0.0
 20
0.0
 30
0.0
  3
*MODEL_SPACE
  1

  0
ENDBLK
  5
E
100
AcDbEntity
  8
0
100
AcDbBlockEnd
  0
BLOCK
  5
F
100
AcDbEntity
 67
     1
  8
0
100
AcDbBlockBegin
  2
*PAPER_SPACE
 70
     0
 10
0.0
 20
0.0
 30
0.0
  3
*PAPER_SPACE
  1

  0
ENDBLK
  5
10
100
AcDbEntity
 67
     1
  8
0
100
AcDbBlockEnd
  0
BLOCK
  5
3B
100
AcDbEntity
  8
0
100
AcDbBlockBegin
  2
_EX_NORM
 70
     0
 10
0.0
 20
0.0
 30
0.0
  3
_EX_NORM
  1

  0
LINE
  5
3C
100
AcDbEntity
  8
0
  6
CONTINUOUS
 62
     0
100
AcDbLine
 10
0.0
 20
0.0
 30
0.0
 11
-1.0
 21
0.0
 31
0.0
  0
LINE
  5
3D
100
AcDbEntity
  8
0
  6
CONTINUOUS
 62
     0
100
AcDbLine
 10
0.0
 20
0.0
 30
0.0
 11
-1.0
 21
0.166667
 31
0.0
  0
LINE
  5
3E
100
AcDbEntity
  8
0
  6
CONTINUOUS
 62
     0
100
AcDbLine
 10
0.0
 20
0.0
 30
0.0
 11
-1.0
 21
-0.166667
 31
0.0
  0
ENDBLK
  5
3F
100
AcDbEntity
  8
0
100
AcDbBlockEnd
  0
BLOCK
  5
40
100
AcDbEntity
  8
0
100
AcDbBlockBegin
  2
_EX_BNORM
 70
     0
 10
0.0
 20
0.0
 30
0.0
  3
_EX_BNORM
  1

  0
LINE
  5
41
100
AcDbEntity
  8
0
  6
CONTINUOUS
 62
     0
100
AcDbLine
 10
0.0
 20
0.0
 30
0.0
 11
-1.0
 21
0.0
 31
0.0
  0
LINE
  5
42
100
AcDbEntity
  8
0
  6
CONTINUOUS
 62
     0
100
AcDbLine
 10
0.0
 20
0.0
 30
0.0
 11
-1.0
 21
0.166667
 31
0.0
  0
LINE
  5
43
100
AcDbEntity
  8
0
  6
CONTINUOUS
 62
     0
100
AcDbLine
 10
0.0
 20
0.0
 30
0.0
 11
-1.0
 21
-0.166667
 31
0.0
  0
LINE
  5
44
100
AcDbEntity
  8
0
  6
CONTINUOUS
 62
     0
100
AcDbLine
 10
0.0
 20
0.0
 30
0.0
 11
-1.0
 21
0.083333
 31
0.0
  0
LINE
  5
45
100
AcDbEntity
  8
0
  6
CONTINUOUS
 62
     0
100
AcDbLine
 10
0.0
 20
0.0
 30
0.0
 11
-1.0
 21
-0.083333
 31
0.0
  0
LINE
  5
46
100
AcDbEntity
  8
0
  6
CONTINUOUS
 62
     0
100
AcDbLine
 10
-1.0
 20
0.166667
 30
0.0
 11
-1.0
 21
-0.166667
 31
0.0
  0
ENDBLK
  5
47
100
AcDbEntity
  8
0
100
AcDbBlockEnd
  0
BLOCK
  5
48
100
AcDbEntity
  8
0
100
AcDbBlockBegin
  2
_EX_BCIR
 70
     0
 10
0.0
 20
0.0
 30
0.0
  3
_EX_BCIR
  1

  0
LINE
  5
49
100
AcDbEntity
  8
0
  6
CONTINUOUS
 62
     0
100
AcDbLine
 10
0.0
 20
0.0
 30
0.0
 11
-1.0
 21
0.0
 31
0.0
  0
CIRCLE
  5
4A
100
AcDbEntity
  8
0
  6
CONTINUOUS
 62
     0
100
AcDbCircle
 10
0.0
 20
0.0
 30
0.0
 40
0.5
  0
CIRCLE
  5
4B
100
AcDbEntity
  8
0
  6
CONTINUOUS
 62
     0
100
AcDbCircle
 10
0.0
 20
0.0
 30
0.0
 40
0.25
  0
ENDBLK
  5
4C
100
AcDbEntity
  8
0
100
AcDbBlockEnd
  0
BLOCK
  5
4D
100
AcDbEntity
  8
0
100
AcDbBlockBegin
  2
_EX_RCIVIL
 70
     0
 10
0.0
 20
0.0
 30
0.0
  3
_EX_RCIVIL
  1

  0
LINE
  5
4E
100
AcDbEntity
  8
0
  6
CONTINUOUS
 62
     0
100
AcDbLine
 10
0.0
 20
0.0
 30
0.0
 11
-1.0
 21
0.0
 31
0.0
  0
LINE
  5
4F
100
AcDbEntity
  8
0
  6
CONTINUOUS
 62
     0
100
AcDbLine
 10
-1.0
 20
-0.25
 30
0.0
 11
0.0
 21
-0.25
 31
0.0
  0
LINE
  5
50
100
AcDbEntity
  8
0
  6
CONTINUOUS
 62
     0
100
AcDbLine
 10
-1.0
 20
-0.125
 30
0.0
 11
0.0
 21
-0.125
 31
0.0
  0
ENDBLK
  5
51
100
AcDbEntity
  8
0
100
AcDbBlockEnd
  0
BLOCK
  5
52
100
AcDbEntity
  8
0
100
AcDbBlockBegin
  2
_EX_SLANT
 70
     0
 10
0.0
 20
0.0
 30
0.0
  3
_EX_SLANT
  1

  0
LINE
  5
53
100
AcDbEntity
  8
0
  6
CONTINUOUS
 62
     0
100
AcDbLine
 10
0.0
 20
0.0
 30
0.0
 11
-1.0
 21
0.0
 31
0.0
  0
LINE
  5
54
100
AcDbEntity
  8
0
  6
CONTINUOUS
 62
     0
100
AcDbLine
 10
0.707107
 20
0.707107
 30
0.0
 11
-0.707107
 21
-0.707107
 31
0.0
  0
ENDBLK
  5
55
100
AcDbEntity
  8
0
100
AcDbBlockEnd
  0
BLOCK
  5
56
100
AcDbEntity
  8
0
100
AcDbBlockBegin
  2
_EX_NONE
 70
     0
 10
0.0
 20
0.0
 30
0.0
  3
_EX_NONE
  1

  0
LINE
  5
57
100
AcDbEntity
  8
0
  6
CONTINUOUS
 62
     0
100
AcDbLine
 10
0.0
 20
0.0
 30
0.0
 11
-1.0
 21
0.0
 31
0.0
  0
ENDBLK
  5
58
100
AcDbEntity
  8
0
100
AcDbBlockEnd
  0
BLOCK
  5
59
100
AcDbEntity
  8
0
100
AcDbBlockBegin
  2
_EX_CIVIL
 70
     0
 10
0.0
 20
0.0
 30
0.0
  3
_EX_CIVIL
  1

  0
LINE
  5
5A
100
AcDbEntity
  8
0
  6
CONTINUOUS
 62
     0
100
AcDbLine
 10
0.0
 20
0.0
 30
0.0
 11
-1.0
 21
0.0
 31
0.0
  0
LINE
  5
5B
100
AcDbEntity
  8
0
  6
CONTINUOUS
 62
     0
100
AcDbLine
 10
-1.0
 20
0.25
 30
0.0
 11
0.0
 21
0.25
 31
0.0
  0
LINE
  5
5C
100
AcDbEntity
  8
0
  6
CONTINUOUS
 62
     0
100
AcDbLine
 10
-1.0
 20
0.125
 30
0.0
 11
0.0
 21
0.125
 31
0.0
  0
ENDBLK
  5
5D
100
AcDbEntity
  8
0
100
AcDbBlockEnd
  0
BLOCK
  5
5E
100
AcDbEntity
  8
0
100
AcDbBlockBegin
  2
_EX_WCIR
 70
     0
 10
0.0
 20
0.0
 30
0.0
  3
_EX_WCIR
  1

  0
LINE
  5
5F
100
AcDbEntity
  8
0
  6
CONTINUOUS
 62
     0
100
AcDbLine
 10
0.0
 20
0.0
 30
0.0
 11
-1.0
 21
0.0
 31
0.0
  0
CIRCLE
  5
60
100
AcDbEntity
  8
0
  6
CONTINUOUS
 62
     0
100
AcDbCircle
 10
0.0
 20
0.0
 30
0.0
 40
0.5
  0
ENDBLK
  5
61
100
AcDbEntity
  8
0
100
AcDbBlockEnd
  0
BLOCK
  5
62
100
AcDbEntity
  8
0
100
AcDbBlockBegin
  2
_EX_WCIR2
 70
     0
 10
0.0
 20
0.0
 30
0.0
  3
_EX_WCIR2
  1

  0
LINE
  5
63
100
AcDbEntity
  8
0
  6
CONTINUOUS
 62
     0
100
AcDbLine
 10
-0.5
 20
0.0
 30
0.0
 11
-1.0
 21
0.0
 31
0.0
  0
CIRCLE
  5
64
100
AcDbEntity
  8
0
  6
CONTINUOUS
 62
     0
100
AcDbCircle
 10
0.0
 20
0.0
 30
0.0
 40
0.5
  0
ENDBLK
  5
65
100
AcDbEntity
  8
0
100
AcDbBlockEnd
  0
BLOCK
  5
66
100
AcDbEntity
  8
0
100
AcDbBlockBegin
  2
_EX_WNORM
 70
     0
 10
0.0
 20
0.0
 30
0.0
  3
_EX_WNORM
  1

  0
LINE
  5
67
100
AcDbEntity
  8
0
  6
CONTINUOUS
 62
     0
100
AcDbLine
 10
-1.0
 20
0.0
 30
0.0
 11
-1.0
 21
0.0
 31
0.0
  0
LINE
  5
68
100
AcDbEntity
  8
0
  6
CONTINUOUS
 62
     0
100
AcDbLine
 10
0.0
 20
0.0
 30
0.0
 11
-1.0
 21
0.166667
 31
0.0
  0
LINE
  5
69
100
AcDbEntity
  8
0
  6
CONTINUOUS
 62
     0
100
AcDbLine
 10
0.0
 20
0.0
 30
0.0
 11
-1.0
 21
-0.166667
 31
0.0
  0
LINE
  5
6A
100
AcDbEntity
  8
0
  6
CONTINUOUS
 62
     0
100
AcDbLine
 10
-1.0
 20
0.166667
 30
0.0
 11
-1.0
 21
-0.166667
 31
0.0
  0
ENDBLK
  5
6B
100
AcDbEntity
  8
0
100
AcDbBlockEnd
  0
BLOCK
  5
6C
100
AcDbEntity
  8
0
100
AcDbBlockBegin
  2
_EX_NNORM
 70
     0
 10
0.0
 20
0.0
 30
0.0
  3
_EX_NNORM
  1

  0
LINE
  5
6D
100
AcDbEntity
  8
0
  6
CONTINUOUS
 62
     0
100
AcDbLine
 10
0.0
 20
0.0
 30
0.0
 11
-1.0
 21
0.0
 31
0.0
  0
LINE
  5
6E
100
AcDbEntity
  8
0
  6
CONTINUOUS
 62
     0
100
AcDbLine
 10
0.0
 20
0.0
 30
0.0
 11
-1.0
 21
0.166667
 31
0.0
  0
LINE
  5
6F
100
AcDbEntity
  8
0
  6
CONTINUOUS
 62
     0
100
AcDbLine
 10
0.0
 20
0.0
 30
0.0
 11
-1.0
 21
-0.166667
 31
0.0
  0
LINE
  5
70
100
AcDbEntity
  8
0
  6
CONTINUOUS
 62
     0
100
AcDbLine
 10
-1.0
 20
0.166667
 30
0.0
 11
-1.0
 21
-0.166667
 31
0.0
  0
ENDBLK
  5
71
100
AcDbEntity
  8
0
100
AcDbBlockEnd
  0
BLOCK
  5
72
100
AcDbEntity
  8
0
100
AcDbBlockBegin
  2
_EX_BBOX
 70
     0
 10
0.0
 20
0.0
 30
0.0
  3
_EX_BBOX
  1

  0
LINE
  5
73
100
AcDbEntity
  8
0
  6
CONTINUOUS
 62
     0
100
AcDbLine
 10
0.0
 20
0.0
 30
0.0
 11
-1.0
 21
0.0
 31
0.0
  0
LINE
  5
74
100
AcDbEntity
  8
0
  6
CONTINUOUS
 62
     0
100
AcDbLine
 10
-0.5
 20
0.5
 30
0.0
 11
0.5
 21
0.5
 31
0.0
  0
LINE
  5
75
100
AcDbEntity
  8
0
  6
CONTINUOUS
 62
     0
100
AcDbLine
 10
0.5
 20
0.5
 30
0.0
 11
0.5
 21
-0.5
 31
0.0
  0
LINE
  5
76
100
AcDbEntity
  8
0
  6
CONTINUOUS
 62
     0
100
AcDbLine
 10
0.5
 20
-0.5
 30
0.0
 11
-0.5
 21
-0.5
 31
0.0
  0
LINE
  5
77
100
AcDbEntity
  8
0
  6
CONTINUOUS
 62
     0
100
AcDbLine
 10
-0.5
 20
-0.5
 30
0.0
 11
-0.5
 21
0.5
 31
0.0
  0
LINE
  5
78
100
AcDbEntity
  8
0
  6
CONTINUOUS
 62
     0
100
AcDbLine
 10
-0.25
 20
0.25
 30
0.0
 11
0.25
 21
0.25
 31
0.0
  0
LINE
  5
79
100
AcDbEntity
  8
0
  6
CONTINUOUS
 62
     0
100
AcDbLine
 10
0.25
 20
0.25
 30
0.0
 11
0.25
 21
-0.25
 31
0.0
  0
LINE
  5
7A
100
AcDbEntity
  8
0
  6
CONTINUOUS
 62
     0
100
AcDbLine
 10
0.25
 20
-0.25
 30
0.0
 11
-0.25
 21
-0.25
 31
0.0
  0
LINE
  5
7B
100
AcDbEntity
  8
0
  6
CONTINUOUS
 62
     0
100
AcDbLine
 10
-0.25
 20
-0.25
 30
0.0
 11
-0.25
 21
0.25
 31
0.0
  0
ENDBLK
  5
7C
100
AcDbEntity
  8
0
100
AcDbBlockEnd
  0
BLOCK
  5
7D
100
AcDbEntity
  8
0
100
AcDbBlockBegin
  2
_EX_WBOX
 70
     0
 10
0.0
 20
0.0
 30
0.0
  3
_EX_WBOX
  1

  0
LINE
  5
7E
100
AcDbEntity
  8
0
  6
CONTINUOUS
 62
     0
100
AcDbLine
 10
-0.5
 20
0.0
 30
0.0
 11
-1.0
 21
0.0
 31
0.0
  0
LINE
  5
7F
100
AcDbEntity
  8
0
  6
CONTINUOUS
 62
     0
100
AcDbLine
 10
-0.5
 20
0.5
 30
0.0
 11
0.5
 21
0.5
 31
0.0
  0
LINE
  5
80
100
AcDbEntity
  8
0
  6
CONTINUOUS
 62
     0
100
AcDbLine
 10
0.5
 20
0.5
 30
0.0
 11
0.5
 21
-0.5
 31
0.0
  0
LINE
  5
81
100
AcDbEntity
  8
0
  6
CONTINUOUS
 62
     0
100
AcDbLine
 10
0.5
 20
-0.5
 30
0.0
 11
-0.5
 21
-0.5
 31
0.0
  0
LINE
  5
82
100
AcDbEntity
  8
0
  6
CONTINUOUS
 62
     0
100
AcDbLine
 10
-0.5
 20
-0.5
 30
0.0
 11
-0.5
 21
0.5
 31
0.0
  0
ENDBLK
  5
83
100
AcDbEntity
  8
0
100
AcDbBlockEnd
  0
BLOCK
  5
84
100
AcDbEntity
  8
0
100
AcDbBlockBegin
  2
_EX_INTEGRAL
 70
     0
 10
0.0
 20
0.0
 30
0.0
  3
_EX_INTEGRAL
  1

  0
LINE
  5
85
100
AcDbEntity
  8
0
  6
CONTINUOUS
 62
     0
100
AcDbLine
 10
0.0
 20
0.0
 30
0.0
 11
-1.0
 21
0.0
 31
0.0
  0
ARC
  5
86
100
AcDbEntity
  8
0
  6
CONTINUOUS
 62
     0
100
AcDbCircle
 10
0.542115
 20
0.164992
 30
0.0
 40
0.56667
100
AcDbArc
 50
73.07249
 51
196.927513
  0
ARC
  5
87
100
AcDbEntity
  8
0
  6
CONTINUOUS
 62
     0
100
AcDbCircle
 10
-0.542115
 20
-0.164992
 30
0.0
 40
0.56667
100
AcDbArc
 50
253.072487
 51
16.927513
  0
ENDBLK
  5
88
100
AcDbEntity
  8
0
100
AcDbBlockEnd
  0
ENDSEC
  0
SECTION
  2
ENTITIES
  0
CIRCLE
  5
89
100
AcDbEntity
  8
LAY-1
  6
CONTINUOUS
 62
     3
100
AcDbCircle
 10
641.1
 20
160.4
 30
0.0
 40
16.200001
  0
LINE
  5
8A
100
AcDbEntity
  8
LAY-1
  6
CONTINUOUS
 62
     3
100
AcDbLine
 10
659.6
 20
150.079489
 30
0.0
 11
659.6
 21
191.9
 31
0.0
  0
LINE
  5
8B
100
AcDbEntity
  8
LAY-1
  6
CONTINUOUS
 62
     3
100
AcDbLine
 10
622.6
 20
191.9
 30
0.0
 11
622.6
 21
136.4
 31
0.0
  0
CIRCLE
  5
8C
100
AcDbEntity
  8
LAY-1
  6
DASHED2
 62
     3
100
AcDbCircle
 10
629.100008
 20
177.4
 30
0.0
 40
3.5
  0
LINE
  5
8D
100
AcDbEntity
  8
LAY-1
  6
DASHED2
 62
     3
100
AcDbLine
 10
632.047716
 20
179.287054
 30
0.0
 11
630.160661
 21
177.4
 31
0.0
  0
LINE
  5
8E
100
AcDbEntity
  8
LAY-1
  6
DASHED2
 62
     3
100
AcDbLine
 10
630.160661
 20
177.4
 30
0.0
 11
632.047716
 21
175.512946
 31
0.0
  0
LINE
  5
8F
100
AcDbEntity
  8
LAY-1
  6
DASHED2
 62
     3
100
AcDbLine
 10
630.987062
 20
174.452277
 30
0.0
 11
629.100008
 21
176.339331
 31
0.0
  0
LINE
  5
90
100
AcDbEntity
  8
LAY-1
  6
DASHED2
 62
     3
100
AcDbLine
 10
629.100008
 20
176.339331
 30
0.0
 11
627.212953
 21
174.452277
 31
0.0
  0
LINE
  5
91
100
AcDbEntity
  8
LAY-1
  6
DASHED2
 62
     3
100
AcDbLine
 10
626.152284
 20
175.512946
 30
0.0
 11
628.039339
 21
177.4
 31
0.0
  0
LINE
  5
92
100
AcDbEntity
  8
LAY-1
  6
DASHED2
 62
     3
100
AcDbLine
 10
628.039339
 20
177.4
 30
0.0
 11
626.152284
 21
179.287054
 31
0.0
  0
LINE
  5
93
100
AcDbEntity
  8
LAY-1
  6
DASHED2
 62
     3
100
AcDbLine
 10
627.212953
 20
180.347723
 30
0.0
 11
629.100008
 21
178.460669
 31
0.0
  0
LINE
  5
94
100
AcDbEntity
  8
LAY-1
  6
DASHED2
 62
     3
100
AcDbLine
 10
629.100008
 20
178.460669
 30
0.0
 11
630.987062
 21
180.347723
 31
0.0
  0
CIRCLE
  5
95
100
AcDbEntity
  8
LAY-1
  6
DASHED2
 62
     3
100
AcDbCircle
 10
653.1
 20
177.4
 30
0.0
 40
3.5
  0
LINE
  5
96
100
AcDbEntity
  8
LAY-1
  6
DASHED2
 62
     3
100
AcDbLine
 10
656.047708
 20
179.287054
 30
0.0
 11
654.160654
 21
177.4
 31
0.0
  0
LINE
  5
97
100
AcDbEntity
  8
LAY-1
  6
DASHED2
 62
     3
100
AcDbLine
 10
654.160654
 20
177.4
 30
0.0
 11
656.047708
 21
175.512946
 31
0.0
  0
LINE
  5
98
100
AcDbEntity
  8
LAY-1
  6
DASHED2
 62
     3
100
AcDbLine
 10
654.987055
 20
174.452277
 30
0.0
 11
653.1
 21
176.339331
 31
0.0
  0
LINE
  5
99
100
AcDbEntity
  8
LAY-1
  6
DASHED2
 62
     3
100
AcDbLine
 10
653.1
 20
176.339331
 30
0.0
 11
651.212946
 21
174.452277
 31
0.0
  0
LINE
  5
9A
100
AcDbEntity
  8
LAY-1
  6
DASHED2
 62
     3
100
AcDbLine
 10
650.152277
 20
175.512946
 30
0.0
 11
652.039331
 21
177.4
 31
0.0
  0
LINE
  5
9B
100
AcDbEntity
  8
LAY-1
  6
DASHED2
 62
     3
100
AcDbLine
 10
652.039331
 20
177.4
 30
0.0
 11
650.152277
 21
179.287054
 31
0.0
  0
LINE
  5
9C
100
AcDbEntity
  8
LAY-1
  6
DASHED2
 62
     3
100
AcDbLine
 10
651.212946
 20
180.347723
 30
0.0
 11
653.1
 21
178.460669
 31
0.0
  0
LINE
  5
9D
100
AcDbEntity
  8
LAY-1
  6
DASHED2
 62
     3
100
AcDbLine
 10
653.1
 20
178.460669
 30
0.0
 11
654.987055
 21
180.347723
 31
0.0
  0
LINE
  5
9E
100
AcDbEntity
  8
LAY-1
  6
CONTINUOUS
 62
     3
100
AcDbLine
 10
369.7
 20
392.568725
 30
0.0
 11
369.7
 21
428.50003
 31
0.0
  0
LINE
  5
9F
100
AcDbEntity
  8
LAY-1
  6
CONTINUOUS
 62
     3
100
AcDbLine
 10
181.7
 20
428.5
 30
0.0
 11
369.7
 21
428.5
 31
0.0
  0
LINE
  5
A0
100
AcDbEntity
  8
LAY-1
  6
CONTINUOUS
 62
     3
100
AcDbLine
 10
659.6
 20
136.4
 30
0.0
 11
659.6
 21
191.9
 31
0.0
  0
ARC
  5
A1
100
AcDbEntity
  8
LAY-1
  6
CONTINUOUS
 62
     3
100
AcDbCircle
 10
247.699969
 20
410.000053
 30
0.0
 40
15.999999
100
AcDbArc
 50
21.537326
 51
111.280085
  0
LINE
  5
A2
100
AcDbEntity
  8
LAY-1
  6
CONTINUOUS
 62
     3
100
AcDbLine
 10
241.35
 20
198.9
 30
0.0
 11
241.35
 21
191.9
 31
0.0
  0
LINE
  5
A3
100
AcDbEntity
  8
LAY-1
  6
CONTINUOUS
 62
     3
100
AcDbLine
 10
254.05
 20
198.9
 30
0.0
 11
254.05
 21
191.9
 31
0.0
  0
LINE
  5
A4
100
AcDbEntity
  8
LAY-1
  6
CONTINUOUS
 62
     3
100
AcDbLine
 10
241.35
 20
198.9
 30
0.0
 11
254.05
 21
198.9
 31
0.0
  0
LINE
  5
A5
100
AcDbEntity
  8
LAY-1
  6
CONTINUOUS
 62
     3
100
AcDbLine
 10
241.7
 20
199.4
 30
0.0
 11
241.35
 21
198.9
 31
0.0
  0
LINE
  5
A6
100
AcDbEntity
  8
LAY-1
  6
CONTINUOUS
 62
     3
100
AcDbLine
 10
253.7
 20
199.4
 30
0.0
 11
254.05
 21
198.9
 31
0.0
  0
LINE
  5
A7
100
AcDbEntity
  8
LAY-1
  6
CONTINUOUS
 62
     3
100
AcDbLine
 10
635.1
 20
199.4
 30
0.0
 11
647.1
 21
199.4
 31
0.0
  0
LINE
  5
A8
100
AcDbEntity
  8
LAY-1
  6
CONTINUOUS
 62
     3
100
AcDbLine
 10
647.45
 20
198.9
 30
0.0
 11
647.45
 21
191.9
 31
0.0
  0
LINE
  5
A9
100
AcDbEntity
  8
LAY-1
  6
CONTINUOUS
 62
     3
100
AcDbLine
 10
634.75
 20
198.9
 30
0.0
 11
634.75
 21
191.9
 31
0.0
  0
LINE
  5
AA
100
AcDbEntity
  8
LAY-1
  6
CONTINUOUS
 62
     3
100
AcDbLine
 10
647.45
 20
198.9
 30
0.0
 11
634.75
 21
198.9
 31
0.0
  0
LINE
  5
AB
100
AcDbEntity
  8
LAY-1
  6
CONTINUOUS
 62
     3
100
AcDbLine
 10
647.1
 20
199.4
 30
0.0
 11
647.45
 21
198.9
 31
0.0
  0
LINE
  5
AC
100
AcDbEntity
  8
LAY-1
  6
CONTINUOUS
 62
     3
100
AcDbLine
 10
635.1
 20
199.4
 30
0.0
 11
634.75
 21
198.9
 31
0.0
  0
LINE
  5
AD
100
AcDbEntity
  8
LAY-1
  6
CONTINUOUS
 62
     3
100
AcDbLine
 10
245.14
 20
410.639992
 30
0.0
 11
245.14
 21
409.359992
 31
0.0
  0
LINE
  5
AE
100
AcDbEntity
  8
LAY-1
  6
CONTINUOUS
 62
     3
100
AcDbLine
 10
250.26
 20
410.639992
 30
0.0
 11
250.26
 21
409.359992
 31
0.0
  0
LINE
  5
AF
100
AcDbEntity
  8
LAY-1
  6
CONTINUOUS
 62
     3
100
AcDbLine
 10
247.06
 20
412.559992
 30
0.0
 11
248.34
 21
412.559992
 31
0.0
  0
LINE
  5
B0
100
AcDbEntity
  8
LAY-1
  6
CONTINUOUS
 62
     3
100
AcDbLine
 10
247.06
 20
407.439992
 30
0.0
 11
248.34
 21
407.439992
 31
0.0
  0
LINE
  5
B1
100
AcDbEntity
  8
LAY-1
  6
CONTINUOUS
 62
     3
100
AcDbLine
 10
245.14
 20
410.639992
 30
0.0
 11
246.1
 21
410.639992
 31
0.0
  0
LINE
  5
B2
100
AcDbEntity
  8
LAY-1
  6
CONTINUOUS
 62
     3
100
AcDbLine
 10
249.3
 20
410.639992
 30
0.0
 11
250.26
 21
410.639992
 31
0.0
  0
LINE
  5
B3
100
AcDbEntity
  8
LAY-1
  6
CONTINUOUS
 62
     3
100
AcDbLine
 10
248.34
 20
412.559992
 30
0.0
 11
248.34
 21
411.599992
 31
0.0
  0
LINE
  5
B4
100
AcDbEntity
  8
LAY-1
  6
CONTINUOUS
 62
     3
100
AcDbLine
 10
248.34
 20
408.399992
 30
0.0
 11
248.34
 21
407.439992
 31
0.0
  0
LINE
  5
B5
100
AcDbEntity
  8
LAY-1
  6
CONTINUOUS
 62
     3
100
AcDbLine
 10
245.14
 20
409.359992
 30
0.0
 11
246.1
 21
409.359992
 31
0.0
  0
LINE
  5
B6
100
AcDbEntity
  8
LAY-1
  6
CONTINUOUS
 62
     3
100
AcDbLine
 10
249.3
 20
409.359992
 30
0.0
 11
250.26
 21
409.359992
 31
0.0
  0
LINE
  5
B7
100
AcDbEntity
  8
LAY-1
  6
CONTINUOUS
 62
     3
100
AcDbLine
 10
247.06
 20
412.559992
 30
0.0
 11
247.06
 21
411.599992
 31
0.0
  0
LINE
  5
B8
100
AcDbEntity
  8
LAY-1
  6
CONTINUOUS
 62
     3
100
AcDbLine
 10
247.06
 20
408.399992
 30
0.0
 11
247.06
 21
407.439992
 31
0.0
  0
ARC
  5
B9
100
AcDbEntity
  8
LAY-1
  6
CONTINUOUS
 62
     3
100
AcDbCircle
 10
246.1
 20
411.599992
 30
0.0
 40
0.96
100
AcDbArc
 50
270.0
 51
0.0
  0
ARC
  5
BA
100
AcDbEntity
  8
LAY-1
  6
CONTINUOUS
 62
     3
100
AcDbCircle
 10
249.3
 20
411.599992
 30
0.0
 40
0.96
100
AcDbArc
 50
180.0
 51
270.0
  0
ARC
  5
BB
100
AcDbEntity
  8
LAY-1
  6
CONTINUOUS
 62
     3
100
AcDbCircle
 10
249.3
 20
408.399992
 30
0.0
 40
0.96
100
AcDbArc
 50
90.0
 51
180.0
  0
ARC
  5
BC
100
AcDbEntity
  8
LAY-1
  6
CONTINUOUS
 62
     3
100
AcDbCircle
 10
246.1
 20
408.399992
 30
0.0
 40
0.96
100
AcDbArc
 50
0.0
 51
90.0
  0
LINE
  5
BD
100
AcDbEntity
  8
LAY-1
  6
CONTINUOUS
 62
     3
100
AcDbLine
 10
181.7
 20
179.4
 30
0.0
 11
188.7
 21
177.4
 31
0.0
  0
LINE
  5
BE
100
AcDbEntity
  8
LAY-1
  6
CONTINUOUS
 62
     3
100
AcDbLine
 10
188.7
 20
177.4
 30
0.0
 11
181.7
 21
175.4
 31
0.0
  0
LINE
  5
BF
100
AcDbEntity
  8
LAY-1
  6
CONTINUOUS
 62
     1
100
AcDbLine
 10
187.875049
 20
177.164282
 30
0.0
 11
187.215075
 21
177.824256
 31
0.0
  0
LINE
  5
C0
100
AcDbEntity
  8
LAY-1
  6
CONTINUOUS
 62
     1
100
AcDbLine
 10
187.050097
 20
176.928565
 30
0.0
 11
185.730151
 21
178.248511
 31
0.0
  0
LINE
  5
C1
100
AcDbEntity
  8
LAY-1
  6
CONTINUOUS
 62
     1
100
AcDbLine
 10
186.225146
 20
176.692847
 30
0.0
 11
184.245227
 21
178.672797
 31
0.0
  0
LINE
  5
C2
100
AcDbEntity
  8
LAY-1
  6
CONTINUOUS
 62
     1
100
AcDbLine
 10
185.400195
 20
176.45716
 30
0.0
 11
182.760303
 21
179.097052
 31
0.0
  0
LINE
  5
C3
100
AcDbEntity
  8
LAY-1
  6
CONTINUOUS
 62
     1
100
AcDbLine
 10
184.575244
 20
176.221442
 30
0.0
 11
181.70003
 21
179.096686
 31
0.0
  0
LINE
  5
C4
100
AcDbEntity
  8
LAY-1
  6
CONTINUOUS
 62
     1
100
AcDbLine
 10
183.750293
 20
175.985724
 30
0.0
 11
181.70003
 21
178.036017
 31
0.0
  0
LINE
  5
C5
100
AcDbEntity
  8
LAY-1
  6
CONTINUOUS
 62
     1
100
AcDbLine
 10
182.925342
 20
175.750006
 30
0.0
 11
181.70003
 21
176.975348
 31
0.0
  0
LINE
  5
C6
100
AcDbEntity
  8
LAY-1
  6
CONTINUOUS
 62
     1
100
AcDbLine
 10
182.10039
 20
175.514319
 30
0.0
 11
181.70003
 21
175.914679
 31
0.0
  0
ARC
  5
C7
100
AcDbEntity
  8
LAY-1
  6
CONTINUOUS
 62
     3
100
AcDbCircle
 10
247.7
 20
409.999992
 30
0.0
 40
9.0
100
AcDbArc
 50
229.945179
 51
123.748989
  0
ARC
  5
C8
100
AcDbEntity
  8
LAY-1
  6
CONTINUOUS
 62
     3
100
AcDbCircle
 10
247.7
 20
413.499992
 30
0.0
 40
9.0
100
AcDbArc
 50
140.560853
 51
141.057559
  0
POLYLINE
  5
C9
100
AcDbEntity
  8
LAY-1
  6
CONTINUOUS
 62
     3
100
AcDb2dPolyline
 66
     1
 10
0.0
 20
0.0
 30
0.0
 70
   128
  0
VERTEX
  5
CA
100
AcDbEntity
  8
LAY-1
  6
CONTINUOUS
 62
     3
100
AcDbVertex
100
AcDb2dVertex
 10
242.7
 20
406.886743
 30
0.0
  0
VERTEX
  5
CB
100
AcDbEntity
  8
LAY-1
  6
CONTINUOUS
 62
     3
100
AcDbVertex
100
AcDb2dVertex
 10
247.7
 20
403.999992
 30
0.0
  0
VERTEX
  5
CC
100
AcDbEntity
  8
LAY-1
  6
CONTINUOUS
 62
     3
100
AcDbVertex
100
AcDb2dVertex
 10
252.896152
 20
406.999992
 30
0.0
  0
VERTEX
  5
CD
100
AcDbEntity
  8
LAY-1
  6
CONTINUOUS
 62
     3
100
AcDbVertex
100
AcDb2dVertex
 10
252.896152
 20
412.999992
 30
0.0
  0
VERTEX
  5
CE
100
AcDbEntity
  8
LAY-1
  6
CONTINUOUS
 62
     3
100
AcDbVertex
100
AcDb2dVertex
 10
247.7
 20
415.999992
 30
0.0
  0
SEQEND
  5
CF
100
AcDbEntity
  8
LAY-1
  6
CONTINUOUS
 62
     3
  0
LINE
  5
D0
100
AcDbEntity
  8
LAY-1
  6
CONTINUOUS
 62
     3
100
AcDbLine
 10
247.7
 20
415.999992
 30
0.0
 11
242.7
 21
413.113241
 31
0.0
  0
ARC
  5
D1
100
AcDbEntity
  8
LAY-1
  6
CONTINUOUS
 62
     3
100
AcDbCircle
 10
247.7
 20
409.999992
 30
0.0
 40
6.0
100
AcDbArc
 50
213.55731
 51
146.44269
  0
ARC
  5
D2
100
AcDbEntity
  8
LAY-1
  6
CONTINUOUS
 62
     3
100
AcDbCircle
 10
247.699969
 20
410.000053
 30
0.0
 40
15.999999
100
AcDbArc
 50
212.090178
 51
313.079588
  0
LINE
  5
D3
100
AcDbEntity
  8
LAY-1
  6
CONTINUOUS
 62
     3
100
AcDbLine
 10
650.1
 20
207.0
 30
0.0
 11
650.1
 21
205.4
 31
0.0
  0
LINE
  5
D4
100
AcDbEntity
  8
LAY-1
  6
CONTINUOUS
 62
     3
100
AcDbLine
 10
632.1
 20
207.0
 30
0.0
 11
632.1
 21
205.4
 31
0.0
  0
ARC
  5
D5
100
AcDbEntity
  8
LAY-1
  6
CONTINUOUS
 62
     3
100
AcDbCircle
 10
641.1
 20
207.0
 30
0.0
 40
5.0
100
AcDbArc
 50
53.130102
 51
126.869898
  0
ARC
  5
D6
100
AcDbEntity
  8
LAY-1
  6
CONTINUOUS
 62
     3
100
AcDbCircle
 10
645.6
 20
210.375
 30
0.0
 40
1.625
100
AcDbArc
 50
22.619865
 51
157.380135
  0
ARC
  5
D7
100
AcDbEntity
  8
LAY-1
  6
CONTINUOUS
 62
     3
100
AcDbCircle
 10
636.6
 20
210.375
 30
0.0
 40
1.625
100
AcDbArc
 50
22.619865
 51
157.380135
  0
LINE
  5
D8
100
AcDbEntity
  8
LAY-1
  6
CONTINUOUS
 62
     3
100
AcDbLine
 10
646.725579
 20
211.547048
 30
0.0
 11
646.19
 21
212.0
 31
0.0
  0
LINE
  5
D9
100
AcDbEntity
  8
LAY-1
  6
CONTINUOUS
 62
     3
100
AcDbLine
 10
650.1
 20
207.0
 30
0.0
 11
632.1
 21
207.0
 31
0.0
  0
ARC
  5
DA
100
AcDbEntity
  8
LAY-1
  6
CONTINUOUS
 62
     3
100
AcDbCircle
 10
641.1
 20
213.0
 30
0.0
 40
5.0
100
AcDbArc
 50
233.130102
 51
306.869898
  0
ARC
  5
DB
100
AcDbEntity
  8
LAY-1
  6
CONTINUOUS
 62
     3
100
AcDbCircle
 10
645.6
 20
209.625
 30
0.0
 40
1.625
100
AcDbArc
 50
202.619865
 51
337.380135
  0
ARC
  5
DC
100
AcDbEntity
  8
LAY-1
  6
CONTINUOUS
 62
     3
100
AcDbCircle
 10
636.6
 20
209.625
 30
0.0
 40
1.625
100
AcDbArc
 50
202.619865
 51
337.380135
  0
LINE
  5
DD
100
AcDbEntity
  8
LAY-1
  6
CONTINUOUS
 62
     3
100
AcDbLine
 10
644.1
 20
211.0
 30
0.0
 11
644.1
 21
209.0
 31
0.0
  0
LINE
  5
DE
100
AcDbEntity
  8
LAY-1
  6
CONTINUOUS
 62
     3
100
AcDbLine
 10
638.1
 20
211.0
 30
0.0
 11
638.1
 21
209.0
 31
0.0
  0
LINE
  5
DF
100
AcDbEntity
  8
LAY-1
  6
CONTINUOUS
 62
     3
100
AcDbLine
 10
647.1
 20
208.0
 30
0.0
 11
635.1
 21
208.0
 31
0.0
  0
LINE
  5
E0
100
AcDbEntity
  8
LAY-1
  6
CONTINUOUS
 62
     3
100
AcDbLine
 10
646.725579
 20
208.452952
 30
0.0
 11
646.19
 21
208.0
 31
0.0
  0
LINE
  5
E1
100
AcDbEntity
  8
LAY-1
  6
CONTINUOUS
 62
     3
100
AcDbLine
 10
635.474421
 20
211.547048
 30
0.0
 11
636.01
 21
212.0
 31
0.0
  0
LINE
  5
E2
100
AcDbEntity
  8
LAY-1
  6
CONTINUOUS
 62
     3
100
AcDbLine
 10
635.474421
 20
208.452952
 30
0.0
 11
636.01
 21
208.0
 31
0.0
  0
LINE
  5
E3
100
AcDbEntity
  8
LAY-1
  6
CONTINUOUS
 62
     3
100
AcDbLine
 10
647.1
 20
211.0
 30
0.0
 11
647.1
 21
209.0
 31
0.0
  0
LINE
  5
E4
100
AcDbEntity
  8
LAY-1
  6
CONTINUOUS
 62
     3
100
AcDbLine
 10
647.1
 20
208.0
 30
0.0
 11
647.1
 21
207.0
 31
0.0
  0
LINE
  5
E5
100
AcDbEntity
  8
LAY-1
  6
CONTINUOUS
 62
     3
100
AcDbLine
 10
635.1
 20
208.0
 30
0.0
 11
635.1
 21
207.0
 31
0.0
  0
LINE
  5
E6
100
AcDbEntity
  8
LAY-1
  6
CONTINUOUS
 62
     3
100
AcDbLine
 10
635.1
 20
211.0
 30
0.0
 11
635.1
 21
209.0
 31
0.0
  0
LINE
  5
E7
100
AcDbEntity
  8
LAY-1
  6
CONTINUOUS
 62
     3
100
AcDbLine
 10
646.19
 20
212.0
 30
0.0
 11
636.01
 21
212.0
 31
0.0
  0
LINE
  5
E8
100
AcDbEntity
  8
LAY-1
  6
CONTINUOUS
 62
     3
100
AcDbLine
 10
241.7
 20
199.4
 30
0.0
 11
253.7
 21
199.4
 31
0.0
  0
LINE
  5
E9
100
AcDbEntity
  8
LAY-1
  6
CONTINUOUS
 62
     3
100
AcDbLine
 10
238.7
 20
206.666183
 30
0.0
 11
238.7
 21
205.4
 31
0.0
  0
LINE
  5
EA
100
AcDbEntity
  8
LAY-1
  6
CONTINUOUS
 62
     3
100
AcDbLine
 10
242.7
 20
212.0
 30
0.0
 11
242.7
 21
211.251743
 31
0.0
  0
LINE
  5
EB
100
AcDbEntity
  8
LAY-1
  6
CONTINUOUS
 62
     3
100
AcDbLine
 10
252.7
 20
212.0
 30
0.0
 11
252.7
 21
211.46313
 31
0.0
  0
LINE
  5
EC
100
AcDbEntity
  8
LAY-1
  6
CONTINUOUS
 62
     3
100
AcDbLine
 10
256.7
 20
207.0
 30
0.0
 11
256.7
 21
205.4
 31
0.0
  0
LINE
  5
ED
100
AcDbEntity
  8
LAY-1
  6
CONTINUOUS
 62
     3
100
AcDbLine
 10
242.7
 20
212.0
 30
0.0
 11
252.7
 21
212.0
 31
0.0
  0
LINE
  5
EE
100
AcDbEntity
  8
LAY-1
  6
CONTINUOUS
 62
     3
100
AcDbLine
 10
254.491749
 20
207.0
 30
0.0
 11
256.7
 21
207.0
 31
0.0
  0
ARC
  5
EF
100
AcDbEntity
  8
LAY-1
  6
CONTINUOUS
 62
     3
100
AcDbCircle
 10
245.2
 20
208.375
 30
0.0
 40
3.625
100
AcDbArc
 50
55.110234
 51
127.311719
  0
ARC
  5
F0
100
AcDbEntity
  8
LAY-1
  6
CONTINUOUS
 62
     3
100
AcDbCircle
 10
250.2
 20
208.375
 30
0.0
 40
3.625
100
AcDbArc
 50
58.049527
 51
124.372427
  0
LINE
  5
F1
100
AcDbEntity
  8
LAY-1
  6
CONTINUOUS
 62
     3
100
AcDbLine
 10
369.7
 20
391.499992
 30
0.0
 11
369.700031
 21
391.499992
 31
0.0
  0
LINE
  5
F2
100
AcDbEntity
  8
LAY-1
  6
DASHED2
 62
     3
100
AcDbLine
 10
290.229136
 20
391.5
 30
0.0
 11
369.7
 21
391.5
 31
0.0
  0
LINE
  5
F3
100
AcDbEntity
  8
LAY-1
  6
DASHED2
 62
     3
100
AcDbLine
 10
369.7
 20
391.499992
 30
0.0
 11
369.7
 21
392.568725
 31
0.0
  0
LINE
  5
F4
100
AcDbEntity
  8
LAY-1
  6
CONTINUOUS
 62
     3
100
AcDbLine
 10
223.448086
 20
391.499992
 30
0.0
 11
290.229136
 21
391.499992
 31
0.0
  0
ARC
  5
F5
100
AcDbEntity
  8
LAY-1
  6
CONTINUOUS
 62
     3
100
AcDbCircle
 10
247.7
 20
413.499992
 30
0.0
 40
9.0
100
AcDbArc
 50
140.560853
 51
141.057559
  0
LINE
  5
F6
100
AcDbEntity
  8
LAY-1
  6
CONTINUOUS
 62
     3
100
AcDbLine
 10
181.7
 20
426.5
 30
0.0
 11
181.7
 21
428.5
 31
0.0
  0
LINE
  5
F7
100
AcDbEntity
  8
LAY-1
  6
CONTINUOUS
 62
     3
100
AcDbLine
 10
369.728909
 20
391.691652
 30
0.0
 11
369.72894
 21
391.691652
 31
0.0
  0
LINE
  5
F8
100
AcDbEntity
  8
LAY-1
  6
CONTINUOUS
 62
     3
100
AcDbLine
 10
242.7
 20
209.001241
 30
0.0
 11
242.7
 21
209.0
 31
0.0
  0
POLYLINE
  5
F9
100
AcDbEntity
  8
LAY-1
  6
CONTINUOUS
 62
     3
100
AcDb2dPolyline
 66
     1
 10
0.0
 20
0.0
 30
0.0
 70
   128
  0
VERTEX
  5
FA
100
AcDbEntity
  8
LAY-1
  6
CONTINUOUS
 62
     3
100
AcDbVertex
100
AcDb2dVertex
 10
641.1
 20
172.524356
 30
0.0
  0
VERTEX
  5
FB
100
AcDbEntity
  8
LAY-1
  6
CONTINUOUS
 62
     3
100
AcDbVertex
100
AcDb2dVertex
 10
630.6
 20
166.462178
 30
0.0
  0
VERTEX
  5
FC
100
AcDbEntity
  8
LAY-1
  6
CONTINUOUS
 62
     3
100
AcDbVertex
100
AcDb2dVertex
 10
630.6
 20
154.337822
 30
0.0
  0
VERTEX
  5
FD
100
AcDbEntity
  8
LAY-1
  6
CONTINUOUS
 62
     3
100
AcDbVertex
100
AcDb2dVertex
 10
641.1
 20
148.275644
 30
0.0
  0
VERTEX
  5
FE
100
AcDbEntity
  8
LAY-1
  6
CONTINUOUS
 62
     3
100
AcDbVertex
100
AcDb2dVertex
 10
651.6
 20
154.337822
 30
0.0
  0
VERTEX
  5
FF
100
AcDbEntity
  8
LAY-1
  6
CONTINUOUS
 62
     3
100
AcDbVertex
100
AcDb2dVertex
 10
651.6
 20
166.462178
 30
0.0
  0
VERTEX
  5
100
100
AcDbEntity
  8
LAY-1
  6
CONTINUOUS
 62
     3
100
AcDbVertex
100
AcDb2dVertex
 10
641.1
 20
172.524356
 30
0.0
  0
SEQEND
  5
101
100
AcDbEntity
  8
LAY-1
  6
CONTINUOUS
 62
     3
  0
LINE
  5
102
100
AcDbEntity
  8
LAY-1
  6
CONTINUOUS
 62
     3
100
AcDbLine
 10
622.6
 20
191.9
 30
0.0
 11
659.6
 21
191.9
 31
0.0
  0
LINE
  5
103
100
AcDbEntity
  8
LAY-1
  6
CONTINUOUS
 62
     3
100
AcDbLine
 10
623.6
 20
135.4
 30
0.0
 11
658.6
 21
135.4
 31
0.0
  0
ARC
  5
104
100
AcDbEntity
  8
LAY-1
  6
CONTINUOUS
 62
     3
100
AcDbCircle
 10
623.6
 20
136.4
 30
0.0
 40
1.0
100
AcDbArc
 50
180.0
 51
270.0
  0
ARC
  5
105
100
AcDbEntity
  8
LAY-1
  6
CONTINUOUS
 62
     3
100
AcDbCircle
 10
658.6
 20
136.4
 30
0.0
 40
1.0
100
AcDbArc
 50
270.0
 51
0.0
  0
LINE
  5
106
100
AcDbEntity
  8
LAY-1
  6
CONTINUOUS
 62
     3
100
AcDbLine
 10
181.7
 20
191.9
 30
0.0
 11
369.7
 21
191.9
 31
0.0
  0
LINE
  5
107
100
AcDbEntity
  8
LAY-1
  6
CONTINUOUS
 62
     3
100
AcDbLine
 10
369.7
 20
135.4
 30
0.0
 11
181.7
 21
135.4
 31
0.0
  0
LINE
  5
108
100
AcDbEntity
  8
LAY-1
  6
CONTINUOUS
 62
     3
100
AcDbLine
 10
352.7
 20
177.4
 30
0.0
 11
198.7
 21
177.4
 31
0.0
  0
LINE
  5
109
100
AcDbEntity
  8
LAY-1
  6
CONTINUOUS
 62
     3
100
AcDbLine
 10
195.7
 20
180.4
 30
0.0
 11
195.7
 21
191.9
 31
0.0
  0
LINE
  5
10A
100
AcDbEntity
  8
LAY-1
  6
CONTINUOUS
 62
     3
100
AcDbLine
 10
355.7
 20
180.4
 30
0.0
 11
355.7
 21
191.9
 31
0.0
  0
ARC
  5
10B
100
AcDbEntity
  8
LAY-1
  6
CONTINUOUS
 62
     3
100
AcDbCircle
 10
352.7
 20
180.4
 30
0.0
 40
3.0
100
AcDbArc
 50
270.0
 51
0.0
  0
ARC
  5
10C
100
AcDbEntity
  8
LAY-1
  6
CONTINUOUS
 62
     3
100
AcDbCircle
 10
198.7
 20
180.4
 30
0.0
 40
3.0
100
AcDbArc
 50
180.0
 51
270.0
  0
LINE
  5
10D
100
AcDbEntity
  8
LAY-1
  6
CONTINUOUS
 62
     3
100
AcDbLine
 10
195.3
 20
180.4
 30
0.0
 11
195.3
 21
191.9
 31
0.0
  0
LINE
  5
10E
100
AcDbEntity
  8
LAY-1
  6
CONTINUOUS
 62
     3
100
AcDbLine
 10
352.7
 20
177.0
 30
0.0
 11
198.7
 21
177.0
 31
0.0
  0
LINE
  5
10F
100
AcDbEntity
  8
LAY-1
  6
CONTINUOUS
 62
     3
100
AcDbLine
 10
356.1
 20
180.4
 30
0.0
 11
356.1
 21
191.9
 31
0.0
  0
ARC
  5
110
100
AcDbEntity
  8
LAY-1
  6
CONTINUOUS
 62
     3
100
AcDbCircle
 10
198.7
 20
180.4
 30
0.0
 40
3.4
100
AcDbArc
 50
180.0
 51
270.0
  0
ARC
  5
111
100
AcDbEntity
  8
LAY-1
  6
CONTINUOUS
 62
     3
100
AcDbCircle
 10
352.7
 20
180.4
 30
0.0
 40
3.4
100
AcDbArc
 50
270.0
 51
0.0
  0
TEXT
  5
112
100
AcDbEntity
  8
LAY-1
  6
CONTINUOUS
 62
     5
100
AcDbText
 10
340.4
 20
140.9
 30
0.0
 40
5.0
  1
ＮＥＷ　ＳＴＡＲ
 41
0.504
  7
EXCADSTD
 72
     5
 11
364.4
 21
140.9
 31
0.0
100
AcDbText
  0
TEXT
  5
113
100
AcDbEntity
  8
LAY-1
  6
CONTINUOUS
 62
     5
100
AcDbText
 10
349.6
 20
142.1
 30
0.0
 40
3.0
  1
★
 41
0.84
  7
EXCADSTD
 72
     5
 11
352.0
 21
142.1
 31
0.0
100
AcDbText
  0
LINE
  5
114
100
AcDbEntity
  8
LAY-1
  6
CONTINUOUS
 62
     3
100
AcDbLine
 10
340.7
 20
146.4
 30
0.0
 11
363.7
 21
146.4
 31
0.0
  0
LINE
  5
115
100
AcDbEntity
  8
LAY-1
  6
CONTINUOUS
 62
     3
100
AcDbLine
 10
339.7
 20
141.4
 30
0.0
 11
339.7
 21
145.4
 31
0.0
  0
ARC
  5
116
100
AcDbEntity
  8
LAY-1
  6
CONTINUOUS
 62
     3
100
AcDbCircle
 10
340.7
 20
145.4
 30
0.0
 40
1.0
100
AcDbArc
 50
90.0
 51
180.0
  0
ARC
  5
117
100
AcDbEntity
  8
LAY-1
  6
CONTINUOUS
 62
     3
100
AcDbCircle
 10
340.7
 20
141.4
 30
0.0
 40
1.0
100
AcDbArc
 50
180.0
 51
270.0
  0
ARC
  5
118
100
AcDbEntity
  8
LAY-1
  6
CONTINUOUS
 62
     3
100
AcDbCircle
 10
363.7
 20
141.4
 30
0.0
 40
1.0
100
AcDbArc
 50
270.0
 51
0.0
  0
ARC
  5
119
100
AcDbEntity
  8
LAY-1
  6
CONTINUOUS
 62
     3
100
AcDbCircle
 10
363.7
 20
145.4
 30
0.0
 40
1.0
100
AcDbArc
 50
0.0
 51
90.0
  0
LINE
  5
11A
100
AcDbEntity
  8
LAY-1
  6
CONTINUOUS
 62
     1
100
AcDbLine
 10
363.7
 20
141.4
 30
0.0
 11
363.7
 21
145.4
 31
0.0
  0
LINE
  5
11B
100
AcDbEntity
  8
LAY-1
  6
CONTINUOUS
 62
     1
100
AcDbLine
 10
340.7
 20
141.4
 30
0.0
 11
340.7
 21
145.4
 31
0.0
  0
LINE
  5
11C
100
AcDbEntity
  8
LAY-1
  6
CONTINUOUS
 62
     1
100
AcDbLine
 10
340.7
 20
145.4
 30
0.0
 11
363.7
 21
145.4
 31
0.0
  0
LINE
  5
11D
100
AcDbEntity
  8
LAY-1
  6
CONTINUOUS
 62
     1
100
AcDbLine
 10
363.7
 20
141.4
 30
0.0
 11
340.7
 21
141.4
 31
0.0
  0
LINE
  5
11E
100
AcDbEntity
  8
LAY-1
  6
CONTINUOUS
 62
     3
100
AcDbLine
 10
340.7
 20
140.4
 30
0.0
 11
363.7
 21
140.4
 31
0.0
  0
LINE
  5
11F
100
AcDbEntity
  8
LAY-1
  6
CONTINUOUS
 62
     3
100
AcDbLine
 10
364.7
 20
145.4
 30
0.0
 11
364.7
 21
141.4
 31
0.0
  0
LINE
  5
120
100
AcDbEntity
  8
LAY-1
  6
CONTINUOUS
 62
     3
100
AcDbLine
 10
181.7
 20
191.9
 30
0.0
 11
181.7
 21
135.4
 31
0.0
  0
LINE
  5
121
100
AcDbEntity
  8
LAY-1
  6
CONTINUOUS
 62
     3
100
AcDbLine
 10
369.7
 20
191.9
 30
0.0
 11
369.7
 21
135.4
 31
0.0
  0
ARC
  5
122
100
AcDbEntity
  8
LAY-1
  6
DASHED2
 62
     3
100
AcDbCircle
 10
213.2
 20
186.9
 30
0.0
 40
1.0
100
AcDbArc
 50
180.0
 51
270.0
  0
ARC
  5
123
100
AcDbEntity
  8
LAY-1
  6
DASHED2
 62
     3
100
AcDbCircle
 10
210.2
 20
183.9
 30
0.0
 40
1.0
100
AcDbArc
 50
0.0
 51
90.0
  0
ARC
  5
124
100
AcDbEntity
  8
LAY-1
  6
DASHED2
 62
     3
100
AcDbCircle
 10
210.2
 20
186.9
 30
0.0
 40
1.0
100
AcDbArc
 50
270.0
 51
0.0
  0
ARC
  5
125
100
AcDbEntity
  8
LAY-1
  6
DASHED2
 62
     3
100
AcDbCircle
 10
213.2
 20
183.9
 30
0.0
 40
1.0
100
AcDbArc
 50
90.0
 51
180.0
  0
ARC
  5
126
100
AcDbEntity
  8
LAY-1
  6
DASHED2
 62
     3
100
AcDbCircle
 10
213.2
 20
186.9
 30
0.0
 40
1.0
100
AcDbArc
 50
180.0
 51
270.0
  0
ARC
  5
127
100
AcDbEntity
  8
LAY-1
  6
DASHED2
 62
     3
100
AcDbCircle
 10
213.2
 20
183.9
 30
0.0
 40
1.0
100
AcDbArc
 50
90.0
 51
180.0
  0
CIRCLE
  5
128
100
AcDbEntity
  8
LAY-1
  6
DASHED2
 62
     3
100
AcDbCircle
 10
211.7
 20
185.4
 30
0.0
 40
5.0
  0
LINE
  5
129
100
AcDbEntity
  8
LAY-1
  6
DASHED2
 62
     3
100
AcDbLine
 10
212.2
 20
186.9
 30
0.0
 11
212.2
 21
187.95
 31
0.0
  0
LINE
  5
12A
100
AcDbEntity
  8
LAY-1
  6
DASHED2
 62
     3
100
AcDbLine
 10
211.2
 20
187.95
 30
0.0
 11
212.2
 21
187.95
 31
0.0
  0
LINE
  5
12B
100
AcDbEntity
  8
LAY-1
  6
DASHED2
 62
     3
100
AcDbLine
 10
211.2
 20
186.9
 30
0.0
 11
211.2
 21
187.95
 31
0.0
  0
LINE
  5
12C
100
AcDbEntity
  8
LAY-1
  6
DASHED2
 62
     3
100
AcDbLine
 10
211.2
 20
186.9
 30
0.0
 11
211.2
 21
187.95
 31
0.0
  0
LINE
  5
12D
100
AcDbEntity
  8
LAY-1
  6
DASHED2
 62
     3
100
AcDbLine
 10
212.2
 20
187.95
 30
0.0
 11
211.2
 21
187.95
 31
0.0
  0
LINE
  5
12E
100
AcDbEntity
  8
LAY-1
  6
DASHED2
 62
     3
100
AcDbLine
 10
212.2
 20
186.9
 30
0.0
 11
212.2
 21
187.95
 31
0.0
  0
LINE
  5
12F
100
AcDbEntity
  8
LAY-1
  6
DASHED2
 62
     3
100
AcDbLine
 10
209.15
 20
184.9
 30
0.0
 11
209.15
 21
185.9
 31
0.0
  0
LINE
  5
130
100
AcDbEntity
  8
LAY-1
  6
DASHED2
 62
     3
100
AcDbLine
 10
210.2
 20
184.9
 30
0.0
 11
209.15
 21
184.9
 31
0.0
  0
LINE
  5
131
100
AcDbEntity
  8
LAY-1
  6
DASHED2
 62
     3
100
AcDbLine
 10
210.2
 20
185.9
 30
0.0
 11
209.15
 21
185.9
 31
0.0
  0
LINE
  5
132
100
AcDbEntity
  8
LAY-1
  6
DASHED2
 62
     3
100
AcDbLine
 10
212.2
 20
182.85
 30
0.0
 11
211.2
 21
182.85
 31
0.0
  0
LINE
  5
133
100
AcDbEntity
  8
LAY-1
  6
DASHED2
 62
     3
100
AcDbLine
 10
212.2
 20
183.9
 30
0.0
 11
212.2
 21
182.85
 31
0.0
  0
LINE
  5
134
100
AcDbEntity
  8
LAY-1
  6
DASHED2
 62
     3
100
AcDbLine
 10
211.2
 20
183.9
 30
0.0
 11
211.2
 21
182.85
 31
0.0
  0
LINE
  5
135
100
AcDbEntity
  8
LAY-1
  6
DASHED2
 62
     3
100
AcDbLine
 10
211.2
 20
183.9
 30
0.0
 11
211.2
 21
182.85
 31
0.0
  0
LINE
  5
136
100
AcDbEntity
  8
LAY-1
  6
DASHED2
 62
     3
100
AcDbLine
 10
212.2
 20
183.9
 30
0.0
 11
212.2
 21
182.85
 31
0.0
  0
LINE
  5
137
100
AcDbEntity
  8
LAY-1
  6
DASHED2
 62
     3
100
AcDbLine
 10
214.25
 20
185.9
 30
0.0
 11
214.25
 21
184.9
 31
0.0
  0
LINE
  5
138
100
AcDbEntity
  8
LAY-1
  6
DASHED2
 62
     3
100
AcDbLine
 10
213.2
 20
184.9
 30
0.0
 11
214.25
 21
184.9
 31
0.0
  0
LINE
  5
139
100
AcDbEntity
  8
LAY-1
  6
DASHED2
 62
     3
100
AcDbLine
 10
213.2
 20
185.9
 30
0.0
 11
214.25
 21
185.9
 31
0.0
  0
LINE
  5
13A
100
AcDbEntity
  8
LAY-1
  6
DASHED2
 62
     3
100
AcDbLine
 10
213.2
 20
185.9
 30
0.0
 11
214.25
 21
185.9
 31
0.0
  0
ARC
  5
13B
100
AcDbEntity
  8
LAY-1
  6
DASHED2
 62
     3
100
AcDbCircle
 10
349.2
 20
186.9
 30
0.0
 40
1.0
100
AcDbArc
 50
180.0
 51
270.0
  0
ARC
  5
13C
100
AcDbEntity
  8
LAY-1
  6
DASHED2
 62
     3
100
AcDbCircle
 10
346.2
 20
183.9
 30
0.0
 40
1.0
100
AcDbArc
 50
0.0
 51
90.0
  0
ARC
  5
13D
100
AcDbEntity
  8
LAY-1
  6
DASHED2
 62
     3
100
AcDbCircle
 10
346.2
 20
186.9
 30
0.0
 40
1.0
100
AcDbArc
 50
270.0
 51
0.0
  0
ARC
  5
13E
100
AcDbEntity
  8
LAY-1
  6
DASHED2
 62
     3
100
AcDbCircle
 10
349.2
 20
183.9
 30
0.0
 40
1.0
100
AcDbArc
 50
90.0
 51
180.0
  0
ARC
  5
13F
100
AcDbEntity
  8
LAY-1
  6
DASHED2
 62
     3
100
AcDbCircle
 10
349.2
 20
186.9
 30
0.0
 40
1.0
100
AcDbArc
 50
180.0
 51
270.0
  0
ARC
  5
140
100
AcDbEntity
  8
LAY-1
  6
DASHED2
 62
     3
100
AcDbCircle
 10
349.2
 20
183.9
 30
0.0
 40
1.0
100
AcDbArc
 50
90.0
 51
180.0
  0
CIRCLE
  5
141
100
AcDbEntity
  8
LAY-1
  6
DASHED2
 62
     3
100
AcDbCircle
 10
347.7
 20
185.4
 30
0.0
 40
5.0
  0
LINE
  5
142
100
AcDbEntity
  8
LAY-1
  6
DASHED2
 62
     3
100
AcDbLine
 10
348.2
 20
186.9
 30
0.0
 11
348.2
 21
187.95
 31
0.0
  0
LINE
  5
143
100
AcDbEntity
  8
LAY-1
  6
DASHED2
 62
     3
100
AcDbLine
 10
347.2
 20
187.95
 30
0.0
 11
348.2
 21
187.95
 31
0.0
  0
LINE
  5
144
100
AcDbEntity
  8
LAY-1
  6
DASHED2
 62
     3
100
AcDbLine
 10
347.2
 20
186.9
 30
0.0
 11
347.2
 21
187.95
 31
0.0
  0
LINE
  5
145
100
AcDbEntity
  8
LAY-1
  6
DASHED2
 62
     3
100
AcDbLine
 10
347.2
 20
186.9
 30
0.0
 11
347.2
 21
187.95
 31
0.0
  0
LINE
  5
146
100
AcDbEntity
  8
LAY-1
  6
DASHED2
 62
     3
100
AcDbLine
 10
348.2
 20
187.95
 30
0.0
 11
347.2
 21
187.95
 31
0.0
  0
LINE
  5
147
100
AcDbEntity
  8
LAY-1
  6
DASHED2
 62
     3
100
AcDbLine
 10
348.2
 20
186.9
 30
0.0
 11
348.2
 21
187.95
 31
0.0
  0
LINE
  5
148
100
AcDbEntity
  8
LAY-1
  6
DASHED2
 62
     3
100
AcDbLine
 10
345.15
 20
184.9
 30
0.0
 11
345.15
 21
185.9
 31
0.0
  0
LINE
  5
149
100
AcDbEntity
  8
LAY-1
  6
DASHED2
 62
     3
100
AcDbLine
 10
346.2
 20
184.9
 30
0.0
 11
345.15
 21
184.9
 31
0.0
  0
LINE
  5
14A
100
AcDbEntity
  8
LAY-1
  6
DASHED2
 62
     3
100
AcDbLine
 10
346.2
 20
185.9
 30
0.0
 11
345.15
 21
185.9
 31
0.0
  0
LINE
  5
14B
100
AcDbEntity
  8
LAY-1
  6
DASHED2
 62
     3
100
AcDbLine
 10
348.2
 20
182.85
 30
0.0
 11
347.2
 21
182.85
 31
0.0
  0
LINE
  5
14C
100
AcDbEntity
  8
LAY-1
  6
DASHED2
 62
     3
100
AcDbLine
 10
348.2
 20
183.9
 30
0.0
 11
348.2
 21
182.85
 31
0.0
  0
LINE
  5
14D
100
AcDbEntity
  8
LAY-1
  6
DASHED2
 62
     3
100
AcDbLine
 10
347.2
 20
183.9
 30
0.0
 11
347.2
 21
182.85
 31
0.0
  0
LINE
  5
14E
100
AcDbEntity
  8
LAY-1
  6
DASHED2
 62
     3
100
AcDbLine
 10
347.2
 20
183.9
 30
0.0
 11
347.2
 21
182.85
 31
0.0
  0
LINE
  5
14F
100
AcDbEntity
  8
LAY-1
  6
DASHED2
 62
     3
100
AcDbLine
 10
348.2
 20
183.9
 30
0.0
 11
348.2
 21
182.85
 31
0.0
  0
LINE
  5
150
100
AcDbEntity
  8
LAY-1
  6
DASHED2
 62
     3
100
AcDbLine
 10
350.25
 20
185.9
 30
0.0
 11
350.25
 21
184.9
 31
0.0
  0
LINE
  5
151
100
AcDbEntity
  8
LAY-1
  6
DASHED2
 62
     3
100
AcDbLine
 10
349.2
 20
184.9
 30
0.0
 11
350.25
 21
184.9
 31
0.0
  0
LINE
  5
152
100
AcDbEntity
  8
LAY-1
  6
DASHED2
 62
     3
100
AcDbLine
 10
349.2
 20
185.9
 30
0.0
 11
350.25
 21
185.9
 31
0.0
  0
LINE
  5
153
100
AcDbEntity
  8
LAY-1
  6
DASHED2
 62
     3
100
AcDbLine
 10
349.2
 20
185.9
 30
0.0
 11
350.25
 21
185.9
 31
0.0
  0
LINE
  5
154
100
AcDbEntity
  8
LAY-1
  6
DASHED2
 62
     3
100
AcDbLine
 10
627.1
 20
188.4
 30
0.0
 11
627.1
 21
182.4
 31
0.0
  0
LINE
  5
155
100
AcDbEntity
  8
LAY-1
  6
DASHED2
 62
     3
100
AcDbLine
 10
625.1
 20
180.4
 30
0.0
 11
627.1
 21
182.4
 31
0.0
  0
LINE
  5
156
100
AcDbEntity
  8
LAY-1
  6
DASHED2
 62
     3
100
AcDbLine
 10
625.1
 20
190.4
 30
0.0
 11
625.1
 21
180.4
 31
0.0
  0
LINE
  5
157
100
AcDbEntity
  8
LAY-1
  6
DASHED2
 62
     3
100
AcDbLine
 10
627.1
 20
188.4
 30
0.0
 11
625.1
 21
190.4
 31
0.0
  0
LINE
  5
158
100
AcDbEntity
  8
LAY-1
  6
DASHED2
 62
     3
100
AcDbLine
 10
625.1
 20
190.4
 30
0.0
 11
624.600008
 21
190.4
 31
0.0
  0
LINE
  5
159
100
AcDbEntity
  8
LAY-1
  6
DASHED2
 62
     3
100
AcDbLine
 10
625.1
 20
180.4
 30
0.0
 11
624.600008
 21
180.4
 31
0.0
  0
LINE
  5
15A
100
AcDbEntity
  8
LAY-1
  6
DASHED2
 62
     3
100
AcDbLine
 10
674.6
 20
188.4
 30
0.0
 11
674.6
 21
182.4
 31
0.0
  0
LINE
  5
15B
100
AcDbEntity
  8
LAY-1
  6
DASHED2
 62
     3
100
AcDbLine
 10
649.6
 20
188.4
 30
0.0
 11
649.6
 21
182.4
 31
0.0
  0
LINE
  5
15C
100
AcDbEntity
  8
LAY-1
  6
DASHED2
 62
     1
100
AcDbLine
 10
649.6
 20
187.9
 30
0.0
 11
648.733975
 21
188.4
 31
0.0
  0
LINE
  5
15D
100
AcDbEntity
  8
LAY-1
  6
DASHED2
 62
     1
100
AcDbLine
 10
649.6
 20
182.9
 30
0.0
 11
648.733975
 21
182.4
 31
0.0
  0
LINE
  5
15E
100
AcDbEntity
  8
LAY-1
  6
DASHED2
 62
     3
100
AcDbLine
 10
674.6
 20
188.4
 30
0.0
 11
666.4
 21
188.4
 31
0.0
  0
LINE
  5
15F
100
AcDbEntity
  8
LAY-1
  6
DASHED2
 62
     3
100
AcDbLine
 10
666.4
 20
188.4
 30
0.0
 11
627.1
 21
188.4
 31
0.0
  0
LINE
  5
160
100
AcDbEntity
  8
LAY-1
  6
DASHED2
 62
     1
100
AcDbLine
 10
674.6
 20
187.9
 30
0.0
 11
666.4
 21
187.9
 31
0.0
  0
LINE
  5
161
100
AcDbEntity
  8
LAY-1
  6
DASHED2
 62
     1
100
AcDbLine
 10
666.4
 20
187.9
 30
0.0
 11
649.6
 21
187.9
 31
0.0
  0
LINE
  5
162
100
AcDbEntity
  8
LAY-1
  6
DASHED2
 62
     3
100
AcDbLine
 10
627.1
 20
182.4
 30
0.0
 11
666.4
 21
182.4
 31
0.0
  0
LINE
  5
163
100
AcDbEntity
  8
LAY-1
  6
DASHED2
 62
     3
100
AcDbLine
 10
666.4
 20
182.4
 30
0.0
 11
674.6
 21
182.4
 31
0.0
  0
LINE
  5
164
100
AcDbEntity
  8
LAY-1
  6
DASHED2
 62
     1
100
AcDbLine
 10
649.6
 20
182.9
 30
0.0
 11
666.4
 21
182.9
 31
0.0
  0
LINE
  5
165
100
AcDbEntity
  8
LAY-1
  6
DASHED2
 62
     1
100
AcDbLine
 10
666.4
 20
182.9
 30
0.0
 11
674.6
 21
182.9
 31
0.0
  0
LINE
  5
166
100
AcDbEntity
  8
LAY-1
  6
DASHED2
 62
     3
100
AcDbLine
 10
214.700031
 20
443.499992
 30
0.0
 11
208.700031
 21
443.499992
 31
0.0
  0
LINE
  5
167
100
AcDbEntity
  8
LAY-1
  6
DASHED2
 62
     1
100
AcDbLine
 10
209.200031
 20
435.3
 30
0.0
 11
209.200031
 21
443.499992
 31
0.0
  0
LINE
  5
168
100
AcDbEntity
  8
LAY-1
  6
DASHED2
 62
     3
100
AcDbLine
 10
208.700031
 20
435.3
 30
0.0
 11
208.700031
 21
443.499992
 31
0.0
  0
LINE
  5
169
100
AcDbEntity
  8
LAY-1
  6
DASHED2
 62
     3
100
AcDbLine
 10
214.700031
 20
443.499992
 30
0.0
 11
214.700031
 21
435.3
 31
0.0
  0
LINE
  5
16A
100
AcDbEntity
  8
LAY-1
  6
DASHED2
 62
     1
100
AcDbLine
 10
214.200031
 20
443.499992
 30
0.0
 11
214.200031
 21
435.3
 31
0.0
  0
LINE
  5
16B
100
AcDbEntity
  8
LAY-1
  6
DASHED2
 62
     3
100
AcDbLine
 10
350.7
 20
443.499992
 30
0.0
 11
344.7
 21
443.499992
 31
0.0
  0
LINE
  5
16C
100
AcDbEntity
  8
LAY-1
  6
DASHED2
 62
     3
100
AcDbLine
 10
350.7
 20
395.999992
 30
0.0
 11
344.7
 21
395.999992
 31
0.0
  0
LINE
  5
16D
100
AcDbEntity
  8
LAY-1
  6
DASHED2
 62
     3
100
AcDbLine
 10
350.7
 20
395.999992
 30
0.0
 11
353.2
 21
393.499992
 31
0.0
  0
LINE
  5
16E
100
AcDbEntity
  8
LAY-1
  6
DASHED2
 62
     3
100
AcDbLine
 10
350.7
 20
418.499992
 30
0.0
 11
344.7
 21
418.499992
 31
0.0
  0
LINE
  5
16F
100
AcDbEntity
  8
LAY-1
  6
DASHED2
 62
     1
100
AcDbLine
 10
350.2
 20
418.499992
 30
0.0
 11
350.7
 21
417.633967
 31
0.0
  0
LINE
  5
170
100
AcDbEntity
  8
LAY-1
  6
DASHED2
 62
     1
100
AcDbLine
 10
345.2
 20
418.499992
 30
0.0
 11
344.7
 21
417.633967
 31
0.0
  0
LINE
  5
171
100
AcDbEntity
  8
LAY-1
  6
DASHED2
 62
     3
100
AcDbLine
 10
344.7
 20
395.999992
 30
0.0
 11
342.200008
 21
393.5
 31
0.0
  0
LINE
  5
172
100
AcDbEntity
  8
LAY-1
  6
DASHED2
 62
     3
100
AcDbLine
 10
344.7
 20
395.999992
 30
0.0
 11
344.7
 21
435.3
 31
0.0
  0
LINE
  5
173
100
AcDbEntity
  8
LAY-1
  6
DASHED2
 62
     3
100
AcDbLine
 10
344.7
 20
435.3
 30
0.0
 11
344.7
 21
443.499992
 31
0.0
  0
LINE
  5
174
100
AcDbEntity
  8
LAY-1
  6
DASHED2
 62
     1
100
AcDbLine
 10
345.2
 20
418.499992
 30
0.0
 11
345.2
 21
435.3
 31
0.0
  0
LINE
  5
175
100
AcDbEntity
  8
LAY-1
  6
DASHED2
 62
     1
100
AcDbLine
 10
345.2
 20
435.3
 30
0.0
 11
345.2
 21
443.499992
 31
0.0
  0
LINE
  5
176
100
AcDbEntity
  8
LAY-1
  6
DASHED2
 62
     3
100
AcDbLine
 10
350.7
 20
443.499992
 30
0.0
 11
350.7
 21
435.3
 31
0.0
  0
LINE
  5
177
100
AcDbEntity
  8
LAY-1
  6
DASHED2
 62
     3
100
AcDbLine
 10
350.7
 20
435.3
 30
0.0
 11
350.7
 21
395.999992
 31
0.0
  0
LINE
  5
178
100
AcDbEntity
  8
LAY-1
  6
DASHED2
 62
     1
100
AcDbLine
 10
350.2
 20
443.499992
 30
0.0
 11
350.2
 21
435.3
 31
0.0
  0
LINE
  5
179
100
AcDbEntity
  8
LAY-1
  6
DASHED2
 62
     1
100
AcDbLine
 10
350.2
 20
435.3
 30
0.0
 11
350.2
 21
418.499992
 31
0.0
  0
LINE
  5
17A
100
AcDbEntity
  8
LAY-1
  6
DASHED2
 62
     3
100
AcDbLine
 10
214.700031
 20
435.3
 30
0.0
 11
214.700031
 21
426.5
 31
0.0
  0
LINE
  5
17B
100
AcDbEntity
  8
LAY-1
  6
DASHED2
 62
     1
100
AcDbLine
 10
214.200031
 20
435.3
 30
0.0
 11
214.200031
 21
426.5
 31
0.0
  0
LINE
  5
17C
100
AcDbEntity
  8
LAY-1
  6
DASHED2
 62
     1
100
AcDbLine
 10
209.200031
 20
426.5
 30
0.0
 11
209.200031
 21
435.3
 31
0.0
  0
LINE
  5
17D
100
AcDbEntity
  8
LAY-1
  6
DASHED2
 62
     3
100
AcDbLine
 10
208.700031
 20
426.5
 30
0.0
 11
208.700031
 21
435.3
 31
0.0
  0
LINE
  5
17E
100
AcDbEntity
  8
LAY-1
  6
DASHED2
 62
     3
100
AcDbLine
 10
355.7
 20
393.499992
 30
0.0
 11
356.052654
 21
391.499992
 31
0.0
  0
LINE
  5
17F
100
AcDbEntity
  8
LAY-1
  6
DASHED2
 62
     3
100
AcDbLine
 10
224.298468
 20
393.499992
 30
0.0
 11
355.7
 21
393.499992
 31
0.0
  0
LINE
  5
180
100
AcDbEntity
  8
LAY-1
  6
CONTINUOUS
 62
     3
100
AcDbLine
 10
624.6
 20
176.9
 30
0.0
 11
622.6
 21
176.547346
 31
0.0
  0
LINE
  5
181
100
AcDbEntity
  8
LAY-1
  6
DASHED2
 62
     3
100
AcDbLine
 10
624.6
 20
176.9
 30
0.0
 11
624.6
 21
191.9
 31
0.0
  0
LINE
  5
182
100
AcDbEntity
  8
LAY-1
  6
DASHED2
 62
     3
100
AcDbLine
 10
624.6
 20
176.9
 30
0.0
 11
622.6
 21
176.547346
 31
0.0
  0
LINE
  5
183
100
AcDbEntity
  8
LAY-2
  6
CONTINUOUS
 62
     3
100
AcDbLine
 10
653.1
 20
200.4
 30
0.0
 11
653.1
 21
204.4
 31
0.0
  0
LINE
  5
184
100
AcDbEntity
  8
LAY-2
  6
CONTINUOUS
 62
     3
100
AcDbLine
 10
652.1
 20
199.4
 30
0.0
 11
630.1
 21
199.4
 31
0.0
  0
LINE
  5
185
100
AcDbEntity
  8
LAY-2
  6
CONTINUOUS
 62
     3
100
AcDbLine
 10
652.1
 20
205.4
 30
0.0
 11
587.224055
 21
205.4
 31
0.0
  0
LINE
  5
186
100
AcDbEntity
  8
LAY-2
  6
CONTINUOUS
 62
     3
100
AcDbLine
 10
586.224055
 20
204.4
 30
0.0
 11
586.224055
 21
201.9
 31
0.0
  0
LINE
  5
187
100
AcDbEntity
  8
LAY-2
  6
CONTINUOUS
 62
     3
100
AcDbLine
 10
629.1
 20
200.4
 30
0.0
 11
629.1
 21
200.9
 31
0.0
  0
ARC
  5
188
100
AcDbEntity
  8
LAY-2
  6
CONTINUOUS
 62
     3
100
AcDbCircle
 10
652.1
 20
204.4
 30
0.0
 40
1.0
100
AcDbArc
 50
0.0
 51
90.0
  0
ARC
  5
189
100
AcDbEntity
  8
LAY-2
  6
CONTINUOUS
 62
     3
100
AcDbCircle
 10
652.1
 20
200.4
 30
0.0
 40
1.0
100
AcDbArc
 50
270.0
 51
0.0
  0
ARC
  5
18A
100
AcDbEntity
  8
LAY-2
  6
CONTINUOUS
 62
     3
100
AcDbCircle
 10
587.224055
 20
201.9
 30
0.0
 40
1.0
100
AcDbArc
 50
180.0
 51
270.0
  0
ARC
  5
18B
100
AcDbEntity
  8
LAY-2
  6
CONTINUOUS
 62
     3
100
AcDbCircle
 10
630.1
 20
200.4
 30
0.0
 40
1.0
100
AcDbArc
 50
180.0
 51
270.0
  0
ARC
  5
18C
100
AcDbEntity
  8
LAY-2
  6
CONTINUOUS
 62
     3
100
AcDbCircle
 10
630.1
 20
204.4
 30
0.0
 40
1.0
100
AcDbArc
 50
90.0
 51
180.0
  0
LINE
  5
18D
100
AcDbEntity
  8
LAY-2
  6
CONTINUOUS
 62
     3
100
AcDbLine
 10
598.224055
 20
199.9
 30
0.0
 11
590.224055
 21
199.9
 31
0.0
  0
ARC
  5
18E
100
AcDbEntity
  8
LAY-2
  6
CONTINUOUS
 62
     3
100
AcDbCircle
 10
598.224055
 20
200.9
 30
0.0
 40
1.0
100
AcDbArc
 50
270.0
 51
0.0
  0
ARC
  5
18F
100
AcDbEntity
  8
LAY-2
  6
CONTINUOUS
 62
     3
100
AcDbCircle
 10
590.224055
 20
200.9
 30
0.0
 40
1.0
100
AcDbArc
 50
180.0
 51
270.0
  0
ARC
  5
190
100
AcDbEntity
  8
LAY-2
  6
CONTINUOUS
 62
     3
100
AcDbCircle
 10
587.224055
 20
204.4
 30
0.0
 40
1.0
100
AcDbArc
 50
90.0
 51
180.0
  0
LINE
  5
191
100
AcDbEntity
  8
LAY-2
  6
CONTINUOUS
 62
     3
100
AcDbLine
 10
601.224055
 20
205.4
 30
0.0
 11
601.224055
 21
210.4
 31
0.0
  0
LINE
  5
192
100
AcDbEntity
  8
LAY-2
  6
CONTINUOUS
 62
     3
100
AcDbLine
 10
587.224055
 20
205.4
 30
0.0
 11
587.224055
 21
210.4
 31
0.0
  0
LINE
  5
193
100
AcDbEntity
  8
LAY-2
  6
CONTINUOUS
 62
     3
100
AcDbLine
 10
235.7
 20
200.4
 30
0.0
 11
235.7
 21
204.4
 31
0.0
  0
LINE
  5
194
100
AcDbEntity
  8
LAY-2
  6
CONTINUOUS
 62
     3
100
AcDbLine
 10
259.7
 20
200.4
 30
0.0
 11
259.7
 21
200.9
 31
0.0
  0
LINE
  5
195
100
AcDbEntity
  8
LAY-2
  6
CONTINUOUS
 62
     3
100
AcDbLine
 10
470.617198
 20
204.4
 30
0.0
 11
470.617198
 21
201.9
 31
0.0
  0
LINE
  5
196
100
AcDbEntity
  8
LAY-2
  6
CONTINUOUS
 62
     3
100
AcDbLine
 10
236.7
 20
199.4
 30
0.0
 11
258.7
 21
199.4
 31
0.0
  0
ARC
  5
197
100
AcDbEntity
  8
LAY-2
  6
CONTINUOUS
 62
     3
100
AcDbCircle
 10
236.7
 20
204.4
 30
0.0
 40
1.0
100
AcDbArc
 50
90.0
 51
180.0
  0
ARC
  5
198
100
AcDbEntity
  8
LAY-2
  6
CONTINUOUS
 62
     3
100
AcDbCircle
 10
236.7
 20
200.4
 30
0.0
 40
1.0
100
AcDbArc
 50
180.0
 51
270.0
  0
ARC
  5
199
100
AcDbEntity
  8
LAY-2
  6
CONTINUOUS
 62
     3
100
AcDbCircle
 10
258.7
 20
200.4
 30
0.0
 40
1.0
100
AcDbArc
 50
270.0
 51
0.0
  0
ARC
  5
19A
100
AcDbEntity
  8
LAY-2
  6
CONTINUOUS
 62
     3
100
AcDbCircle
 10
469.617198
 20
204.4
 30
0.0
 40
1.0
100
AcDbArc
 50
0.0
 51
90.0
  0
ARC
  5
19B
100
AcDbEntity
  8
LAY-2
  6
CONTINUOUS
 62
     3
100
AcDbCircle
 10
469.617198
 20
201.9
 30
0.0
 40
1.0
100
AcDbArc
 50
270.0
 51
0.0
  0
ARC
  5
19C
100
AcDbEntity
  8
LAY-2
  6
CONTINUOUS
 62
     3
100
AcDbCircle
 10
258.7
 20
204.4
 30
0.0
 40
1.0
100
AcDbArc
 50
0.0
 51
90.0
  0
LINE
  5
19D
100
AcDbEntity
  8
LAY-2
  6
CONTINUOUS
 62
     3
100
AcDbLine
 10
458.617198
 20
199.9
 30
0.0
 11
466.617198
 21
199.9
 31
0.0
  0
ARC
  5
19E
100
AcDbEntity
  8
LAY-2
  6
CONTINUOUS
 62
     3
100
AcDbCircle
 10
458.617198
 20
200.9
 30
0.0
 40
1.0
100
AcDbArc
 50
180.0
 51
270.0
  0
ARC
  5
19F
100
AcDbEntity
  8
LAY-2
  6
CONTINUOUS
 62
     3
100
AcDbCircle
 10
466.617198
 20
200.9
 30
0.0
 40
1.0
100
AcDbArc
 50
270.0
 51
0.0
  0
LINE
  5
1A0
100
AcDbEntity
  8
LAY-2
  6
CONTINUOUS
 62
     3
100
AcDbLine
 10
455.617198
 20
205.4
 30
0.0
 11
455.617198
 21
210.9
 31
0.0
  0
LINE
  5
1A1
100
AcDbEntity
  8
LAY-2
  6
CONTINUOUS
 62
     3
100
AcDbLine
 10
469.617198
 20
205.4
 30
0.0
 11
469.617198
 21
210.9
 31
0.0
  0
LINE
  5
1A2
100
AcDbEntity
  8
LAY-2
  6
CONTINUOUS
 62
     3
100
AcDbLine
 10
455.617198
 20
210.4
 30
0.0
 11
469.617198
 21
210.4
 31
0.0
  0
LINE
  5
1A3
100
AcDbEntity
  8
LAY-2
  6
CONTINUOUS
 62
     3
100
AcDbLine
 10
455.117198
 20
216.4
 30
0.0
 11
455.117198
 21
218.0
 31
0.0
  0
LINE
  5
1A4
100
AcDbEntity
  8
LAY-2
  6
CONTINUOUS
 62
     3
100
AcDbLine
 10
470.117198
 20
216.4
 30
0.0
 11
470.117198
 21
218.0
 31
0.0
  0
LINE
  5
1A5
100
AcDbEntity
  8
LAY-2
  6
CONTINUOUS
 62
     3
100
AcDbLine
 10
455.117198
 20
218.0
 30
0.0
 11
470.117198
 21
218.0
 31
0.0
  0
LINE
  5
1A6
100
AcDbEntity
  8
LAY-2
  6
CONTINUOUS
 62
     3
100
AcDbLine
 10
470.117198
 20
216.4
 30
0.0
 11
455.117198
 21
216.4
 31
0.0
  0
LINE
  5
1A7
100
AcDbEntity
  8
LAY-2
  6
CONTINUOUS
 62
     3
100
AcDbLine
 10
456.717198
 20
218.0
 30
0.0
 11
456.717198
 21
219.0
 31
0.0
  0
LINE
  5
1A8
100
AcDbEntity
  8
LAY-2
  6
CONTINUOUS
 62
     3
100
AcDbLine
 10
468.517198
 20
218.0
 30
0.0
 11
468.517198
 21
219.0
 31
0.0
  0
LINE
  5
1A9
100
AcDbEntity
  8
LAY-2
  6
CONTINUOUS
 62
     3
100
AcDbLine
 10
456.717198
 20
219.0
 30
0.0
 11
468.517198
 21
219.0
 31
0.0
  0
ARC
  5
1AA
100
AcDbEntity
  8
LAY-2
  6
CONTINUOUS
 62
     3
100
AcDbCircle
 10
462.617198
 20
211.761905
 30
0.0
 40
9.338095
100
AcDbArc
 50
50.815436
 51
129.184564
  0
LINE
  5
1AB
100
AcDbEntity
  8
LAY-2
  6
CONTINUOUS
 62
     3
100
AcDbLine
 10
455.617198
 20
210.9
 30
0.0
 11
469.617198
 21
210.9
 31
0.0
  0
LINE
  5
1AC
100
AcDbEntity
  8
LAY-2
  6
CONTINUOUS
 62
     3
100
AcDbLine
 10
467.817198
 20
216.4
 30
0.0
 11
467.817198
 21
216.010424
 31
0.0
  0
LINE
  5
1AD
100
AcDbEntity
  8
LAY-2
  6
CONTINUOUS
 62
     3
100
AcDbLine
 10
457.417198
 20
216.4
 30
0.0
 11
457.417198
 21
215.790582
 31
0.0
  0
LINE
  5
1AE
100
AcDbEntity
  8
LAY-2
  6
CONTINUOUS
 62
     3
100
AcDbLine
 10
457.417198
 20
211.289576
 30
0.0
 11
457.417198
 21
210.9
 31
0.0
  0
LINE
  5
1AF
100
AcDbEntity
  8
LAY-2
  6
CONTINUOUS
 62
     3
100
AcDbLine
 10
467.817198
 20
211.509418
 30
0.0
 11
467.817198
 21
210.9
 31
0.0
  0
LINE
  5
1B0
100
AcDbEntity
  8
LAY-2
  6
CONTINUOUS
 62
     3
100
AcDbLine
 10
236.7
 20
205.4
 30
0.0
 11
440.0
 21
205.4
 31
0.0
  0
LINE
  5
1B1
100
AcDbEntity
  8
LAY-2
  6
CONTINUOUS
 62
     3
100
AcDbLine
 10
440.0
 20
205.4
 30
0.0
 11
469.617198
 21
205.4
 31
0.0
  0
LINE
  5
1B2
100
AcDbEntity
  8
LAY-2
  6
CONTINUOUS
 62
     3
100
AcDbLine
 10
469.617198
 20
200.9
 30
0.0
 11
439.4
 21
200.9
 31
0.0
  0
LINE
  5
1B3
100
AcDbEntity
  8
LAY-2
  6
CONTINUOUS
 62
     3
100
AcDbLine
 10
440.0
 20
200.9
 30
0.0
 11
258.1
 21
200.9
 31
0.0
  0
LINE
  5
1B4
100
AcDbEntity
  8
LAY-2
  6
CONTINUOUS
 62
     3
100
AcDbLine
 10
601.224055
 20
210.4
 30
0.0
 11
601.224055
 21
210.9
 31
0.0
  0
LINE
  5
1B5
100
AcDbEntity
  8
LAY-2
  6
CONTINUOUS
 62
     3
100
AcDbLine
 10
587.224055
 20
210.4
 30
0.0
 11
601.224055
 21
210.4
 31
0.0
  0
LINE
  5
1B6
100
AcDbEntity
  8
LAY-2
  6
CONTINUOUS
 62
     3
100
AcDbLine
 10
586.724055
 20
216.4
 30
0.0
 11
586.724055
 21
218.0
 31
0.0
  0
LINE
  5
1B7
100
AcDbEntity
  8
LAY-2
  6
CONTINUOUS
 62
     3
100
AcDbLine
 10
601.724055
 20
216.4
 30
0.0
 11
601.724055
 21
218.0
 31
0.0
  0
LINE
  5
1B8
100
AcDbEntity
  8
LAY-2
  6
CONTINUOUS
 62
     3
100
AcDbLine
 10
586.724055
 20
218.0
 30
0.0
 11
601.724055
 21
218.0
 31
0.0
  0
LINE
  5
1B9
100
AcDbEntity
  8
LAY-2
  6
CONTINUOUS
 62
     3
100
AcDbLine
 10
601.724055
 20
216.4
 30
0.0
 11
586.724055
 21
216.4
 31
0.0
  0
LINE
  5
1BA
100
AcDbEntity
  8
LAY-2
  6
CONTINUOUS
 62
     3
100
AcDbLine
 10
588.324055
 20
218.0
 30
0.0
 11
588.324055
 21
219.0
 31
0.0
  0
LINE
  5
1BB
100
AcDbEntity
  8
LAY-2
  6
CONTINUOUS
 62
     3
100
AcDbLine
 10
600.124055
 20
218.0
 30
0.0
 11
600.124055
 21
219.0
 31
0.0
  0
LINE
  5
1BC
100
AcDbEntity
  8
LAY-2
  6
CONTINUOUS
 62
     3
100
AcDbLine
 10
588.324055
 20
219.0
 30
0.0
 11
600.124055
 21
219.0
 31
0.0
  0
ARC
  5
1BD
100
AcDbEntity
  8
LAY-2
  6
CONTINUOUS
 62
     3
100
AcDbCircle
 10
594.224055
 20
211.761905
 30
0.0
 40
9.338095
100
AcDbArc
 50
50.815436
 51
129.184564
  0
LINE
  5
1BE
100
AcDbEntity
  8
LAY-2
  6
CONTINUOUS
 62
     3
100
AcDbLine
 10
587.224055
 20
210.9
 30
0.0
 11
601.224055
 21
210.9
 31
0.0
  0
LINE
  5
1BF
100
AcDbEntity
  8
LAY-2
  6
CONTINUOUS
 62
     3
100
AcDbLine
 10
599.424055
 20
216.4
 30
0.0
 11
599.424055
 21
215.797922
 31
0.0
  0
LINE
  5
1C0
100
AcDbEntity
  8
LAY-2
  6
CONTINUOUS
 62
     3
100
AcDbLine
 10
589.024055
 20
215.797922
 30
0.0
 11
589.024055
 21
216.4
 31
0.0
  0
LINE
  5
1C1
100
AcDbEntity
  8
LAY-2
  6
CONTINUOUS
 62
     3
100
AcDbLine
 10
589.024055
 20
211.298192
 30
0.0
 11
589.024055
 21
210.9
 31
0.0
  0
LINE
  5
1C2
100
AcDbEntity
  8
LAY-2
  6
CONTINUOUS
 62
     3
100
AcDbLine
 10
599.424055
 20
210.9
 30
0.0
 11
599.424055
 21
211.298192
 31
0.0
  0
LINE
  5
1C3
100
AcDbEntity
  8
LAY-2
  6
CONTINUOUS
 62
     3
100
AcDbLine
 10
587.224055
 20
200.9
 30
0.0
 11
630.6
 21
200.9
 31
0.0
  0
ARC
  5
1C4
100
AcDbEntity
  8
LAY-2
  6
CONTINUOUS
 62
     3
100
AcDbCircle
 10
464.08599
 20
364.654627
 30
0.0
 40
1.0
100
AcDbArc
 50
181.18
 51
271.18
  0
ARC
  5
1C5
100
AcDbEntity
  8
LAY-2
  6
CONTINUOUS
 62
     3
100
AcDbCircle
 10
461.148406
 20
361.593483
 30
0.0
 40
1.0
100
AcDbArc
 50
1.18
 51
91.18
  0
ARC
  5
1C6
100
AcDbEntity
  8
LAY-2
  6
CONTINUOUS
 62
     3
100
AcDbCircle
 10
461.086626
 20
364.592847
 30
0.0
 40
1.0
100
AcDbArc
 50
271.18
 51
1.18
  0
ARC
  5
1C7
100
AcDbEntity
  8
LAY-2
  6
CONTINUOUS
 62
     3
100
AcDbCircle
 10
464.14777
 20
361.655263
 30
0.0
 40
1.0
100
AcDbArc
 50
91.18
 51
181.18
  0
ARC
  5
1C8
100
AcDbEntity
  8
LAY-2
  6
CONTINUOUS
 62
     3
100
AcDbCircle
 10
464.08599
 20
364.654627
 30
0.0
 40
1.0
100
AcDbArc
 50
181.18
 51
271.18
  0
ARC
  5
1C9
100
AcDbEntity
  8
LAY-2
  6
CONTINUOUS
 62
     3
100
AcDbCircle
 10
464.14777
 20
361.655263
 30
0.0
 40
1.0
100
AcDbArc
 50
91.18
 51
181.18
  0
CIRCLE
  5
1CA
100
AcDbEntity
  8
LAY-2
  6
CONTINUOUS
 62
     3
100
AcDbCircle
 10
462.617198
 20
363.124055
 30
0.0
 40
5.0
  0
LINE
  5
1CB
100
AcDbEntity
  8
LAY-2
  6
CONTINUOUS
 62
     3
100
AcDbLine
 10
463.086202
 20
364.634033
 30
0.0
 11
463.064579
 21
365.683811
 31
0.0
  0
LINE
  5
1CC
100
AcDbEntity
  8
LAY-2
  6
CONTINUOUS
 62
     3
100
AcDbLine
 10
462.064791
 20
365.663217
 30
0.0
 11
463.064579
 21
365.683811
 31
0.0
  0
LINE
  5
1CD
100
AcDbEntity
  8
LAY-2
  6
CONTINUOUS
 62
     3
100
AcDbLine
 10
462.086414
 20
364.61344
 30
0.0
 11
462.064791
 21
365.663217
 31
0.0
  0
LINE
  5
1CE
100
AcDbEntity
  8
LAY-2
  6
CONTINUOUS
 62
     3
100
AcDbLine
 10
462.086414
 20
364.61344
 30
0.0
 11
462.064791
 21
365.663217
 31
0.0
  0
LINE
  5
1CF
100
AcDbEntity
  8
LAY-2
  6
CONTINUOUS
 62
     3
100
AcDbLine
 10
463.064579
 20
365.683811
 30
0.0
 11
462.064791
 21
365.663217
 31
0.0
  0
LINE
  5
1D0
100
AcDbEntity
  8
LAY-2
  6
CONTINUOUS
 62
     3
100
AcDbLine
 10
463.086202
 20
364.634033
 30
0.0
 11
463.064579
 21
365.683811
 31
0.0
  0
LINE
  5
1D1
100
AcDbEntity
  8
LAY-2
  6
CONTINUOUS
 62
     3
100
AcDbLine
 10
460.078036
 20
362.571648
 30
0.0
 11
460.057442
 21
363.571436
 31
0.0
  0
LINE
  5
1D2
100
AcDbEntity
  8
LAY-2
  6
CONTINUOUS
 62
     3
100
AcDbLine
 10
461.127813
 20
362.593271
 30
0.0
 11
460.078036
 21
362.571648
 31
0.0
  0
LINE
  5
1D3
100
AcDbEntity
  8
LAY-2
  6
CONTINUOUS
 62
     3
100
AcDbLine
 10
461.10722
 20
363.593059
 30
0.0
 11
460.057442
 21
363.571436
 31
0.0
  0
LINE
  5
1D4
100
AcDbEntity
  8
LAY-2
  6
CONTINUOUS
 62
     3
100
AcDbLine
 10
463.169605
 20
360.584892
 30
0.0
 11
462.169817
 21
360.564299
 31
0.0
  0
LINE
  5
1D5
100
AcDbEntity
  8
LAY-2
  6
CONTINUOUS
 62
     3
100
AcDbLine
 10
463.147982
 20
361.63467
 30
0.0
 11
463.169605
 21
360.584892
 31
0.0
  0
LINE
  5
1D6
100
AcDbEntity
  8
LAY-2
  6
CONTINUOUS
 62
     3
100
AcDbLine
 10
462.148194
 20
361.614076
 30
0.0
 11
462.169817
 21
360.564299
 31
0.0
  0
LINE
  5
1D7
100
AcDbEntity
  8
LAY-2
  6
CONTINUOUS
 62
     3
100
AcDbLine
 10
462.148194
 20
361.614076
 30
0.0
 11
462.169817
 21
360.564299
 31
0.0
  0
LINE
  5
1D8
100
AcDbEntity
  8
LAY-2
  6
CONTINUOUS
 62
     3
100
AcDbLine
 10
463.147982
 20
361.63467
 30
0.0
 11
463.169605
 21
360.584892
 31
0.0
  0
LINE
  5
1D9
100
AcDbEntity
  8
LAY-2
  6
CONTINUOUS
 62
     3
100
AcDbLine
 10
465.156361
 20
363.676462
 30
0.0
 11
465.176954
 21
362.676674
 31
0.0
  0
LINE
  5
1DA
100
AcDbEntity
  8
LAY-2
  6
CONTINUOUS
 62
     3
100
AcDbLine
 10
464.127177
 20
362.655051
 30
0.0
 11
465.176954
 21
362.676674
 31
0.0
  0
LINE
  5
1DB
100
AcDbEntity
  8
LAY-2
  6
CONTINUOUS
 62
     3
100
AcDbLine
 10
464.106583
 20
363.654839
 30
0.0
 11
465.156361
 21
363.676462
 31
0.0
  0
LINE
  5
1DC
100
AcDbEntity
  8
LAY-2
  6
CONTINUOUS
 62
     3
100
AcDbLine
 10
464.106583
 20
363.654839
 30
0.0
 11
465.156361
 21
363.676462
 31
0.0
  0
CIRCLE
  5
1DD
100
AcDbEntity
  8
LAY-2
  6
CONTINUOUS
 62
     3
100
AcDbCircle
 10
462.617198
 20
363.124055
 30
0.0
 40
7.5
  0
ARC
  5
1DE
100
AcDbEntity
  8
LAY-2
  6
CONTINUOUS
 62
     3
100
AcDbCircle
 10
238.102972
 20
363.711765
 30
0.0
 40
59.148714
100
AcDbArc
 50
67.138877
 51
85.546506
  0
ARC
  5
1DF
100
AcDbEntity
  8
LAY-2
  6
CONTINUOUS
 62
     3
100
AcDbCircle
 10
203.461409
 20
419.661188
 30
0.0
 40
58.28125
100
AcDbArc
 50
337.730981
 51
357.630389
  0
ARC
  5
1E0
100
AcDbEntity
  8
LAY-2
  6
CONTINUOUS
 62
     3
100
AcDbCircle
 10
256.470324
 20
397.954125
 30
0.0
 40
1.0
100
AcDbArc
 50
268.222493
 51
337.730981
  0
LINE
  5
1E1
100
AcDbEntity
  8
LAY-2
  6
CONTINUOUS
 62
     3
100
AcDbLine
 10
258.613131
 20
398.404569
 30
0.0
 11
385.480195
 21
370.698272
 31
0.0
  0
ARC
  5
1E2
100
AcDbEntity
  8
LAY-2
  6
CONTINUOUS
 62
     3
100
AcDbCircle
 10
258.399771
 20
397.427596
 30
0.0
 40
1.0
100
AcDbArc
 50
77.680685
 51
164.736135
  0
ARC
  5
1E3
100
AcDbEntity
  8
LAY-2
  6
CONTINUOUS
 62
     3
100
AcDbCircle
 10
260.693678
 20
417.292853
 30
0.0
 40
1.0
100
AcDbArc
 50
357.630389
 51
67.138877
  0
ARC
  5
1E4
100
AcDbEntity
  8
LAY-2
  6
CONTINUOUS
 62
     3
100
AcDbCircle
 10
262.666966
 20
416.96707
 30
0.0
 40
1.0
100
AcDbArc
 50
170.625235
 51
257.680685
  0
LINE
  5
1E5
100
AcDbEntity
  8
LAY-2
  6
CONTINUOUS
 62
     3
100
AcDbLine
 10
262.453606
 20
415.990096
 30
0.0
 11
453.312628
 21
374.308696
 31
0.0
  0
ARC
  5
1E6
100
AcDbEntity
  8
LAY-2
  6
CONTINUOUS
 62
     3
100
AcDbCircle
 10
258.274002
 20
456.074859
 30
0.0
 40
59.148714
100
AcDbArc
 50
247.319882
 51
268.222493
  0
LINE
  5
1E7
100
AcDbEntity
  8
LAY-2
  6
CONTINUOUS
 62
     3
100
AcDbLine
 10
455.736363
 20
373.803563
 30
0.0
 11
453.317609
 21
374.331507
 31
0.0
  0
LINE
  5
1E8
100
AcDbEntity
  8
LAY-2
  6
CONTINUOUS
 62
     3
100
AcDbLine
 10
459.28308
 20
372.543657
 30
0.0
 11
455.736363
 21
373.803563
 31
0.0
  0
LINE
  5
1E9
100
AcDbEntity
  8
LAY-2
  6
CONTINUOUS
 62
     3
100
AcDbLine
 10
587.224055
 20
205.4
 30
0.0
 11
587.224055
 21
210.4
 31
0.0
  0
LINE
  5
1EA
100
AcDbEntity
  8
LAY-2
  6
CONTINUOUS
 62
     3
100
AcDbLine
 10
587.224055
 20
210.4
 30
0.0
 11
587.224055
 21
210.9
 31
0.0
  0
LINE
  5
1EB
100
AcDbEntity
  8
LAY-2
  6
CONTINUOUS
 62
     3
100
AcDbLine
 10
587.224055
 20
210.9
 30
0.0
 11
594.6
 21
210.9
 31
0.0
  0
LINE
  5
1EC
100
AcDbEntity
  8
LAY-3
  6
CONTINUOUS
 62
     3
100
AcDbLine
 10
603.224055
 20
215.797922
 30
0.0
 11
585.224055
 21
215.797922
 31
0.0
  0
LINE
  5
1ED
100
AcDbEntity
  8
LAY-3
  6
CONTINUOUS
 62
     3
100
AcDbLine
 10
603.224055
 20
211.298192
 30
0.0
 11
585.224055
 21
211.298192
 31
0.0
  0
LINE
  5
1EE
100
AcDbEntity
  8
LAY-3
  6
CONTINUOUS
 62
     3
100
AcDbLine
 10
603.724055
 20
211.798192
 30
0.0
 11
603.724055
 21
215.297922
 31
0.0
  0
LINE
  5
1EF
100
AcDbEntity
  8
LAY-3
  6
CONTINUOUS
 62
     3
100
AcDbLine
 10
584.724055
 20
215.297922
 30
0.0
 11
584.724055
 21
211.798192
 31
0.0
  0
ARC
  5
1F0
100
AcDbEntity
  8
LAY-3
  6
CONTINUOUS
 62
     3
100
AcDbCircle
 10
585.224055
 20
215.297922
 30
0.0
 40
0.5
100
AcDbArc
 50
90.0
 51
180.0
  0
ARC
  5
1F1
100
AcDbEntity
  8
LAY-3
  6
CONTINUOUS
 62
     3
100
AcDbCircle
 10
585.224055
 20
211.798192
 30
0.0
 40
0.5
100
AcDbArc
 50
180.0
 51
270.0
  0
ARC
  5
1F2
100
AcDbEntity
  8
LAY-3
  6
CONTINUOUS
 62
     3
100
AcDbCircle
 10
603.224055
 20
211.798192
 30
0.0
 40
0.5
100
AcDbArc
 50
270.0
 51
0.0
  0
ARC
  5
1F3
100
AcDbEntity
  8
LAY-3
  6
CONTINUOUS
 62
     3
100
AcDbCircle
 10
462.617198
 20
363.124055
 30
0.0
 40
9.5
100
AcDbArc
 50
271.432339
 51
91.432339
  0
LINE
  5
1F4
100
AcDbEntity
  8
LAY-3
  6
CONTINUOUS
 62
     3
100
AcDbLine
 10
212.767169
 20
366.379712
 30
0.0
 11
462.379732
 21
372.621087
 31
0.0
  0
LINE
  5
1F5
100
AcDbEntity
  8
LAY-3
  6
CONTINUOUS
 62
     3
100
AcDbLine
 10
201.058989
 20
347.081019
 30
0.0
 11
462.854664
 21
353.627023
 31
0.0
  0
LINE
  5
1F6
100
AcDbEntity
  8
LAY-3
  6
CONTINUOUS
 62
     3
100
AcDbLine
 10
188.15457
 20
210.098725
 30
0.0
 11
188.249673
 21
205.59973
 31
0.0
  0
LINE
  5
1F7
100
AcDbEntity
  8
LAY-3
  6
CONTINUOUS
 62
     3
100
AcDbLine
 10
188.15457
 20
210.098725
 30
0.0
 11
472.067525
 21
216.10027
 31
0.0
  0
LINE
  5
1F8
100
AcDbEntity
  8
LAY-3
  6
CONTINUOUS
 62
     3
100
AcDbLine
 10
188.249673
 20
205.59973
 30
0.0
 11
472.162628
 21
211.601275
 31
0.0
  0
LINE
  5
1F9
100
AcDbEntity
  8
LAY-3
  6
CONTINUOUS
 62
     3
100
AcDbLine
 10
472.162628
 20
211.601275
 30
0.0
 11
472.067525
 21
216.10027
 31
0.0
  0
LINE
  5
1FA
100
AcDbEntity
  8
LAY-3
  6
CONTINUOUS
 62
     3
100
AcDbLine
 10
587.224055
 20
205.59973
 30
0.0
 11
578.1
 21
205.59973
 31
0.0
  0
LINE
  5
1FB
100
AcDbEntity
  8
LAY-3
  6
CONTINUOUS
 62
     3
100
AcDbLine
 10
578.1
 20
209.862085
 30
0.0
 11
578.1
 21
205.59973
 31
0.0
  0
LINE
  5
1FC
100
AcDbEntity
  8
LAY-3
  6
CONTINUOUS
 62
     3
100
AcDbLine
 10
584.860246
 20
215.640913
 30
0.0
 11
578.283002
 21
210.248753
 31
0.0
  0
LINE
  5
1FD
100
AcDbEntity
  8
LAY-3
  6
CONTINUOUS
 62
     3
100
AcDbLine
 10
584.92166
 20
211.4
 30
0.0
 11
578.1
 21
205.59973
 31
0.0
  0
ARC
  5
1FE
100
AcDbEntity
  8
LAY-3
  6
CONTINUOUS
 62
     3
100
AcDbCircle
 10
603.224055
 20
215.297922
 30
0.0
 40
0.5
100
AcDbArc
 50
0.0
 51
90.0
  0
LINE
  5
1FF
100
AcDbEntity
  8
LAY-3
  6
CONTINUOUS
 62
     3
100
AcDbLine
 10
601.224055
 20
209.445154
 30
0.0
 11
603.58707
 21
211.454361
 31
0.0
  0
ARC
  5
200
100
AcDbEntity
  8
LAY-3
  6
CONTINUOUS
 62
     3
100
AcDbCircle
 10
578.6
 20
209.862085
 30
0.0
 40
0.5
100
AcDbArc
 50
129.345602
 51
180.0
  0
ARC
  5
201
100
AcDbEntity
  8
LAY-4
  6
CONTINUOUS
 62
     3
100
AcDbCircle
 10
247.7
 20
413.499992
 30
0.0
 40
9.0
100
AcDbArc
 50
140.560853
 51
141.057559
  0
LINE
  5
202
100
AcDbEntity
  8
LAY-4
  6
CONTINUOUS
 62
     3
100
AcDbLine
 10
156.7
 20
426.5
 30
0.0
 11
238.7
 21
426.5
 31
0.0
  0
LINE
  5
203
100
AcDbEntity
  8
LAY-4
  6
CONTINUOUS
 62
     3
100
AcDbLine
 10
156.7
 20
401.5
 30
0.0
 11
164.392753
 21
401.5
 31
0.0
  0
LINE
  5
204
100
AcDbEntity
  8
LAY-4
  6
CONTINUOUS
 62
     3
100
AcDbLine
 10
152.7
 20
422.5
 30
0.0
 11
152.7
 21
405.5
 31
0.0
  0
ARC
  5
205
100
AcDbEntity
  8
LAY-4
  6
CONTINUOUS
 62
     3
100
AcDbCircle
 10
156.7
 20
422.5
 30
0.0
 40
4.0
100
AcDbArc
 50
90.0
 51
180.0
  0
ARC
  5
206
100
AcDbEntity
  8
LAY-4
  6
CONTINUOUS
 62
     3
100
AcDbCircle
 10
156.7
 20
405.5
 30
0.0
 40
4.0
100
AcDbArc
 50
180.0
 51
270.0
  0
ARC
  5
207
100
AcDbEntity
  8
LAY-4
  6
CONTINUOUS
 62
     3
100
AcDbCircle
 10
238.7
 20
422.5
 30
0.0
 40
4.0
100
AcDbArc
 50
0.0
 51
90.0
  0
LINE
  5
208
100
AcDbEntity
  8
LAY-4
  6
CONTINUOUS
 62
     3
100
AcDbLine
 10
242.7
 20
422.5
 30
0.0
 11
242.7
 21
405.5
 31
0.0
  0
ARC
  5
209
100
AcDbEntity
  8
LAY-4
  6
CONTINUOUS
 62
     3
100
AcDbCircle
 10
238.7
 20
405.5
 30
0.0
 40
4.0
100
AcDbArc
 50
270.0
 51
0.0
  0
LINE
  5
20A
100
AcDbEntity
  8
LAY-4
  6
CONTINUOUS
 62
     3
100
AcDbLine
 10
238.7
 20
401.5
 30
0.0
 11
231.007247
 21
401.5
 31
0.0
  0
CIRCLE
  5
20B
100
AcDbEntity
  8
LAY-4
  6
CONTINUOUS
 62
     3
100
AcDbCircle
 10
159.7
 20
418.5
 30
0.0
 40
2.4
  0
CIRCLE
  5
20C
100
AcDbEntity
  8
LAY-4
  6
DASHED2
 62
     3
100
AcDbCircle
 10
159.7
 20
418.5
 30
0.0
 40
5.1
  0
CIRCLE
  5
20D
100
AcDbEntity
  8
LAY-4
  6
CONTINUOUS
 62
     3
100
AcDbCircle
 10
235.7
 20
418.5
 30
0.0
 40
2.4
  0
CIRCLE
  5
20E
100
AcDbEntity
  8
LAY-4
  6
DASHED2
 62
     3
100
AcDbCircle
 10
235.7
 20
418.5
 30
0.0
 40
5.1
  0
CIRCLE
  5
20F
100
AcDbEntity
  8
LAY-4
  6
CONTINUOUS
 62
     3
100
AcDbCircle
 10
177.7
 20
408.5
 30
0.0
 40
2.4
  0
CIRCLE
  5
210
100
AcDbEntity
  8
LAY-4
  6
DASHED2
 62
     3
100
AcDbCircle
 10
177.7
 20
408.5
 30
0.0
 40
5.1
  0
LINE
  5
211
100
AcDbEntity
  8
LAY-4
  6
CONTINUOUS
 62
     3
100
AcDbLine
 10
183.7
 20
219.9
 30
0.0
 11
211.7
 21
219.9
 31
0.0
  0
LINE
  5
212
100
AcDbEntity
  8
LAY-4
  6
CONTINUOUS
 62
     3
100
AcDbLine
 10
183.7
 20
216.3
 30
0.0
 11
211.7
 21
216.3
 31
0.0
  0
LINE
  5
213
100
AcDbEntity
  8
LAY-4
  6
DASHED2
 62
     3
100
AcDbLine
 10
240.7
 20
231.8
 30
0.0
 11
240.7
 21
232.1
 31
0.0
  0
LINE
  5
214
100
AcDbEntity
  8
LAY-4
  6
DASHED2
 62
     3
100
AcDbLine
 10
238.2
 20
234.6
 30
0.0
 11
233.2
 21
234.6
 31
0.0
  0
LINE
  5
215
100
AcDbEntity
  8
LAY-4
  6
DASHED2
 62
     3
100
AcDbLine
 10
240.7
 20
232.1
 30
0.0
 11
238.2
 21
234.6
 31
0.0
  0
LINE
  5
216
100
AcDbEntity
  8
LAY-4
  6
DASHED2
 62
     3
100
AcDbLine
 10
238.2
 20
234.6
 30
0.0
 11
238.2
 21
244.1
 31
0.0
  0
LINE
  5
217
100
AcDbEntity
  8
LAY-4
  6
DASHED2
 62
     1
100
AcDbLine
 10
237.7
 20
234.6
 30
0.0
 11
237.7
 21
244.1
 31
0.0
  0
LINE
  5
218
100
AcDbEntity
  8
LAY-4
  6
DASHED2
 62
     3
100
AcDbLine
 10
230.7
 20
231.8
 30
0.0
 11
230.7
 21
232.1
 31
0.0
  0
LINE
  5
219
100
AcDbEntity
  8
LAY-4
  6
DASHED2
 62
     3
100
AcDbLine
 10
230.7
 20
232.1
 30
0.0
 11
233.2
 21
234.6
 31
0.0
  0
LINE
  5
21A
100
AcDbEntity
  8
LAY-4
  6
DASHED2
 62
     3
100
AcDbLine
 10
233.2
 20
234.6
 30
0.0
 11
233.2
 21
244.1
 31
0.0
  0
LINE
  5
21B
100
AcDbEntity
  8
LAY-4
  6
DASHED2
 62
     1
100
AcDbLine
 10
233.7
 20
234.6
 30
0.0
 11
233.7
 21
244.1
 31
0.0
  0
LINE
  5
21C
100
AcDbEntity
  8
LAY-4
  6
CONTINUOUS
 62
     3
100
AcDbLine
 10
240.7
 20
231.8
 30
0.0
 11
230.7
 21
231.8
 31
0.0
  0
LINE
  5
21D
100
AcDbEntity
  8
LAY-4
  6
DASHED2
 62
     3
100
AcDbLine
 10
240.7
 20
232.1
 30
0.0
 11
230.7
 21
232.1
 31
0.0
  0
ARC
  5
21E
100
AcDbEntity
  8
LAY-4
  6
CONTINUOUS
 62
     3
100
AcDbCircle
 10
235.7
 20
241.616667
 30
0.0
 40
11.016667
100
AcDbArc
 50
243.008533
 51
296.991467
  0
LINE
  5
21F
100
AcDbEntity
  8
LAY-4
  6
CONTINUOUS
 62
     3
100
AcDbLine
 10
192.7
 20
220.9
 30
0.0
 11
202.7
 21
220.9
 31
0.0
  0
ARC
  5
220
100
AcDbEntity
  8
LAY-4
  6
CONTINUOUS
 62
     3
100
AcDbCircle
 10
192.7
 20
219.9
 30
0.0
 40
1.0
100
AcDbArc
 50
90.0
 51
180.0
  0
ARC
  5
221
100
AcDbEntity
  8
LAY-4
  6
CONTINUOUS
 62
     3
100
AcDbCircle
 10
202.7
 20
219.9
 30
0.0
 40
1.0
100
AcDbArc
 50
0.0
 51
90.0
  0
LINE
  5
222
100
AcDbEntity
  8
LAY-4
  6
CONTINUOUS
 62
     3
100
AcDbLine
 10
190.7
 20
216.3
 30
0.0
 11
190.7
 21
210.8
 31
0.0
  0
LINE
  5
223
100
AcDbEntity
  8
LAY-4
  6
CONTINUOUS
 62
     3
100
AcDbLine
 10
190.7
 20
211.3
 30
0.0
 11
204.7
 21
211.3
 31
0.0
  0
LINE
  5
224
100
AcDbEntity
  8
LAY-4
  6
CONTINUOUS
 62
     3
100
AcDbLine
 10
204.7
 20
210.8
 30
0.0
 11
204.7
 21
216.3
 31
0.0
  0
LINE
  5
225
100
AcDbEntity
  8
LAY-4
  6
CONTINUOUS
 62
     3
100
AcDbLine
 10
190.2
 20
205.3
 30
0.0
 11
190.2
 21
203.7
 31
0.0
  0
LINE
  5
226
100
AcDbEntity
  8
LAY-4
  6
CONTINUOUS
 62
     3
100
AcDbLine
 10
205.2
 20
205.3
 30
0.0
 11
205.2
 21
203.7
 31
0.0
  0
LINE
  5
227
100
AcDbEntity
  8
LAY-4
  6
CONTINUOUS
 62
     3
100
AcDbLine
 10
190.2
 20
205.3
 30
0.0
 11
205.2
 21
205.3
 31
0.0
  0
LINE
  5
228
100
AcDbEntity
  8
LAY-4
  6
CONTINUOUS
 62
     3
100
AcDbLine
 10
205.2
 20
203.7
 30
0.0
 11
190.2
 21
203.7
 31
0.0
  0
LINE
  5
229
100
AcDbEntity
  8
LAY-4
  6
CONTINUOUS
 62
     3
100
AcDbLine
 10
191.8
 20
203.7
 30
0.0
 11
191.8
 21
202.7
 31
0.0
  0
LINE
  5
22A
100
AcDbEntity
  8
LAY-4
  6
CONTINUOUS
 62
     3
100
AcDbLine
 10
203.6
 20
203.7
 30
0.0
 11
203.6
 21
202.7
 31
0.0
  0
LINE
  5
22B
100
AcDbEntity
  8
LAY-4
  6
CONTINUOUS
 62
     3
100
AcDbLine
 10
191.8
 20
202.7
 30
0.0
 11
203.6
 21
202.7
 31
0.0
  0
ARC
  5
22C
100
AcDbEntity
  8
LAY-4
  6
CONTINUOUS
 62
     3
100
AcDbCircle
 10
197.7
 20
209.938095
 30
0.0
 40
9.338095
100
AcDbArc
 50
230.815436
 51
309.184564
  0
LINE
  5
22D
100
AcDbEntity
  8
LAY-4
  6
CONTINUOUS
 62
     3
100
AcDbLine
 10
203.6
 20
202.7
 30
0.0
 11
203.6
 21
203.2
 31
0.0
  0
LINE
  5
22E
100
AcDbEntity
  8
LAY-4
  6
CONTINUOUS
 62
     3
100
AcDbLine
 10
657.6
 20
235.4
 30
0.0
 11
612.913612
 21
235.4
 31
0.0
  0
LINE
  5
22F
100
AcDbEntity
  8
LAY-4
  6
CONTINUOUS
 62
     3
100
AcDbLine
 10
657.6
 20
231.8
 30
0.0
 11
612.320498
 21
231.8
 31
0.0
  0
LINE
  5
230
100
AcDbEntity
  8
LAY-4
  6
CONTINUOUS
 62
     3
100
AcDbLine
 10
657.6
 20
235.4
 30
0.0
 11
657.6
 21
231.8
 31
0.0
  0
LINE
  5
231
100
AcDbEntity
  8
LAY-4
  6
CONTINUOUS
 62
     3
100
AcDbLine
 10
152.7
 20
235.4
 30
0.0
 11
242.7
 21
235.4
 31
0.0
  0
LINE
  5
232
100
AcDbEntity
  8
LAY-4
  6
CONTINUOUS
 62
     3
100
AcDbLine
 10
152.7
 20
235.4
 30
0.0
 11
152.7
 21
231.8
 31
0.0
  0
LINE
  5
233
100
AcDbEntity
  8
LAY-4
  6
CONTINUOUS
 62
     3
100
AcDbLine
 10
152.7
 20
231.8
 30
0.0
 11
177.12563
 21
231.8
 31
0.0
  0
LINE
  5
234
100
AcDbEntity
  8
LAY-4
  6
CONTINUOUS
 62
     3
100
AcDbLine
 10
242.7
 20
235.4
 30
0.0
 11
242.7
 21
231.8
 31
0.0
  0
LINE
  5
235
100
AcDbEntity
  8
LAY-4
  6
CONTINUOUS
 62
     3
100
AcDbLine
 10
242.7
 20
231.8
 30
0.0
 11
218.27437
 21
231.8
 31
0.0
  0
LINE
  5
236
100
AcDbEntity
  8
LAY-4
  6
CONTINUOUS
 62
     3
100
AcDbLine
 10
172.7
 20
231.8
 30
0.0
 11
177.12563
 21
231.8
 31
0.0
  0
LINE
  5
237
100
AcDbEntity
  8
LAY-4
  6
CONTINUOUS
 62
     3
100
AcDbLine
 10
218.27437
 20
231.8
 30
0.0
 11
222.7
 21
231.8
 31
0.0
  0
ARC
  5
238
100
AcDbEntity
  8
LAY-4
  6
CONTINUOUS
 62
     3
100
AcDbCircle
 10
175.402519
 20
231.4
 30
0.0
 40
4.0
100
AcDbArc
 50
19.427457
 51
90.0
  0
LINE
  5
239
100
AcDbEntity
  8
LAY-4
  6
DASHED2
 62
     3
100
AcDbLine
 10
154.7
 20
231.8
 30
0.0
 11
154.7
 21
232.1
 31
0.0
  0
LINE
  5
23A
100
AcDbEntity
  8
LAY-4
  6
DASHED2
 62
     3
100
AcDbLine
 10
157.2
 20
234.6
 30
0.0
 11
162.2
 21
234.6
 31
0.0
  0
LINE
  5
23B
100
AcDbEntity
  8
LAY-4
  6
DASHED2
 62
     3
100
AcDbLine
 10
154.7
 20
232.1
 30
0.0
 11
157.2
 21
234.6
 31
0.0
  0
LINE
  5
23C
100
AcDbEntity
  8
LAY-4
  6
DASHED2
 62
     3
100
AcDbLine
 10
157.2
 20
234.6
 30
0.0
 11
157.2
 21
244.1
 31
0.0
  0
LINE
  5
23D
100
AcDbEntity
  8
LAY-4
  6
DASHED2
 62
     1
100
AcDbLine
 10
157.7
 20
234.6
 30
0.0
 11
157.7
 21
244.1
 31
0.0
  0
LINE
  5
23E
100
AcDbEntity
  8
LAY-4
  6
DASHED2
 62
     3
100
AcDbLine
 10
164.7
 20
231.8
 30
0.0
 11
164.7
 21
232.1
 31
0.0
  0
LINE
  5
23F
100
AcDbEntity
  8
LAY-4
  6
DASHED2
 62
     3
100
AcDbLine
 10
164.7
 20
232.1
 30
0.0
 11
162.2
 21
234.6
 31
0.0
  0
LINE
  5
240
100
AcDbEntity
  8
LAY-4
  6
DASHED2
 62
     3
100
AcDbLine
 10
162.2
 20
234.6
 30
0.0
 11
162.2
 21
244.1
 31
0.0
  0
LINE
  5
241
100
AcDbEntity
  8
LAY-4
  6
DASHED2
 62
     1
100
AcDbLine
 10
161.7
 20
234.6
 30
0.0
 11
161.7
 21
244.1
 31
0.0
  0
LINE
  5
242
100
AcDbEntity
  8
LAY-4
  6
CONTINUOUS
 62
     3
100
AcDbLine
 10
154.7
 20
231.8
 30
0.0
 11
164.7
 21
231.8
 31
0.0
  0
LINE
  5
243
100
AcDbEntity
  8
LAY-4
  6
DASHED2
 62
     3
100
AcDbLine
 10
154.7
 20
232.1
 30
0.0
 11
164.7
 21
232.1
 31
0.0
  0
ARC
  5
244
100
AcDbEntity
  8
LAY-4
  6
CONTINUOUS
 62
     3
100
AcDbCircle
 10
159.7
 20
241.616667
 30
0.0
 40
11.016667
100
AcDbArc
 50
243.008533
 51
296.991467
  0
LINE
  5
245
100
AcDbEntity
  8
LAY-4
  6
DASHED2
 62
     3
100
AcDbLine
 10
654.6
 20
231.8
 30
0.0
 11
654.6
 21
232.1
 31
0.0
  0
LINE
  5
246
100
AcDbEntity
  8
LAY-4
  6
DASHED2
 62
     3
100
AcDbLine
 10
652.1
 20
234.6
 30
0.0
 11
647.1
 21
234.6
 31
0.0
  0
LINE
  5
247
100
AcDbEntity
  8
LAY-4
  6
DASHED2
 62
     3
100
AcDbLine
 10
654.6
 20
232.1
 30
0.0
 11
652.1
 21
234.6
 31
0.0
  0
LINE
  5
248
100
AcDbEntity
  8
LAY-4
  6
DASHED2
 62
     3
100
AcDbLine
 10
644.6
 20
231.8
 30
0.0
 11
644.6
 21
232.1
 31
0.0
  0
LINE
  5
249
100
AcDbEntity
  8
LAY-4
  6
DASHED2
 62
     3
100
AcDbLine
 10
644.6
 20
232.1
 30
0.0
 11
647.1
 21
234.6
 31
0.0
  0
LINE
  5
24A
100
AcDbEntity
  8
LAY-4
  6
CONTINUOUS
 62
     3
100
AcDbLine
 10
654.6
 20
231.8
 30
0.0
 11
644.6
 21
231.8
 31
0.0
  0
LINE
  5
24B
100
AcDbEntity
  8
LAY-4
  6
DASHED2
 62
     3
100
AcDbLine
 10
654.6
 20
232.1
 30
0.0
 11
644.6
 21
232.1
 31
0.0
  0
ARC
  5
24C
100
AcDbEntity
  8
LAY-4
  6
CONTINUOUS
 62
     3
100
AcDbCircle
 10
649.6
 20
241.616667
 30
0.0
 40
11.016667
100
AcDbArc
 50
243.008533
 51
296.991467
  0
CIRCLE
  5
24D
100
AcDbEntity
  8
LAY-4
  6
CONTINUOUS
 62
     3
100
AcDbCircle
 10
197.7
 20
356.5
 30
0.0
 40
5.5
  0
ARC
  5
24E
100
AcDbEntity
  8
LAY-4
  6
CONTINUOUS
 62
     3
100
AcDbCircle
 10
197.7
 20
356.5
 30
0.0
 40
17.0
100
AcDbArc
 50
33.16547
 51
146.834529
  0
LINE
  5
24F
100
AcDbEntity
  8
LAY-4
  6
CONTINUOUS
 62
     3
100
AcDbLine
 10
168.994091
 20
398.456448
 30
0.0
 11
188.497324
 21
352.587105
 31
0.0
  0
LINE
  5
250
100
AcDbEntity
  8
LAY-4
  6
CONTINUOUS
 62
     3
100
AcDbLine
 10
226.405909
 20
398.456448
 30
0.0
 11
206.902676
 21
352.587105
 31
0.0
  0
ARC
  5
251
100
AcDbEntity
  8
LAY-4
  6
CONTINUOUS
 62
     3
100
AcDbCircle
 10
197.7
 20
356.5
 30
0.0
 40
10.0
100
AcDbArc
 50
203.034761
 51
336.965239
  0
ARC
  5
252
100
AcDbEntity
  8
LAY-4
  6
CONTINUOUS
 62
     3
100
AcDbCircle
 10
164.392753
 20
396.5
 30
0.0
 40
5.0
100
AcDbArc
 50
23.034761
 51
90.0
  0
ARC
  5
253
100
AcDbEntity
  8
LAY-4
  6
CONTINUOUS
 62
     3
100
AcDbCircle
 10
231.007247
 20
396.5
 30
0.0
 40
5.0
100
AcDbArc
 50
90.0
 51
156.965239
  0
LINE
  5
254
100
AcDbEntity
  8
LAY-4
  6
CONTINUOUS
 62
     3
100
AcDbLine
 10
183.7
 20
219.9
 30
0.0
 11
183.7
 21
216.3
 31
0.0
  0
LINE
  5
255
100
AcDbEntity
  8
LAY-4
  6
CONTINUOUS
 62
     3
100
AcDbLine
 10
211.7
 20
219.9
 30
0.0
 11
211.7
 21
216.3
 31
0.0
  0
ARC
  5
256
100
AcDbEntity
  8
LAY-4
  6
CONTINUOUS
 62
     3
100
AcDbCircle
 10
177.12563
 20
230.8
 30
0.0
 40
1.0
100
AcDbArc
 50
11.599464
 51
90.0
  0
ARC
  5
257
100
AcDbEntity
  8
LAY-4
  6
CONTINUOUS
 62
     3
100
AcDbCircle
 10
218.27437
 20
230.8
 30
0.0
 40
1.0
100
AcDbArc
 50
90.0
 51
168.400536
  0
ARC
  5
258
100
AcDbEntity
  8
LAY-4
  6
CONTINUOUS
 62
     3
100
AcDbCircle
 10
219.997481
 20
231.4
 30
0.0
 40
4.0
100
AcDbArc
 50
90.0
 51
160.572543
  0
LINE
  5
259
100
AcDbEntity
  8
LAY-4
  6
CONTINUOUS
 62
     3
100
AcDbLine
 10
190.7
 20
210.8
 30
0.0
 11
204.7
 21
210.8
 31
0.0
  0
LINE
  5
25A
100
AcDbEntity
  8
LAY-4
  6
CONTINUOUS
 62
     3
100
AcDbLine
 10
192.68
 20
210.8
 30
0.0
 11
192.68
 21
210.194386
 31
0.0
  0
LINE
  5
25B
100
AcDbEntity
  8
LAY-4
  6
CONTINUOUS
 62
     3
100
AcDbLine
 10
202.72
 20
210.8
 30
0.0
 11
202.72
 21
210.406619
 31
0.0
  0
LINE
  5
25C
100
AcDbEntity
  8
LAY-4
  6
CONTINUOUS
 62
     3
100
AcDbLine
 10
192.68
 20
205.693381
 30
0.0
 11
192.68
 21
205.3
 31
0.0
  0
LINE
  5
25D
100
AcDbEntity
  8
LAY-4
  6
CONTINUOUS
 62
     3
100
AcDbLine
 10
202.72
 20
205.905614
 30
0.0
 11
202.72
 21
205.3
 31
0.0
  0
LINE
  5
25E
100
AcDbEntity
  8
LAY-4
  6
CONTINUOUS
 62
     3
100
AcDbLine
 10
632.6
 20
231.8
 30
0.0
 11
632.6
 21
235.4
 31
0.0
  0
LINE
  5
25F
100
AcDbEntity
  8
LAY-4
  6
DASHED2
 62
     3
100
AcDbLine
 10
652.1
 20
244.1
 30
0.0
 11
647.1
 21
244.1
 31
0.0
  0
LINE
  5
260
100
AcDbEntity
  8
LAY-4
  6
DASHED2
 62
     3
100
AcDbLine
 10
652.1
 20
234.6
 30
0.0
 11
652.1
 21
240.2
 31
0.0
  0
LINE
  5
261
100
AcDbEntity
  8
LAY-4
  6
DASHED2
 62
     3
100
AcDbLine
 10
652.1
 20
240.2
 30
0.0
 11
652.1
 21
244.1
 31
0.0
  0
LINE
  5
262
100
AcDbEntity
  8
LAY-4
  6
DASHED2
 62
     1
100
AcDbLine
 10
651.6
 20
234.6
 30
0.0
 11
651.6
 21
240.2
 31
0.0
  0
LINE
  5
263
100
AcDbEntity
  8
LAY-4
  6
DASHED2
 62
     1
100
AcDbLine
 10
651.6
 20
240.2
 30
0.0
 11
651.6
 21
244.1
 31
0.0
  0
LINE
  5
264
100
AcDbEntity
  8
LAY-4
  6
DASHED2
 62
     1
100
AcDbLine
 10
647.6
 20
234.6
 30
0.0
 11
647.6
 21
240.2
 31
0.0
  0
LINE
  5
265
100
AcDbEntity
  8
LAY-4
  6
DASHED2
 62
     1
100
AcDbLine
 10
647.6
 20
240.2
 30
0.0
 11
647.6
 21
244.1
 31
0.0
  0
LINE
  5
266
100
AcDbEntity
  8
LAY-4
  6
DASHED2
 62
     3
100
AcDbLine
 10
647.1
 20
234.6
 30
0.0
 11
647.1
 21
240.2
 31
0.0
  0
LINE
  5
267
100
AcDbEntity
  8
LAY-4
  6
DASHED2
 62
     3
100
AcDbLine
 10
647.1
 20
240.2
 30
0.0
 11
647.1
 21
244.1
 31
0.0
  0
LINE
  5
268
100
AcDbEntity
  8
LAY-4
  6
DASHED2
 62
     3
100
AcDbLine
 10
157.2
 20
244.1
 30
0.0
 11
162.2
 21
244.1
 31
0.0
  0
LINE
  5
269
100
AcDbEntity
  8
LAY-4
  6
DASHED2
 62
     3
100
AcDbLine
 10
233.2
 20
244.1
 30
0.0
 11
238.2
 21
244.1
 31
0.0
  0
ARC
  5
26A
100
AcDbEntity
  8
LAY-4
  6
CONTINUOUS
 62
     3
100
AcDbCircle
 10
247.7
 20
413.499992
 30
0.0
 40
9.0
100
AcDbArc
 50
140.560853
 51
141.057559
  0
ARC
  5
26B
100
AcDbEntity
  8
LAY-4
  6
CONTINUOUS
 62
     3
100
AcDbCircle
 10
197.7
 20
356.5
 30
0.0
 40
32.0
100
AcDbArc
 50
48.755282
 51
131.244718
  0
LINE
  5
26C
100
AcDbEntity
  8
LAY-4
  6
CONTINUOUS
 62
     3
100
AcDbLine
 10
183.7
 20
219.9
 30
0.0
 11
179.174772
 21
232.730452
 31
0.0
  0
LINE
  5
26D
100
AcDbEntity
  8
LAY-4
  6
CONTINUOUS
 62
     3
100
AcDbLine
 10
183.7
 20
216.3
 30
0.0
 11
178.060526
 21
231.154921
 31
0.0
  0
LINE
  5
26E
100
AcDbEntity
  8
LAY-4
  6
CONTINUOUS
 62
     3
100
AcDbLine
 10
211.7
 20
219.9
 30
0.0
 11
216.225228
 21
232.730452
 31
0.0
  0
LINE
  5
26F
100
AcDbEntity
  8
LAY-4
  6
CONTINUOUS
 62
     3
100
AcDbLine
 10
211.7
 20
216.3
 30
0.0
 11
217.339474
 21
231.154921
 31
0.0
  0
LINE
  5
270
100
AcDbEntity
  8
LAY-4
  6
DASHED2
 62
     3
100
AcDbLine
 10
644.6
 20
231.8
 30
0.0
 11
644.6
 21
232.1
 31
0.0
  0
LINE
  5
271
100
AcDbEntity
  8
LAY-4
  6
DASHED2
 62
     3
100
AcDbLine
 10
644.6
 20
232.1
 30
0.0
 11
642.1
 21
234.6
 31
0.0
  0
LINE
  5
272
100
AcDbEntity
  8
LAY-4
  6
DASHED2
 62
     3
100
AcDbLine
 10
634.6
 20
231.8
 30
0.0
 11
634.6
 21
232.1
 31
0.0
  0
LINE
  5
273
100
AcDbEntity
  8
LAY-4
  6
DASHED2
 62
     3
100
AcDbLine
 10
634.6
 20
232.1
 30
0.0
 11
637.1
 21
234.6
 31
0.0
  0
LINE
  5
274
100
AcDbEntity
  8
LAY-4
  6
CONTINUOUS
 62
     3
100
AcDbLine
 10
644.6
 20
231.8
 30
0.0
 11
634.6
 21
231.8
 31
0.0
  0
LINE
  5
275
100
AcDbEntity
  8
LAY-4
  6
DASHED2
 62
     3
100
AcDbLine
 10
644.6
 20
232.1
 30
0.0
 11
634.6
 21
232.1
 31
0.0
  0
ARC
  5
276
100
AcDbEntity
  8
LAY-4
  6
CONTINUOUS
 62
     3
100
AcDbCircle
 10
639.6
 20
241.616667
 30
0.0
 40
11.016667
100
AcDbArc
 50
243.008533
 51
296.991467
  0
LINE
  5
277
100
AcDbEntity
  8
LAY-4
  6
DASHED2
 62
     3
100
AcDbLine
 10
642.1
 20
244.1
 30
0.0
 11
637.1
 21
244.1
 31
0.0
  0
LINE
  5
278
100
AcDbEntity
  8
LAY-4
  6
DASHED2
 62
     3
100
AcDbLine
 10
642.1
 20
240.2
 30
0.0
 11
642.1
 21
244.1
 31
0.0
  0
LINE
  5
279
100
AcDbEntity
  8
LAY-4
  6
DASHED2
 62
     1
100
AcDbLine
 10
641.6
 20
240.2
 30
0.0
 11
641.6
 21
244.1
 31
0.0
  0
LINE
  5
27A
100
AcDbEntity
  8
LAY-4
  6
DASHED2
 62
     1
100
AcDbLine
 10
637.6
 20
240.2
 30
0.0
 11
637.6
 21
244.1
 31
0.0
  0
LINE
  5
27B
100
AcDbEntity
  8
LAY-4
  6
DASHED2
 62
     3
100
AcDbLine
 10
637.1
 20
240.2
 30
0.0
 11
637.1
 21
244.1
 31
0.0
  0
LINE
  5
27C
100
AcDbEntity
  8
LAY-4
  6
DASHED2
 62
     3
100
AcDbLine
 10
642.1
 20
234.6
 30
0.0
 11
637.1
 21
234.6
 31
0.0
  0
LINE
  5
27D
100
AcDbEntity
  8
LAY-4
  6
DASHED2
 62
     3
100
AcDbLine
 10
642.1
 20
234.6
 30
0.0
 11
642.1
 21
240.2
 31
0.0
  0
LINE
  5
27E
100
AcDbEntity
  8
LAY-4
  6
DASHED2
 62
     1
100
AcDbLine
 10
641.6
 20
234.6
 30
0.0
 11
641.6
 21
240.2
 31
0.0
  0
LINE
  5
27F
100
AcDbEntity
  8
LAY-4
  6
DASHED2
 62
     1
100
AcDbLine
 10
637.6
 20
234.6
 30
0.0
 11
637.6
 21
240.2
 31
0.0
  0
LINE
  5
280
100
AcDbEntity
  8
LAY-4
  6
DASHED2
 62
     3
100
AcDbLine
 10
637.1
 20
234.6
 30
0.0
 11
637.1
 21
240.2
 31
0.0
  0
LINE
  5
281
100
AcDbEntity
  8
LAY-4
  6
CONTINUOUS
 62
     3
100
AcDbLine
 10
577.6
 20
219.9
 30
0.0
 11
589.644598
 21
219.9
 31
0.0
  0
LINE
  5
282
100
AcDbEntity
  8
LAY-4
  6
CONTINUOUS
 62
     3
100
AcDbLine
 10
577.6
 20
216.3
 30
0.0
 11
589.024055
 21
216.3
 31
0.0
  0
LINE
  5
283
100
AcDbEntity
  8
LAY-4
  6
CONTINUOUS
 62
     3
100
AcDbLine
 10
582.6
 20
220.9
 30
0.0
 11
592.301755
 21
220.9
 31
0.0
  0
ARC
  5
284
100
AcDbEntity
  8
LAY-4
  6
CONTINUOUS
 62
     3
100
AcDbCircle
 10
582.6
 20
219.9
 30
0.0
 40
1.0
100
AcDbArc
 50
90.0
 51
180.0
  0
LINE
  5
285
100
AcDbEntity
  8
LAY-4
  6
CONTINUOUS
 62
     3
100
AcDbLine
 10
580.6
 20
216.3
 30
0.0
 11
580.6
 21
212.148276
 31
0.0
  0
LINE
  5
286
100
AcDbEntity
  8
LAY-4
  6
CONTINUOUS
 62
     3
100
AcDbLine
 10
580.1
 20
205.3
 30
0.0
 11
580.1
 21
203.7
 31
0.0
  0
LINE
  5
287
100
AcDbEntity
  8
LAY-4
  6
CONTINUOUS
 62
     3
100
AcDbLine
 10
580.1
 20
205.3
 30
0.0
 11
586.788165
 21
205.3
 31
0.0
  0
LINE
  5
288
100
AcDbEntity
  8
LAY-4
  6
CONTINUOUS
 62
     3
100
AcDbLine
 10
581.7
 20
203.7
 30
0.0
 11
581.7
 21
202.7
 31
0.0
  0
LINE
  5
289
100
AcDbEntity
  8
LAY-4
  6
CONTINUOUS
 62
     3
100
AcDbLine
 10
581.7
 20
202.7
 30
0.0
 11
586.224055
 21
202.7
 31
0.0
  0
ARC
  5
28A
100
AcDbEntity
  8
LAY-4
  6
CONTINUOUS
 62
     3
100
AcDbCircle
 10
587.6
 20
209.938095
 30
0.0
 40
9.338095
100
AcDbArc
 50
230.815436
 51
280.025922
  0
LINE
  5
28B
100
AcDbEntity
  8
LAY-4
  6
CONTINUOUS
 62
     3
100
AcDbLine
 10
582.58
 20
205.59973
 30
0.0
 11
582.58
 21
205.3
 31
0.0
  0
LINE
  5
28C
100
AcDbEntity
  8
LAY-4
  6
CONTINUOUS
 62
     3
100
AcDbLine
 10
586.224055
 20
203.7
 30
0.0
 11
580.1
 21
203.7
 31
0.0
  0
LINE
  5
28D
100
AcDbEntity
  8
LAY-4
  6
CONTINUOUS
 62
     3
100
AcDbLine
 10
610.780086
 20
234.509043
 30
0.0
 11
597.081979
 21
220.651916
 31
0.0
  0
LINE
  5
28E
100
AcDbEntity
  8
LAY-4
  6
CONTINUOUS
 62
     3
100
AcDbLine
 10
612.320498
 20
231.8
 30
0.0
 11
599.867122
 21
219.202054
 31
0.0
  0
LINE
  5
28F
100
AcDbEntity
  8
LAY-4
  6
CONTINUOUS
 62
     3
100
AcDbLine
 10
621.125854
 20
231.8
 30
0.0
 11
607.010115
 21
217.213736
 31
0.0
  0
ARC
  5
290
100
AcDbEntity
  8
LAY-4
  6
CONTINUOUS
 62
     3
100
AcDbCircle
 10
612.913612
 20
232.4
 30
0.0
 40
3.0
100
AcDbArc
 50
90.0
 51
135.330649
  0
LINE
  5
291
100
AcDbEntity
  8
LAY-4
  6
CONTINUOUS
 62
     3
100
AcDbLine
 10
604.854308
 20
216.3
 30
0.0
 11
599.424055
 21
216.3
 31
0.0
  0
ARC
  5
292
100
AcDbEntity
  8
LAY-4
  6
CONTINUOUS
 62
     3
100
AcDbCircle
 10
604.854308
 20
219.3
 30
0.0
 40
3.0
100
AcDbArc
 50
270.0
 51
315.939191
  0
LINE
  5
293
100
AcDbEntity
  8
LAY-4
  6
CONTINUOUS
 62
     3
100
AcDbLine
 10
577.6
 20
219.9
 30
0.0
 11
577.6
 21
216.3
 31
0.0
  0
CIRCLE
  5
294
100
AcDbEntity
  8
LAY-4
  6
CONTINUOUS
 62
     3
100
AcDbCircle
 10
217.7
 20
408.5
 30
0.0
 40
2.4
  0
CIRCLE
  5
295
100
AcDbEntity
  8
LAY-4
  6
DASHED2
 62
     3
100
AcDbCircle
 10
217.7
 20
408.5
 30
0.0
 40
5.1
  0
LINE
  5
296
100
AcDbEntity
  8
LAY-4
  6
DASHED2
 62
     3
100
AcDbLine
 10
177.12563
 20
231.8
 30
0.0
 11
218.27437
 21
231.8
 31
0.0
  0
LINE
  5
297
100
AcDbEntity
  8
LAY-4
  6
DASHED2
 62
     3
100
AcDbLine
 10
172.7
 20
231.8
 30
0.0
 11
172.7
 21
232.1
 31
0.0
  0
LINE
  5
298
100
AcDbEntity
  8
LAY-4
  6
DASHED2
 62
     3
100
AcDbLine
 10
175.2
 20
234.6
 30
0.0
 11
180.2
 21
234.6
 31
0.0
  0
LINE
  5
299
100
AcDbEntity
  8
LAY-4
  6
DASHED2
 62
     3
100
AcDbLine
 10
172.7
 20
232.1
 30
0.0
 11
175.2
 21
234.6
 31
0.0
  0
LINE
  5
29A
100
AcDbEntity
  8
LAY-4
  6
DASHED2
 62
     3
100
AcDbLine
 10
175.2
 20
234.6
 30
0.0
 11
175.2
 21
244.1
 31
0.0
  0
LINE
  5
29B
100
AcDbEntity
  8
LAY-4
  6
DASHED2
 62
     1
100
AcDbLine
 10
175.7
 20
234.6
 30
0.0
 11
175.7
 21
244.1
 31
0.0
  0
LINE
  5
29C
100
AcDbEntity
  8
LAY-4
  6
DASHED2
 62
     3
100
AcDbLine
 10
182.7
 20
231.8
 30
0.0
 11
182.7
 21
232.1
 31
0.0
  0
LINE
  5
29D
100
AcDbEntity
  8
LAY-4
  6
DASHED2
 62
     3
100
AcDbLine
 10
182.7
 20
232.1
 30
0.0
 11
180.2
 21
234.6
 31
0.0
  0
LINE
  5
29E
100
AcDbEntity
  8
LAY-4
  6
DASHED2
 62
     3
100
AcDbLine
 10
180.2
 20
234.6
 30
0.0
 11
180.2
 21
244.1
 31
0.0
  0
LINE
  5
29F
100
AcDbEntity
  8
LAY-4
  6
DASHED2
 62
     1
100
AcDbLine
 10
179.7
 20
234.6
 30
0.0
 11
179.7
 21
244.1
 31
0.0
  0
LINE
  5
2A0
100
AcDbEntity
  8
LAY-4
  6
CONTINUOUS
 62
     3
100
AcDbLine
 10
172.7
 20
231.8
 30
0.0
 11
182.7
 21
231.8
 31
0.0
  0
LINE
  5
2A1
100
AcDbEntity
  8
LAY-4
  6
DASHED2
 62
     3
100
AcDbLine
 10
172.7
 20
232.1
 30
0.0
 11
182.7
 21
232.1
 31
0.0
  0
ARC
  5
2A2
100
AcDbEntity
  8
LAY-4
  6
CONTINUOUS
 62
     3
100
AcDbCircle
 10
177.7
 20
241.616667
 30
0.0
 40
11.016667
100
AcDbArc
 50
243.008533
 51
272.943284
  0
LINE
  5
2A3
100
AcDbEntity
  8
LAY-4
  6
DASHED2
 62
     3
100
AcDbLine
 10
175.2
 20
244.1
 30
0.0
 11
180.2
 21
244.1
 31
0.0
  0
LINE
  5
2A4
100
AcDbEntity
  8
LAY-4
  6
DASHED2
 62
     3
100
AcDbLine
 10
212.7
 20
231.8
 30
0.0
 11
212.7
 21
232.1
 31
0.0
  0
LINE
  5
2A5
100
AcDbEntity
  8
LAY-4
  6
DASHED2
 62
     3
100
AcDbLine
 10
215.2
 20
234.6
 30
0.0
 11
220.2
 21
234.6
 31
0.0
  0
LINE
  5
2A6
100
AcDbEntity
  8
LAY-4
  6
DASHED2
 62
     3
100
AcDbLine
 10
212.7
 20
232.1
 30
0.0
 11
215.2
 21
234.6
 31
0.0
  0
LINE
  5
2A7
100
AcDbEntity
  8
LAY-4
  6
DASHED2
 62
     3
100
AcDbLine
 10
215.2
 20
234.6
 30
0.0
 11
215.2
 21
244.1
 31
0.0
  0
LINE
  5
2A8
100
AcDbEntity
  8
LAY-4
  6
DASHED2
 62
     1
100
AcDbLine
 10
215.7
 20
234.6
 30
0.0
 11
215.7
 21
244.1
 31
0.0
  0
LINE
  5
2A9
100
AcDbEntity
  8
LAY-4
  6
DASHED2
 62
     3
100
AcDbLine
 10
222.7
 20
231.8
 30
0.0
 11
222.7
 21
232.1
 31
0.0
  0
LINE
  5
2AA
100
AcDbEntity
  8
LAY-4
  6
DASHED2
 62
     3
100
AcDbLine
 10
222.7
 20
232.1
 30
0.0
 11
220.2
 21
234.6
 31
0.0
  0
LINE
  5
2AB
100
AcDbEntity
  8
LAY-4
  6
DASHED2
 62
     3
100
AcDbLine
 10
220.2
 20
234.6
 30
0.0
 11
220.2
 21
244.1
 31
0.0
  0
LINE
  5
2AC
100
AcDbEntity
  8
LAY-4
  6
DASHED2
 62
     1
100
AcDbLine
 10
219.7
 20
234.6
 30
0.0
 11
219.7
 21
244.1
 31
0.0
  0
LINE
  5
2AD
100
AcDbEntity
  8
LAY-4
  6
CONTINUOUS
 62
     3
100
AcDbLine
 10
212.7
 20
231.8
 30
0.0
 11
222.7
 21
231.8
 31
0.0
  0
LINE
  5
2AE
100
AcDbEntity
  8
LAY-4
  6
DASHED2
 62
     3
100
AcDbLine
 10
212.7
 20
232.1
 30
0.0
 11
222.7
 21
232.1
 31
0.0
  0
LINE
  5
2AF
100
AcDbEntity
  8
LAY-4
  6
DASHED2
 62
     3
100
AcDbLine
 10
215.2
 20
244.1
 30
0.0
 11
220.2
 21
244.1
 31
0.0
  0
ARC
  5
2B0
100
AcDbEntity
  8
LAY-4
  6
DASHED2
 62
     3
100
AcDbCircle
 10
177.7
 20
241.616667
 30
0.0
 40
11.016667
100
AcDbArc
 50
272.943284
 51
296.991467
  0
ARC
  5
2B1
100
AcDbEntity
  8
LAY-4
  6
DASHED2
 62
     3
100
AcDbCircle
 10
217.7
 20
241.616667
 30
0.0
 40
11.016667
100
AcDbArc
 50
243.008533
 51
267.056716
  0
ARC
  5
2B2
100
AcDbEntity
  8
LAY-4
  6
CONTINUOUS
 62
     3
100
AcDbCircle
 10
217.7
 20
241.616667
 30
0.0
 40
11.016667
100
AcDbArc
 50
267.056716
 51
296.991467
  0
ARC
  5
2B3
100
AcDbEntity
  8
LAY-5
  6
CONTINUOUS
 62
     3
100
AcDbCircle
 10
247.7
 20
413.499992
 30
0.0
 40
9.0
100
AcDbArc
 50
140.560853
 51
141.057559
  0
ARC
  5
2B4
100
AcDbEntity
  8
LAY-5
  6
CONTINUOUS
 62
     3
100
AcDbCircle
 10
247.7
 20
413.499992
 30
0.0
 40
9.0
100
AcDbArc
 50
140.560853
 51
141.057559
  0
LINE
  5
2B5
100
AcDbEntity
  8
LAY-5
  6
DASHDOT
 62
     1
100
AcDbLine
 10
227.05
 20
418.5
 30
0.0
 11
243.19
 21
418.5
 31
0.0
  0
LINE
  5
2B6
100
AcDbEntity
  8
LAY-5
  6
DASHDOT
 62
     1
100
AcDbLine
 10
150.39
 20
418.5
 30
0.0
 11
167.99
 21
418.5
 31
0.0
  0
LINE
  5
2B7
100
AcDbEntity
  8
LAY-5
  6
DASHDOT
 62
     1
100
AcDbLine
 10
242.7
 20
409.999992
 30
0.0
 11
264.678241
 21
409.999992
 31
0.0
  0
LINE
  5
2B8
100
AcDbEntity
  8
LAY-5
  6
DASHDOT
 62
     1
100
AcDbLine
 10
169.8
 20
408.5
 30
0.0
 11
185.77
 21
408.5
 31
0.0
  0
LINE
  5
2B9
100
AcDbEntity
  8
LAY-5
  6
DASHDOT
 62
     1
100
AcDbLine
 10
176.4
 20
356.5
 30
0.0
 11
215.3
 21
356.5
 31
0.0
  0
LINE
  5
2BA
100
AcDbEntity
  8
LAY-5
  6
DASHDOT
 62
     1
100
AcDbLine
 10
247.7
 20
384.0
 30
0.0
 11
247.7
 21
435.6
 31
0.0
  0
LINE
  5
2BB
100
AcDbEntity
  8
LAY-5
  6
DASHDOT
 62
     1
100
AcDbLine
 10
347.7
 20
389.5
 30
0.0
 11
347.7
 21
447.5
 31
0.0
  0
LINE
  5
2BC
100
AcDbEntity
  8
LAY-5
  6
DASHDOT
 62
     1
100
AcDbLine
 10
179.1
 20
177.4
 30
0.0
 11
191.7
 21
177.4
 31
0.0
  0
LINE
  5
2BD
100
AcDbEntity
  8
LAY-5
  6
DASHDOT
 62
     1
100
AcDbLine
 10
211.7
 20
193.8
 30
0.0
 11
211.7
 21
176.3
 31
0.0
  0
LINE
  5
2BE
100
AcDbEntity
  8
LAY-5
  6
DASHDOT
 62
     1
100
AcDbLine
 10
203.1
 20
185.4
 30
0.0
 11
220.1
 21
185.4
 31
0.0
  0
LINE
  5
2BF
100
AcDbEntity
  8
LAY-5
  6
DASHDOT
 62
     1
100
AcDbLine
 10
347.7
 20
194.5
 30
0.0
 11
347.7
 21
176.8
 31
0.0
  0
LINE
  5
2C0
100
AcDbEntity
  8
LAY-5
  6
DASHDOT
 62
     1
100
AcDbLine
 10
339.2
 20
185.4
 30
0.0
 11
356.8
 21
185.4
 31
0.0
  0
LINE
  5
2C1
100
AcDbEntity
  8
LAY-5
  6
DASHDOT
 62
     1
100
AcDbLine
 10
235.7
 20
248.4
 30
0.0
 11
235.7
 21
227.8
 31
0.0
  0
LINE
  5
2C2
100
AcDbEntity
  8
LAY-5
  6
DASHDOT
 62
     1
100
AcDbLine
 10
159.7
 20
248.4
 30
0.0
 11
159.7
 21
227.8
 31
0.0
  0
LINE
  5
2C3
100
AcDbEntity
  8
LAY-5
  6
DASHDOT
 62
     1
100
AcDbLine
 10
179.3
 20
160.4
 30
0.0
 11
373.6
 21
160.4
 31
0.0
  0
LINE
  5
2C4
100
AcDbEntity
  8
LAY-5
  6
DASHDOT
 62
     1
100
AcDbLine
 10
653.1
 20
182.62757
 30
0.0
 11
653.1
 21
172.487219
 31
0.0
  0
LINE
  5
2C5
100
AcDbEntity
  8
LAY-5
  6
DASHDOT
 62
     1
100
AcDbLine
 10
629.1
 20
182.381964
 30
0.0
 11
629.1
 21
172.592505
 31
0.0
  0
LINE
  5
2C6
100
AcDbEntity
  8
LAY-5
  6
DASHDOT
 62
     1
100
AcDbLine
 10
641.1
 20
127.0
 30
0.0
 11
641.1
 21
215.7
 31
0.0
  0
LINE
  5
2C7
100
AcDbEntity
  8
LAY-5
  6
DASHDOT
 62
     1
100
AcDbLine
 10
633.966608
 20
177.4
 30
0.0
 11
623.931528
 21
177.4
 31
0.0
  0
LINE
  5
2C8
100
AcDbEntity
  8
LAY-5
  6
DASHDOT
 62
     1
100
AcDbLine
 10
657.826235
 20
177.4
 30
0.0
 11
648.14203
 21
177.4
 31
0.0
  0
LINE
  5
2C9
100
AcDbEntity
  8
LAY-5
  6
DASHDOT
 62
     1
100
AcDbLine
 10
649.6
 20
227.4
 30
0.0
 11
649.6
 21
247.1
 31
0.0
  0
LINE
  5
2CA
100
AcDbEntity
  8
LAY-5
  6
DASHDOT
 62
     1
100
AcDbLine
 10
620.7
 20
185.4
 30
0.0
 11
679.2
 21
185.4
 31
0.0
  0
LINE
  5
2CB
100
AcDbEntity
  8
LAY-5
  6
DASHDOT
 62
     1
100
AcDbLine
 10
107.7
 20
494.1
 30
0.0
 11
107.7
 21
412.3
 31
0.0
  0
LINE
  5
2CC
100
AcDbEntity
  8
LAY-5
  6
DASHDOT
 62
     1
100
AcDbLine
 10
95.8
 20
483.5
 30
0.0
 11
119.8
 21
483.5
 31
0.0
  0
LINE
  5
2CD
100
AcDbEntity
  8
LAY-5
  6
DASHDOT
 62
     1
100
AcDbLine
 10
462.617198
 20
222.92
 30
0.0
 11
462.617198
 21
198.3
 31
0.0
  0
LINE
  5
2CE
100
AcDbEntity
  8
LAY-5
  6
DASHDOT
 62
     1
100
AcDbLine
 10
594.224055
 20
225.8
 30
0.0
 11
594.224055
 21
196.3
 31
0.0
  0
LINE
  5
2CF
100
AcDbEntity
  8
LAY-5
  6
DASHDOT
 62
     1
100
AcDbLine
 10
618.999994
 20
160.4
 30
0.0
 11
663.3
 21
160.4
 31
0.0
  0
LINE
  5
2D0
100
AcDbEntity
  8
LAY-5
  6
DASHDOT
 62
     1
100
AcDbLine
 10
107.7
 20
288.3
 30
0.0
 11
107.7
 21
145.0
 31
0.0
  0
LINE
  5
2D1
100
AcDbEntity
  8
LAY-5
  6
DASHDOT
 62
     1
100
AcDbLine
 10
211.700031
 20
445.3
 30
0.0
 11
211.700031
 21
426.5
 31
0.0
  0
LINE
  5
2D2
100
AcDbEntity
  8
LAY-5
  6
DASHDOT
 62
     1
100
AcDbLine
 10
475.860432
 20
360.235552
 30
0.0
 11
242.7
 21
411.09055
 31
0.0
  0
LINE
  5
2D3
100
AcDbEntity
  8
LAY-5
  6
DASHDOT
 62
     1
100
AcDbLine
 10
476.4
 20
363.468684
 30
0.0
 11
181.167829
 21
356.086625
 31
0.0
  0
LINE
  5
2D4
100
AcDbEntity
  8
LAY-5
  6
DASHDOT
 62
     1
100
AcDbLine
 10
459.645634
 20
349.5
 30
0.0
 11
465.66631
 21
377.103649
 31
0.0
  0
LINE
  5
2D5
100
AcDbEntity
  8
LAY-5
  6
DASHDOT
 62
     1
100
AcDbLine
 10
197.7
 20
243.0
 30
0.0
 11
197.7
 21
196.42
 31
0.0
  0
LINE
  5
2D6
100
AcDbEntity
  8
LAY-5
  6
DASHDOT
 62
     1
100
AcDbLine
 10
454.12
 20
213.65
 30
0.0
 11
470.94
 21
213.65
 31
0.0
  0
LINE
  5
2D7
100
AcDbEntity
  8
LAY-5
  6
DASHDOT
 62
     1
100
AcDbLine
 10
197.7
 20
208.05
 30
0.0
 11
474.20323
 21
213.894913
 31
0.0
  0
LINE
  5
2D8
100
AcDbEntity
  8
LAY-5
  6
DASHDOT
 62
     1
100
AcDbLine
 10
187.08
 20
208.05
 30
0.0
 11
207.9
 21
208.05
 31
0.0
  0
LINE
  5
2D9
100
AcDbEntity
  8
LAY-5
  6
DASHDOT
 62
     1
100
AcDbLine
 10
247.7
 20
213.8
 30
0.0
 11
247.7
 21
126.7
 31
0.0
  0
LINE
  5
2DA
100
AcDbEntity
  8
LAY-5
  6
DASHDOT
 62
     1
100
AcDbLine
 10
639.6
 20
227.4
 30
0.0
 11
639.6
 21
247.1
 31
0.0
  0
LINE
  5
2DB
100
AcDbEntity
  8
LAY-5
  6
DASHDOT
 62
     1
100
AcDbLine
 10
587.6
 20
230.4
 30
0.0
 11
587.6
 21
199.2
 31
0.0
  0
LINE
  5
2DC
100
AcDbEntity
  8
LAY-5
  6
DASHDOT
 62
     1
100
AcDbLine
 10
159.7
 20
427.54
 30
0.0
 11
159.7
 21
409.79
 31
0.0
  0
LINE
  5
2DD
100
AcDbEntity
  8
LAY-5
  6
DASHDOT
 62
     1
100
AcDbLine
 10
177.7
 20
416.8
 30
0.0
 11
177.7
 21
399.7
 31
0.0
  0
LINE
  5
2DE
100
AcDbEntity
  8
LAY-5
  6
DASHDOT
 62
     1
100
AcDbLine
 10
197.7
 20
435.6
 30
0.0
 11
197.7
 21
343.4
 31
0.0
  0
LINE
  5
2DF
100
AcDbEntity
  8
LAY-5
  6
DASHDOT
 62
     1
100
AcDbLine
 10
235.7
 20
427.93
 30
0.0
 11
235.7
 21
410.29
 31
0.0
  0
LINE
  5
2E0
100
AcDbEntity
  8
LAY-5
  6
DASHDOT
 62
     1
100
AcDbLine
 10
217.7
 20
416.8
 30
0.0
 11
217.7
 21
399.7
 31
0.0
  0
LINE
  5
2E1
100
AcDbEntity
  8
LAY-5
  6
DASHDOT
 62
     1
100
AcDbLine
 10
209.8
 20
408.5
 30
0.0
 11
225.77
 21
408.5
 31
0.0
  0
LINE
  5
2E2
100
AcDbEntity
  8
LAY-5
  6
DASHDOT
 62
     1
100
AcDbLine
 10
244.728435
 20
396.375937
 30
0.0
 11
250.749112
 21
423.979586
 31
0.0
  0
LINE
  5
2E3
100
AcDbEntity
  8
LAY-5
  6
DASHDOT
 62
     1
100
AcDbLine
 10
198.168662
 20
337.756709
 30
0.0
 11
197.383048
 21
369.175945
 31
0.0
  0
LINE
  5
2E4
100
AcDbEntity
  8
LAY-5
  6
DASHDOT
 62
     1
100
AcDbLine
 10
463.08586
 20
344.380764
 30
0.0
 11
462.300246
 21
375.8
 31
0.0
  0
LINE
  5
2E5
100
AcDbEntity
  8
LAY-5
  6
DASHDOT
 62
     1
100
AcDbLine
 10
177.7
 20
248.4
 30
0.0
 11
177.7
 21
227.8
 31
0.0
  0
LINE
  5
2E6
100
AcDbEntity
  8
LAY-5
  6
DASHDOT
 62
     1
100
AcDbLine
 10
217.7
 20
248.4
 30
0.0
 11
217.7
 21
227.8
 31
0.0
  0
LINE
  5
2E7
100
AcDbEntity
  8
LAY-6
  6
CONTINUOUS
 62
     1
100
AcDbLine
 10
622.6
 20
135.4
 30
0.0
 11
622.6
 21
115.3
 31
0.0
  0
TEXT
  5
2E8
100
AcDbEntity
  8
LAY-6
  6
CONTINUOUS
 62
     2
100
AcDbText
 10
637.1
 20
116.8
 30
0.0
 40
5.0
  1
３７
 41
0.672
  7
EXCADSTD
 72
     5
 11
644.4328
 21
116.8
 31
0.0
100
AcDbText
  0
LINE
  5
2E9
100
AcDbEntity
  8
LAY-6
  6
CONTINUOUS
 62
     1
100
AcDbLine
 10
622.6
 20
116.3
 30
0.0
 11
659.6
 21
116.3
 31
0.0
  0
LINE
  5
2EA
100
AcDbEntity
  8
LAY-6
  6
CONTINUOUS
 62
     1
100
AcDbLine
 10
624.6
 20
116.633333
 30
0.0
 11
622.6
 21
116.3
 31
0.0
  0
LINE
  5
2EB
100
AcDbEntity
  8
LAY-6
  6
CONTINUOUS
 62
     1
100
AcDbLine
 10
622.6
 20
116.3
 30
0.0
 11
624.6
 21
115.966667
 31
0.0
  0
LINE
  5
2EC
100
AcDbEntity
  8
LAY-6
  6
CONTINUOUS
 62
     1
100
AcDbLine
 10
657.6
 20
115.966667
 30
0.0
 11
659.6
 21
116.3
 31
0.0
  0
LINE
  5
2ED
100
AcDbEntity
  8
LAY-6
  6
CONTINUOUS
 62
     1
100
AcDbLine
 10
659.6
 20
116.3
 30
0.0
 11
657.6
 21
116.633333
 31
0.0
  0
TEXT
  5
2EE
100
AcDbEntity
  8
LAY-6
  6
CONTINUOUS
 62
     2
100
AcDbText
 10
573.1
 20
150.3
 30
0.0
 40
5.0
  1
第一速度調整バルブ
 41
0.672
  7
EXCADSTD
 72
     5
 11
609.1
 21
150.3
 31
0.0
100
AcDbText
  0
TEXT
  5
2EF
100
AcDbEntity
  8
LAY-6
  6
CONTINUOUS
 62
     2
100
AcDbText
 10
667.8
 20
157.2
 30
0.0
 40
5.0
  1
第二速度調整バルブ
 41
0.672
  7
EXCADSTD
 72
     5
 11
703.8
 21
157.2
 31
0.0
100
AcDbText
  0
TEXT
  5
2F0
100
AcDbEntity
  8
LAY-6
  6
CONTINUOUS
 62
     2
100
AcDbText
 10
732.1
 20
169.0
 30
0.0
 40
5.0
  1
２－Ｍ６×５０皿小ネジ（Ｄ＝１０）
 41
0.672
  7
EXCADSTD
 72
     5
 11
800.1
 21
169.0
 31
0.0
100
AcDbText
  0
POLYLINE
  5
2F1
100
AcDbEntity
  8
LAY-6
  6
CONTINUOUS
 62
     1
100
AcDb2dPolyline
 66
     1
 10
0.0
 20
0.0
 30
0.0
 70
   128
  0
VERTEX
  5
2F2
100
AcDbEntity
  8
LAY-6
  6
CONTINUOUS
 62
     1
100
AcDbVertex
100
AcDb2dVertex
 10
674.6
 20
185.4
 30
0.0
  0
VERTEX
  5
2F3
100
AcDbEntity
  8
LAY-6
  6
CONTINUOUS
 62
     1
100
AcDbVertex
100
AcDb2dVertex
 10
706.1
 20
168.0
 30
0.0
  0
VERTEX
  5
2F4
100
AcDbEntity
  8
LAY-6
  6
CONTINUOUS
 62
     1
100
AcDbVertex
100
AcDb2dVertex
 10
804.0
 20
168.0
 30
0.0
  0
SEQEND
  5
2F5
100
AcDbEntity
  8
LAY-6
  6
CONTINUOUS
 62
     1
  0
LINE
  5
2F6
100
AcDbEntity
  8
LAY-6
  6
CONTINUOUS
 62
     1
100
AcDbLine
 10
676.511841
 20
184.724742
 30
0.0
 11
674.6
 21
185.4
 31
0.0
  0
LINE
  5
2F7
100
AcDbEntity
  8
LAY-6
  6
CONTINUOUS
 62
     1
100
AcDbLine
 10
674.6
 20
185.4
 30
0.0
 11
676.189496
 21
184.141186
 31
0.0
  0
TEXT
  5
2F8
100
AcDbEntity
  8
LAY-6
  6
CONTINUOUS
 62
     2
100
AcDbText
 10
683.0
 20
286.2
 30
0.0
 40
5.0
  1
４－Ｍ５×１２丸皿小ネジ（Ｐ＝０．８）
 41
0.672
  7
EXCADSTD
 72
     5
 11
759.0
 21
286.2
 31
0.0
100
AcDbText
  0
LINE
  5
2F9
100
AcDbEntity
  8
LAY-6
  6
CONTINUOUS
 62
     1
100
AcDbLine
 10
177.7
 20
249.3
 30
0.0
 11
177.7
 21
261.1
 31
0.0
  0
TEXT
  5
2FA
100
AcDbEntity
  8
LAY-6
  6
CONTINUOUS
 62
     2
100
AcDbText
 10
164.7
 20
260.6
 30
0.0
 40
5.0
  1
１８
 41
0.672
  7
EXCADSTD
 72
     5
 11
172.0328
 21
260.6
 31
0.0
100
AcDbText
  0
LINE
  5
2FB
100
AcDbEntity
  8
LAY-6
  6
CONTINUOUS
 62
     1
100
AcDbLine
 10
159.7
 20
260.1
 30
0.0
 11
177.7
 21
260.1
 31
0.0
  0
LINE
  5
2FC
100
AcDbEntity
  8
LAY-6
  6
CONTINUOUS
 62
     1
100
AcDbLine
 10
161.7
 20
260.433333
 30
0.0
 11
159.7
 21
260.1
 31
0.0
  0
LINE
  5
2FD
100
AcDbEntity
  8
LAY-6
  6
CONTINUOUS
 62
     1
100
AcDbLine
 10
159.7
 20
260.1
 30
0.0
 11
161.7
 21
259.766667
 31
0.0
  0
LINE
  5
2FE
100
AcDbEntity
  8
LAY-6
  6
CONTINUOUS
 62
     1
100
AcDbLine
 10
175.7
 20
259.766667
 30
0.0
 11
177.7
 21
260.1
 31
0.0
  0
LINE
  5
2FF
100
AcDbEntity
  8
LAY-6
  6
CONTINUOUS
 62
     1
100
AcDbLine
 10
177.7
 20
260.1
 30
0.0
 11
175.7
 21
260.433333
 31
0.0
  0
LINE
  5
300
100
AcDbEntity
  8
LAY-6
  6
CONTINUOUS
 62
     1
100
AcDbLine
 10
217.7
 20
249.3
 30
0.0
 11
217.7
 21
261.1
 31
0.0
  0
TEXT
  5
301
100
AcDbEntity
  8
LAY-6
  6
CONTINUOUS
 62
     2
100
AcDbText
 10
193.7
 20
260.6
 30
0.0
 40
5.0
  1
４０
 41
0.672
  7
EXCADSTD
 72
     5
 11
201.0328
 21
260.6
 31
0.0
100
AcDbText
  0
LINE
  5
302
100
AcDbEntity
  8
LAY-6
  6
CONTINUOUS
 62
     1
100
AcDbLine
 10
177.7
 20
260.1
 30
0.0
 11
217.7
 21
260.1
 31
0.0
  0
LINE
  5
303
100
AcDbEntity
  8
LAY-6
  6
CONTINUOUS
 62
     1
100
AcDbLine
 10
179.7
 20
260.433333
 30
0.0
 11
177.7
 21
260.1
 31
0.0
  0
LINE
  5
304
100
AcDbEntity
  8
LAY-6
  6
CONTINUOUS
 62
     1
100
AcDbLine
 10
177.7
 20
260.1
 30
0.0
 11
179.7
 21
259.766667
 31
0.0
  0
LINE
  5
305
100
AcDbEntity
  8
LAY-6
  6
CONTINUOUS
 62
     1
100
AcDbLine
 10
215.7
 20
259.766667
 30
0.0
 11
217.7
 21
260.1
 31
0.0
  0
LINE
  5
306
100
AcDbEntity
  8
LAY-6
  6
CONTINUOUS
 62
     1
100
AcDbLine
 10
217.7
 20
260.1
 30
0.0
 11
215.7
 21
260.433333
 31
0.0
  0
LINE
  5
307
100
AcDbEntity
  8
LAY-6
  6
CONTINUOUS
 62
     1
100
AcDbLine
 10
159.7
 20
249.4
 30
0.0
 11
159.7
 21
269.0
 31
0.0
  0
TEXT
  5
308
100
AcDbEntity
  8
LAY-6
  6
CONTINUOUS
 62
     2
100
AcDbText
 10
129.7
 20
268.5
 30
0.0
 40
5.0
  1
５２
 41
0.672
  7
EXCADSTD
 72
     5
 11
137.0328
 21
268.5
 31
0.0
100
AcDbText
  0
LINE
  5
309
100
AcDbEntity
  8
LAY-6
  6
CONTINUOUS
 62
     1
100
AcDbLine
 10
107.7
 20
268.0
 30
0.0
 11
159.7
 21
268.0
 31
0.0
  0
LINE
  5
30A
100
AcDbEntity
  8
LAY-6
  6
CONTINUOUS
 62
     1
100
AcDbLine
 10
109.7
 20
268.333333
 30
0.0
 11
107.7
 21
268.0
 31
0.0
  0
LINE
  5
30B
100
AcDbEntity
  8
LAY-6
  6
CONTINUOUS
 62
     1
100
AcDbLine
 10
107.7
 20
268.0
 30
0.0
 11
109.7
 21
267.666667
 31
0.0
  0
LINE
  5
30C
100
AcDbEntity
  8
LAY-6
  6
CONTINUOUS
 62
     1
100
AcDbLine
 10
157.7
 20
267.666667
 30
0.0
 11
159.7
 21
268.0
 31
0.0
  0
LINE
  5
30D
100
AcDbEntity
  8
LAY-6
  6
CONTINUOUS
 62
     1
100
AcDbLine
 10
159.7
 20
268.0
 30
0.0
 11
157.7
 21
268.333333
 31
0.0
  0
LINE
  5
30E
100
AcDbEntity
  8
LAY-6
  6
CONTINUOUS
 62
     1
100
AcDbLine
 10
235.7
 20
249.3
 30
0.0
 11
235.7
 21
269.0
 31
0.0
  0
TEXT
  5
30F
100
AcDbEntity
  8
LAY-6
  6
CONTINUOUS
 62
     2
100
AcDbText
 10
193.7
 20
268.5
 30
0.0
 40
5.0
  1
７６
 41
0.672
  7
EXCADSTD
 72
     5
 11
201.0328
 21
268.5
 31
0.0
100
AcDbText
  0
LINE
  5
310
100
AcDbEntity
  8
LAY-6
  6
CONTINUOUS
 62
     1
100
AcDbLine
 10
159.7
 20
268.0
 30
0.0
 11
235.7
 21
268.0
 31
0.0
  0
LINE
  5
311
100
AcDbEntity
  8
LAY-6
  6
CONTINUOUS
 62
     1
100
AcDbLine
 10
161.7
 20
268.333333
 30
0.0
 11
159.7
 21
268.0
 31
0.0
  0
LINE
  5
312
100
AcDbEntity
  8
LAY-6
  6
CONTINUOUS
 62
     1
100
AcDbLine
 10
159.7
 20
268.0
 30
0.0
 11
161.7
 21
267.666667
 31
0.0
  0
LINE
  5
313
100
AcDbEntity
  8
LAY-6
  6
CONTINUOUS
 62
     1
100
AcDbLine
 10
233.7
 20
267.666667
 30
0.0
 11
235.7
 21
268.0
 31
0.0
  0
LINE
  5
314
100
AcDbEntity
  8
LAY-6
  6
CONTINUOUS
 62
     1
100
AcDbLine
 10
235.7
 20
268.0
 30
0.0
 11
233.7
 21
268.333333
 31
0.0
  0
LINE
  5
315
100
AcDbEntity
  8
LAY-6
  6
CONTINUOUS
 62
     1
100
AcDbLine
 10
202.4
 20
185.4
 30
0.0
 11
142.4
 21
185.4
 31
0.0
  0
TEXT
  5
316
100
AcDbEntity
  8
LAY-6
  6
CONTINUOUS
 62
     2
100
AcDbText
 10
142.9
 20
206.4
 30
0.0
 40
5.0
  1
５０
 50
90.0
 41
0.672
  7
EXCADSTD
 72
     5
 11
142.9
 21
213.7328
 31
0.0
100
AcDbText
  0
LINE
  5
317
100
AcDbEntity
  8
LAY-6
  6
CONTINUOUS
 62
     1
100
AcDbLine
 10
143.4
 20
185.4
 30
0.0
 11
143.4
 21
235.4
 31
0.0
  0
LINE
  5
318
100
AcDbEntity
  8
LAY-6
  6
CONTINUOUS
 62
     1
100
AcDbLine
 10
143.066667
 20
187.4
 30
0.0
 11
143.4
 21
185.4
 31
0.0
  0
LINE
  5
319
100
AcDbEntity
  8
LAY-6
  6
CONTINUOUS
 62
     1
100
AcDbLine
 10
143.4
 20
185.4
 30
0.0
 11
143.733333
 21
187.4
 31
0.0
  0
LINE
  5
31A
100
AcDbEntity
  8
LAY-6
  6
CONTINUOUS
 62
     1
100
AcDbLine
 10
143.733333
 20
233.4
 30
0.0
 11
143.4
 21
235.4
 31
0.0
  0
LINE
  5
31B
100
AcDbEntity
  8
LAY-6
  6
CONTINUOUS
 62
     1
100
AcDbLine
 10
143.4
 20
235.4
 30
0.0
 11
143.066667
 21
233.4
 31
0.0
  0
LINE
  5
31C
100
AcDbEntity
  8
LAY-6
  6
CONTINUOUS
 62
     1
100
AcDbLine
 10
107.7
 20
166.6
 30
0.0
 11
107.7
 21
168.2
 31
0.0
  0
LINE
  5
31D
100
AcDbEntity
  8
LAY-6
  6
CONTINUOUS
 62
     1
100
AcDbLine
 10
211.7
 20
175.4
 30
0.0
 11
211.7
 21
166.2
 31
0.0
  0
TEXT
  5
31E
100
AcDbEntity
  8
LAY-6
  6
CONTINUOUS
 62
     2
100
AcDbText
 10
153.7
 20
167.7
 30
0.0
 40
5.0
  1
１０４
 41
0.672
  7
EXCADSTD
 72
     5
 11
165.7
 21
167.7
 31
0.0
100
AcDbText
  0
LINE
  5
31F
100
AcDbEntity
  8
LAY-6
  6
CONTINUOUS
 62
     1
100
AcDbLine
 10
107.7
 20
167.2
 30
0.0
 11
211.7
 21
167.2
 31
0.0
  0
LINE
  5
320
100
AcDbEntity
  8
LAY-6
  6
CONTINUOUS
 62
     1
100
AcDbLine
 10
109.7
 20
167.533333
 30
0.0
 11
107.7
 21
167.2
 31
0.0
  0
LINE
  5
321
100
AcDbEntity
  8
LAY-6
  6
CONTINUOUS
 62
     1
100
AcDbLine
 10
107.7
 20
167.2
 30
0.0
 11
109.7
 21
166.866667
 31
0.0
  0
LINE
  5
322
100
AcDbEntity
  8
LAY-6
  6
CONTINUOUS
 62
     1
100
AcDbLine
 10
209.7
 20
166.866667
 30
0.0
 11
211.7
 21
167.2
 31
0.0
  0
LINE
  5
323
100
AcDbEntity
  8
LAY-6
  6
CONTINUOUS
 62
     1
100
AcDbLine
 10
211.7
 20
167.2
 30
0.0
 11
209.7
 21
167.533333
 31
0.0
  0
LINE
  5
324
100
AcDbEntity
  8
LAY-6
  6
CONTINUOUS
 62
     1
100
AcDbLine
 10
181.7
 20
134.92
 30
0.0
 11
181.7
 21
110.6
 31
0.0
  0
LINE
  5
325
100
AcDbEntity
  8
LAY-6
  6
CONTINUOUS
 62
     1
100
AcDbLine
 10
369.7
 20
134.9
 30
0.0
 11
369.7
 21
110.6
 31
0.0
  0
TEXT
  5
326
100
AcDbEntity
  8
LAY-6
  6
CONTINUOUS
 62
     2
100
AcDbText
 10
269.7
 20
112.1
 30
0.0
 40
5.0
  1
１８８
 41
0.672
  7
EXCADSTD
 72
     5
 11
281.7
 21
112.1
 31
0.0
100
AcDbText
  0
LINE
  5
327
100
AcDbEntity
  8
LAY-6
  6
CONTINUOUS
 62
     1
100
AcDbLine
 10
181.7
 20
111.6
 30
0.0
 11
369.7
 21
111.6
 31
0.0
  0
LINE
  5
328
100
AcDbEntity
  8
LAY-6
  6
CONTINUOUS
 62
     1
100
AcDbLine
 10
183.7
 20
111.933333
 30
0.0
 11
181.7
 21
111.6
 31
0.0
  0
LINE
  5
329
100
AcDbEntity
  8
LAY-6
  6
CONTINUOUS
 62
     1
100
AcDbLine
 10
181.7
 20
111.6
 30
0.0
 11
183.7
 21
111.266667
 31
0.0
  0
LINE
  5
32A
100
AcDbEntity
  8
LAY-6
  6
CONTINUOUS
 62
     1
100
AcDbLine
 10
367.7
 20
111.266667
 30
0.0
 11
369.7
 21
111.6
 31
0.0
  0
LINE
  5
32B
100
AcDbEntity
  8
LAY-6
  6
CONTINUOUS
 62
     1
100
AcDbLine
 10
369.7
 20
111.6
 30
0.0
 11
367.7
 21
111.933333
 31
0.0
  0
TEXT
  5
32C
100
AcDbEntity
  8
LAY-6
  6
CONTINUOUS
 62
     2
100
AcDbText
 10
131.5
 20
154.1
 30
0.0
 40
5.0
  1
閉扉速度調整バルブ
 41
0.672
  7
EXCADSTD
 72
     5
 11
167.5
 21
154.1
 31
0.0
100
AcDbText
  0
LINE
  5
32D
100
AcDbEntity
  8
LAY-6
  6
CONTINUOUS
 62
     1
100
AcDbLine
 10
107.7
 20
494.9
 30
0.0
 11
107.7
 21
500.0
 31
0.0
  0
LINE
  5
32E
100
AcDbEntity
  8
LAY-6
  6
CONTINUOUS
 62
     1
100
AcDbLine
 10
247.7
 20
435.6
 30
0.0
 11
247.7
 21
500.0
 31
0.0
  0
TEXT
  5
32F
100
AcDbEntity
  8
LAY-6
  6
CONTINUOUS
 62
     2
100
AcDbText
 10
171.7
 20
499.5
 30
0.0
 40
5.0
  1
１４０
 41
0.672
  7
EXCADSTD
 72
     5
 11
183.7
 21
499.5
 31
0.0
100
AcDbText
  0
LINE
  5
330
100
AcDbEntity
  8
LAY-6
  6
CONTINUOUS
 62
     1
100
AcDbLine
 10
107.7
 20
499.0
 30
0.0
 11
247.7
 21
499.0
 31
0.0
  0
LINE
  5
331
100
AcDbEntity
  8
LAY-6
  6
CONTINUOUS
 62
     1
100
AcDbLine
 10
109.7
 20
499.333333
 30
0.0
 11
107.7
 21
499.0
 31
0.0
  0
LINE
  5
332
100
AcDbEntity
  8
LAY-6
  6
CONTINUOUS
 62
     1
100
AcDbLine
 10
107.7
 20
499.0
 30
0.0
 11
109.7
 21
498.666667
 31
0.0
  0
LINE
  5
333
100
AcDbEntity
  8
LAY-6
  6
CONTINUOUS
 62
     1
100
AcDbLine
 10
245.7
 20
498.666667
 30
0.0
 11
247.7
 21
499.0
 31
0.0
  0
LINE
  5
334
100
AcDbEntity
  8
LAY-6
  6
CONTINUOUS
 62
     1
100
AcDbLine
 10
247.7
 20
499.0
 30
0.0
 11
245.7
 21
499.333333
 31
0.0
  0
TEXT
  5
335
100
AcDbEntity
  8
LAY-6
  6
CONTINUOUS
 62
     2
100
AcDbText
 10
218.7
 20
478.5
 30
0.0
 40
5.0
  1
５０
 41
0.672
  7
EXCADSTD
 72
     5
 11
226.0328
 21
478.5
 31
0.0
100
AcDbText
  0
LINE
  5
336
100
AcDbEntity
  8
LAY-6
  6
CONTINUOUS
 62
     1
100
AcDbLine
 10
197.7
 20
478.0
 30
0.0
 11
247.7
 21
478.0
 31
0.0
  0
LINE
  5
337
100
AcDbEntity
  8
LAY-6
  6
CONTINUOUS
 62
     1
100
AcDbLine
 10
199.7
 20
478.333333
 30
0.0
 11
197.7
 21
478.0
 31
0.0
  0
LINE
  5
338
100
AcDbEntity
  8
LAY-6
  6
CONTINUOUS
 62
     1
100
AcDbLine
 10
197.7
 20
478.0
 30
0.0
 11
199.7
 21
477.666667
 31
0.0
  0
LINE
  5
339
100
AcDbEntity
  8
LAY-6
  6
CONTINUOUS
 62
     1
100
AcDbLine
 10
245.7
 20
477.666667
 30
0.0
 11
247.7
 21
478.0
 31
0.0
  0
LINE
  5
33A
100
AcDbEntity
  8
LAY-6
  6
CONTINUOUS
 62
     1
100
AcDbLine
 10
247.7
 20
478.0
 30
0.0
 11
245.7
 21
478.333333
 31
0.0
  0
LINE
  5
33B
100
AcDbEntity
  8
LAY-6
  6
CONTINUOUS
 62
     1
100
AcDbLine
 10
347.7
 20
447.8
 30
0.0
 11
347.7
 21
460.0
 31
0.0
  0
LINE
  5
33C
100
AcDbEntity
  8
LAY-6
  6
CONTINUOUS
 62
     1
100
AcDbLine
 10
211.700031
 20
446.8
 30
0.0
 11
211.700031
 21
460.0
 31
0.0
  0
TEXT
  5
33D
100
AcDbEntity
  8
LAY-6
  6
CONTINUOUS
 62
     2
100
AcDbText
 10
273.700015
 20
459.5
 30
0.0
 40
5.0
  1
１３６
 41
0.672
  7
EXCADSTD
 72
     5
 11
285.700015
 21
459.5
 31
0.0
100
AcDbText
  0
LINE
  5
33E
100
AcDbEntity
  8
LAY-6
  6
CONTINUOUS
 62
     1
100
AcDbLine
 10
347.7
 20
459.0
 30
0.0
 11
211.700031
 21
459.0
 31
0.0
  0
LINE
  5
33F
100
AcDbEntity
  8
LAY-6
  6
CONTINUOUS
 62
     1
100
AcDbLine
 10
345.7
 20
458.666667
 30
0.0
 11
347.7
 21
459.0
 31
0.0
  0
LINE
  5
340
100
AcDbEntity
  8
LAY-6
  6
CONTINUOUS
 62
     1
100
AcDbLine
 10
347.7
 20
459.0
 30
0.0
 11
345.7
 21
459.333333
 31
0.0
  0
LINE
  5
341
100
AcDbEntity
  8
LAY-6
  6
CONTINUOUS
 62
     1
100
AcDbLine
 10
213.700031
 20
459.333333
 30
0.0
 11
211.700031
 21
459.0
 31
0.0
  0
LINE
  5
342
100
AcDbEntity
  8
LAY-6
  6
CONTINUOUS
 62
     1
100
AcDbLine
 10
211.700031
 20
459.0
 30
0.0
 11
213.700031
 21
458.666667
 31
0.0
  0
TEXT
  5
343
100
AcDbEntity
  8
LAY-6
  6
CONTINUOUS
 62
     2
100
AcDbText
 10
153.700015
 20
459.5
 30
0.0
 40
5.0
  1
１０４
 41
0.672
  7
EXCADSTD
 72
     5
 11
165.700015
 21
459.5
 31
0.0
100
AcDbText
  0
LINE
  5
344
100
AcDbEntity
  8
LAY-6
  6
CONTINUOUS
 62
     1
100
AcDbLine
 10
211.700031
 20
459.0
 30
0.0
 11
107.7
 21
459.0
 31
0.0
  0
LINE
  5
345
100
AcDbEntity
  8
LAY-6
  6
CONTINUOUS
 62
     1
100
AcDbLine
 10
209.700031
 20
458.666667
 30
0.0
 11
211.700031
 21
459.0
 31
0.0
  0
LINE
  5
346
100
AcDbEntity
  8
LAY-6
  6
CONTINUOUS
 62
     1
100
AcDbLine
 10
211.700031
 20
459.0
 30
0.0
 11
209.700031
 21
459.333333
 31
0.0
  0
LINE
  5
347
100
AcDbEntity
  8
LAY-6
  6
CONTINUOUS
 62
     1
100
AcDbLine
 10
109.7
 20
459.333333
 30
0.0
 11
107.7
 21
459.0
 31
0.0
  0
LINE
  5
348
100
AcDbEntity
  8
LAY-6
  6
CONTINUOUS
 62
     1
100
AcDbLine
 10
107.7
 20
459.0
 30
0.0
 11
109.7
 21
458.666667
 31
0.0
  0
LINE
  5
349
100
AcDbEntity
  8
LAY-6
  6
CONTINUOUS
 62
     1
100
AcDbLine
 10
156.2
 20
401.5
 30
0.0
 11
139.5
 21
401.5
 31
0.0
  0
TEXT
  5
34A
100
AcDbEntity
  8
LAY-6
  6
CONTINUOUS
 62
     2
100
AcDbText
 10
140.0
 20
410.0
 30
0.0
 40
5.0
  1
２５
 50
90.0
 41
0.672
  7
EXCADSTD
 72
     5
 11
140.0
 21
417.3328
 31
0.0
100
AcDbText
  0
LINE
  5
34B
100
AcDbEntity
  8
LAY-6
  6
CONTINUOUS
 62
     1
100
AcDbLine
 10
140.5
 20
426.5
 30
0.0
 11
140.5
 21
401.5
 31
0.0
  0
LINE
  5
34C
100
AcDbEntity
  8
LAY-6
  6
CONTINUOUS
 62
     1
100
AcDbLine
 10
140.833333
 20
424.5
 30
0.0
 11
140.5
 21
426.5
 31
0.0
  0
LINE
  5
34D
100
AcDbEntity
  8
LAY-6
  6
CONTINUOUS
 62
     1
100
AcDbLine
 10
140.5
 20
426.5
 30
0.0
 11
140.166667
 21
424.5
 31
0.0
  0
LINE
  5
34E
100
AcDbEntity
  8
LAY-6
  6
CONTINUOUS
 62
     1
100
AcDbLine
 10
140.166667
 20
403.5
 30
0.0
 11
140.5
 21
401.5
 31
0.0
  0
LINE
  5
34F
100
AcDbEntity
  8
LAY-6
  6
CONTINUOUS
 62
     1
100
AcDbLine
 10
140.5
 20
401.5
 30
0.0
 11
140.833333
 21
403.5
 31
0.0
  0
LINE
  5
350
100
AcDbEntity
  8
LAY-6
  6
CONTINUOUS
 62
     1
100
AcDbLine
 10
155.7
 20
426.5
 30
0.0
 11
130.7
 21
426.5
 31
0.0
  0
LINE
  5
351
100
AcDbEntity
  8
LAY-6
  6
CONTINUOUS
 62
     1
100
AcDbLine
 10
174.9
 20
356.5
 30
0.0
 11
130.7
 21
356.5
 31
0.0
  0
TEXT
  5
352
100
AcDbEntity
  8
LAY-6
  6
CONTINUOUS
 62
     2
100
AcDbText
 10
131.2
 20
387.5
 30
0.0
 40
5.0
  1
７０
 50
90.0
 41
0.672
  7
EXCADSTD
 72
     5
 11
131.2
 21
394.8328
 31
0.0
100
AcDbText
  0
LINE
  5
353
100
AcDbEntity
  8
LAY-6
  6
CONTINUOUS
 62
     1
100
AcDbLine
 10
131.7
 20
426.5
 30
0.0
 11
131.7
 21
356.5
 31
0.0
  0
LINE
  5
354
100
AcDbEntity
  8
LAY-6
  6
CONTINUOUS
 62
     1
100
AcDbLine
 10
132.033333
 20
424.5
 30
0.0
 11
131.7
 21
426.5
 31
0.0
  0
LINE
  5
355
100
AcDbEntity
  8
LAY-6
  6
CONTINUOUS
 62
     1
100
AcDbLine
 10
131.7
 20
426.5
 30
0.0
 11
131.366667
 21
424.5
 31
0.0
  0
LINE
  5
356
100
AcDbEntity
  8
LAY-6
  6
CONTINUOUS
 62
     1
100
AcDbLine
 10
131.366667
 20
358.5
 30
0.0
 11
131.7
 21
356.5
 31
0.0
  0
LINE
  5
357
100
AcDbEntity
  8
LAY-6
  6
CONTINUOUS
 62
     1
100
AcDbLine
 10
131.7
 20
356.5
 30
0.0
 11
132.033333
 21
358.5
 31
0.0
  0
LINE
  5
358
100
AcDbEntity
  8
LAY-6
  6
CONTINUOUS
 62
     1
100
AcDbLine
 10
107.7
 20
449.6
 30
0.0
 11
107.7
 21
450.8
 31
0.0
  0
TEXT
  5
359
100
AcDbEntity
  8
LAY-6
  6
CONTINUOUS
 62
     2
100
AcDbText
 10
129.7
 20
450.3
 30
0.0
 40
5.0
  1
５２
 41
0.672
  7
EXCADSTD
 72
     5
 11
137.0328
 21
450.3
 31
0.0
100
AcDbText
  0
LINE
  5
35A
100
AcDbEntity
  8
LAY-6
  6
CONTINUOUS
 62
     1
100
AcDbLine
 10
107.7
 20
449.8
 30
0.0
 11
159.7
 21
449.8
 31
0.0
  0
LINE
  5
35B
100
AcDbEntity
  8
LAY-6
  6
CONTINUOUS
 62
     1
100
AcDbLine
 10
109.7
 20
450.133333
 30
0.0
 11
107.7
 21
449.8
 31
0.0
  0
LINE
  5
35C
100
AcDbEntity
  8
LAY-6
  6
CONTINUOUS
 62
     1
100
AcDbLine
 10
107.7
 20
449.8
 30
0.0
 11
109.7
 21
449.466667
 31
0.0
  0
LINE
  5
35D
100
AcDbEntity
  8
LAY-6
  6
CONTINUOUS
 62
     1
100
AcDbLine
 10
157.7
 20
449.466667
 30
0.0
 11
159.7
 21
449.8
 31
0.0
  0
LINE
  5
35E
100
AcDbEntity
  8
LAY-6
  6
CONTINUOUS
 62
     1
100
AcDbLine
 10
159.7
 20
449.8
 30
0.0
 11
157.7
 21
450.133333
 31
0.0
  0
TEXT
  5
35F
100
AcDbEntity
  8
LAY-6
  6
CONTINUOUS
 62
     2
100
AcDbText
 10
193.7
 20
450.3
 30
0.0
 40
5.0
  1
７６
 41
0.672
  7
EXCADSTD
 72
     5
 11
201.0328
 21
450.3
 31
0.0
100
AcDbText
  0
LINE
  5
360
100
AcDbEntity
  8
LAY-6
  6
CONTINUOUS
 62
     1
100
AcDbLine
 10
159.7
 20
449.8
 30
0.0
 11
235.7
 21
449.8
 31
0.0
  0
LINE
  5
361
100
AcDbEntity
  8
LAY-6
  6
CONTINUOUS
 62
     1
100
AcDbLine
 10
161.7
 20
450.133333
 30
0.0
 11
159.7
 21
449.8
 31
0.0
  0
LINE
  5
362
100
AcDbEntity
  8
LAY-6
  6
CONTINUOUS
 62
     1
100
AcDbLine
 10
159.7
 20
449.8
 30
0.0
 11
161.7
 21
449.466667
 31
0.0
  0
LINE
  5
363
100
AcDbEntity
  8
LAY-6
  6
CONTINUOUS
 62
     1
100
AcDbLine
 10
233.7
 20
449.466667
 30
0.0
 11
235.7
 21
449.8
 31
0.0
  0
LINE
  5
364
100
AcDbEntity
  8
LAY-6
  6
CONTINUOUS
 62
     1
100
AcDbLine
 10
235.7
 20
449.8
 30
0.0
 11
233.7
 21
450.133333
 31
0.0
  0
LINE
  5
365
100
AcDbEntity
  8
LAY-6
  6
CONTINUOUS
 62
     1
100
AcDbLine
 10
186.21
 20
408.5
 30
0.0
 11
192.5
 21
408.5
 31
0.0
  0
LINE
  5
366
100
AcDbEntity
  8
LAY-6
  6
CONTINUOUS
 62
     1
100
AcDbLine
 10
168.76
 20
418.5
 30
0.0
 11
192.5
 21
418.5
 31
0.0
  0
TEXT
  5
367
100
AcDbEntity
  8
LAY-6
  6
CONTINUOUS
 62
     2
100
AcDbText
 10
191.0
 20
409.5
 30
0.0
 40
5.0
  1
１０
 50
90.0
 41
0.672
  7
EXCADSTD
 72
     5
 11
191.0
 21
416.8328
 31
0.0
100
AcDbText
  0
LINE
  5
368
100
AcDbEntity
  8
LAY-6
  6
CONTINUOUS
 62
     1
100
AcDbLine
 10
191.5
 20
408.5
 30
0.0
 11
191.5
 21
418.5
 31
0.0
  0
LINE
  5
369
100
AcDbEntity
  8
LAY-6
  6
CONTINUOUS
 62
     1
100
AcDbLine
 10
191.166667
 20
410.5
 30
0.0
 11
191.5
 21
408.5
 31
0.0
  0
LINE
  5
36A
100
AcDbEntity
  8
LAY-6
  6
CONTINUOUS
 62
     1
100
AcDbLine
 10
191.5
 20
408.5
 30
0.0
 11
191.833333
 21
410.5
 31
0.0
  0
LINE
  5
36B
100
AcDbEntity
  8
LAY-6
  6
CONTINUOUS
 62
     1
100
AcDbLine
 10
191.833333
 20
416.5
 30
0.0
 11
191.5
 21
418.5
 31
0.0
  0
LINE
  5
36C
100
AcDbEntity
  8
LAY-6
  6
CONTINUOUS
 62
     1
100
AcDbLine
 10
191.5
 20
418.5
 30
0.0
 11
191.166667
 21
416.5
 31
0.0
  0
TEXT
  5
36D
100
AcDbEntity
  8
LAY-6
  6
CONTINUOUS
 62
     2
100
AcDbText
 10
191.0
 20
420.5
 30
0.0
 40
5.0
  1
８
 50
90.0
 41
0.672
  7
EXCADSTD
 72
     5
 11
191.0
 21
423.7
 31
0.0
100
AcDbText
  0
LINE
  5
36E
100
AcDbEntity
  8
LAY-6
  6
CONTINUOUS
 62
     1
100
AcDbLine
 10
191.5
 20
418.5
 30
0.0
 11
191.5
 21
426.5
 31
0.0
  0
LINE
  5
36F
100
AcDbEntity
  8
LAY-6
  6
CONTINUOUS
 62
     1
100
AcDbLine
 10
191.166667
 20
420.5
 30
0.0
 11
191.5
 21
418.5
 31
0.0
  0
LINE
  5
370
100
AcDbEntity
  8
LAY-6
  6
CONTINUOUS
 62
     1
100
AcDbLine
 10
191.5
 20
418.5
 30
0.0
 11
191.833333
 21
420.5
 31
0.0
  0
LINE
  5
371
100
AcDbEntity
  8
LAY-6
  6
CONTINUOUS
 62
     1
100
AcDbLine
 10
191.833333
 20
424.5
 30
0.0
 11
191.5
 21
426.5
 31
0.0
  0
LINE
  5
372
100
AcDbEntity
  8
LAY-6
  6
CONTINUOUS
 62
     1
100
AcDbLine
 10
191.5
 20
426.5
 30
0.0
 11
191.166667
 21
424.5
 31
0.0
  0
LINE
  5
373
100
AcDbEntity
  8
LAY-6
  6
CONTINUOUS
 62
     1
100
AcDbLine
 10
152.7
 20
404.8
 30
0.0
 11
152.7
 21
378.0
 31
0.0
  0
LINE
  5
374
100
AcDbEntity
  8
LAY-6
  6
CONTINUOUS
 62
     1
100
AcDbLine
 10
242.7
 20
406.186743
 30
0.0
 11
242.7
 21
378.0
 31
0.0
  0
TEXT
  5
375
100
AcDbEntity
  8
LAY-6
  6
CONTINUOUS
 62
     2
100
AcDbText
 10
193.7
 20
379.0
 30
0.0
 40
5.0
  1
９０
 41
0.672
  7
EXCADSTD
 72
     5
 11
201.0328
 21
379.0
 31
0.0
100
AcDbText
  0
LINE
  5
376
100
AcDbEntity
  8
LAY-6
  6
CONTINUOUS
 62
     1
100
AcDbLine
 10
152.7
 20
378.7
 30
0.0
 11
242.7
 21
378.7
 31
0.0
  0
LINE
  5
377
100
AcDbEntity
  8
LAY-6
  6
CONTINUOUS
 62
     1
100
AcDbLine
 10
154.2
 20
378.95
 30
0.0
 11
152.7
 21
378.7
 31
0.0
  0
LINE
  5
378
100
AcDbEntity
  8
LAY-6
  6
CONTINUOUS
 62
     1
100
AcDbLine
 10
152.7
 20
378.7
 30
0.0
 11
154.2
 21
378.45
 31
0.0
  0
LINE
  5
379
100
AcDbEntity
  8
LAY-6
  6
CONTINUOUS
 62
     1
100
AcDbLine
 10
241.2
 20
378.45
 30
0.0
 11
242.7
 21
378.7
 31
0.0
  0
LINE
  5
37A
100
AcDbEntity
  8
LAY-6
  6
CONTINUOUS
 62
     1
100
AcDbLine
 10
242.7
 20
378.7
 30
0.0
 11
241.2
 21
378.95
 31
0.0
  0
LINE
  5
37B
100
AcDbEntity
  8
LAY-6
  6
CONTINUOUS
 62
     1
100
AcDbLine
 10
177.7
 20
399.0
 30
0.0
 11
177.7
 21
390.7
 31
0.0
  0
LINE
  5
37C
100
AcDbEntity
  8
LAY-6
  6
CONTINUOUS
 62
     1
100
AcDbLine
 10
217.7
 20
399.0
 30
0.0
 11
217.7
 21
390.7
 31
0.0
  0
TEXT
  5
37D
100
AcDbEntity
  8
LAY-6
  6
CONTINUOUS
 62
     2
100
AcDbText
 10
193.7
 20
391.7
 30
0.0
 40
5.0
  1
４０
 41
0.672
  7
EXCADSTD
 72
     5
 11
201.0328
 21
391.7
 31
0.0
100
AcDbText
  0
LINE
  5
37E
100
AcDbEntity
  8
LAY-6
  6
CONTINUOUS
 62
     1
100
AcDbLine
 10
177.7
 20
391.4
 30
0.0
 11
217.7
 21
391.4
 31
0.0
  0
LINE
  5
37F
100
AcDbEntity
  8
LAY-6
  6
CONTINUOUS
 62
     1
100
AcDbLine
 10
179.2
 20
391.65
 30
0.0
 11
177.7
 21
391.4
 31
0.0
  0
LINE
  5
380
100
AcDbEntity
  8
LAY-6
  6
CONTINUOUS
 62
     1
100
AcDbLine
 10
177.7
 20
391.4
 30
0.0
 11
179.2
 21
391.15
 31
0.0
  0
LINE
  5
381
100
AcDbEntity
  8
LAY-6
  6
CONTINUOUS
 62
     1
100
AcDbLine
 10
216.2
 20
391.15
 30
0.0
 11
217.7
 21
391.4
 31
0.0
  0
LINE
  5
382
100
AcDbEntity
  8
LAY-6
  6
CONTINUOUS
 62
     1
100
AcDbLine
 10
217.7
 20
391.4
 30
0.0
 11
216.2
 21
391.65
 31
0.0
  0
LINE
  5
383
100
AcDbEntity
  8
LAY-6
  6
CONTINUOUS
 62
     1
100
AcDbLine
 10
159.7
 20
409.09
 30
0.0
 11
159.7
 21
390.7
 31
0.0
  0
TEXT
  5
384
100
AcDbEntity
  8
LAY-6
  6
CONTINUOUS
 62
     2
100
AcDbText
 10
162.4
 20
391.9
 30
0.0
 40
5.0
  1
１８
 41
0.672
  7
EXCADSTD
 72
     5
 11
169.7328
 21
391.9
 31
0.0
100
AcDbText
  0
LINE
  5
385
100
AcDbEntity
  8
LAY-6
  6
CONTINUOUS
 62
     1
100
AcDbLine
 10
159.7
 20
391.4
 30
0.0
 11
177.7
 21
391.4
 31
0.0
  0
LINE
  5
386
100
AcDbEntity
  8
LAY-6
  6
CONTINUOUS
 62
     1
100
AcDbLine
 10
161.2
 20
391.65
 30
0.0
 11
159.7
 21
391.4
 31
0.0
  0
LINE
  5
387
100
AcDbEntity
  8
LAY-6
  6
CONTINUOUS
 62
     1
100
AcDbLine
 10
159.7
 20
391.4
 30
0.0
 11
161.2
 21
391.15
 31
0.0
  0
LINE
  5
388
100
AcDbEntity
  8
LAY-6
  6
CONTINUOUS
 62
     1
100
AcDbLine
 10
176.2
 20
391.15
 30
0.0
 11
177.7
 21
391.4
 31
0.0
  0
LINE
  5
389
100
AcDbEntity
  8
LAY-6
  6
CONTINUOUS
 62
     1
100
AcDbLine
 10
177.7
 20
391.4
 30
0.0
 11
176.2
 21
391.65
 31
0.0
  0
LINE
  5
38A
100
AcDbEntity
  8
LAY-6
  6
CONTINUOUS
 62
     1
100
AcDbLine
 10
250.898283
 20
424.663507
 30
0.0
 11
252.375951
 21
431.438332
 31
0.0
  0
LINE
  5
38B
100
AcDbEntity
  8
LAY-6
  6
CONTINUOUS
 62
     1
100
AcDbLine
 10
465.815481
 20
377.78757
 30
0.0
 11
467.293149
 21
384.562395
 31
0.0
  0
TEXT
  5
38C
100
AcDbEntity
  8
LAY-6
  6
CONTINUOUS
 62
     2
100
AcDbText
 10
353.887129
 20
408.888161
 30
0.0
 40
5.0
  1
２２０
 50
347.695824
 41
0.672
  7
EXCADSTD
 72
     5
 11
365.61149
 21
406.330942
 31
0.0
100
AcDbText
  0
LINE
  5
38D
100
AcDbEntity
  8
LAY-6
  6
CONTINUOUS
 62
     1
100
AcDbLine
 10
252.22678
 20
430.754411
 30
0.0
 11
467.143978
 21
383.878474
 31
0.0
  0
LINE
  5
38E
100
AcDbEntity
  8
LAY-6
  6
CONTINUOUS
 62
     1
100
AcDbLine
 10
253.7456
 20
430.679016
 30
0.0
 11
252.22678
 21
430.754411
 31
0.0
  0
LINE
  5
38F
100
AcDbEntity
  8
LAY-6
  6
CONTINUOUS
 62
     1
100
AcDbLine
 10
252.22678
 20
430.754411
 30
0.0
 11
253.63905
 21
430.190501
 31
0.0
  0
LINE
  5
390
100
AcDbEntity
  8
LAY-6
  6
CONTINUOUS
 62
     1
100
AcDbLine
 10
465.625158
 20
383.953869
 30
0.0
 11
467.143978
 21
383.878474
 31
0.0
  0
LINE
  5
391
100
AcDbEntity
  8
LAY-6
  6
CONTINUOUS
 62
     1
100
AcDbLine
 10
467.143978
 20
383.878474
 30
0.0
 11
465.731708
 21
384.442384
 31
0.0
  0
LINE
  5
392
100
AcDbEntity
  8
LAY-6
  6
CONTINUOUS
 62
     1
100
AcDbLine
 10
198.186159
 20
337.056928
 30
0.0
 11
198.411195
 21
328.057044
 31
0.0
  0
LINE
  5
393
100
AcDbEntity
  8
LAY-6
  6
CONTINUOUS
 62
     1
100
AcDbLine
 10
463.103358
 20
343.680983
 30
0.0
 11
463.328393
 21
334.681099
 31
0.0
  0
TEXT
  5
394
100
AcDbEntity
  8
LAY-6
  6
CONTINUOUS
 62
     2
100
AcDbText
 10
324.846672
 20
332.218781
 30
0.0
 40
5.0
  1
２６５
 50
1.432339
 41
0.672
  7
EXCADSTD
 72
     5
 11
336.842923
 21
332.518738
 31
0.0
100
AcDbText
  0
LINE
  5
395
100
AcDbEntity
  8
LAY-6
  6
CONTINUOUS
 62
     1
100
AcDbLine
 10
198.393697
 20
328.756825
 30
0.0
 11
463.310895
 21
335.380881
 31
0.0
  0
LINE
  5
396
100
AcDbEntity
  8
LAY-6
  6
CONTINUOUS
 62
     1
100
AcDbLine
 10
199.886979
 20
329.044242
 30
0.0
 11
198.393697
 21
328.756825
 31
0.0
  0
LINE
  5
397
100
AcDbEntity
  8
LAY-6
  6
CONTINUOUS
 62
     1
100
AcDbLine
 10
198.393697
 20
328.756825
 30
0.0
 11
199.899478
 21
328.544398
 31
0.0
  0
LINE
  5
398
100
AcDbEntity
  8
LAY-6
  6
CONTINUOUS
 62
     1
100
AcDbLine
 10
461.817613
 20
335.093464
 30
0.0
 11
463.310895
 21
335.380881
 31
0.0
  0
LINE
  5
399
100
AcDbEntity
  8
LAY-6
  6
CONTINUOUS
 62
     1
100
AcDbLine
 10
463.310895
 20
335.380881
 30
0.0
 11
461.805115
 21
335.593308
 31
0.0
  0
LINE
  5
39A
100
AcDbEntity
  8
LAY-6
  6
CONTINUOUS
 62
     1
100
AcDbLine
 10
658.3
 20
235.4
 30
0.0
 11
689.9
 21
235.4
 31
0.0
  0
LINE
  5
39B
100
AcDbEntity
  8
LAY-6
  6
CONTINUOUS
 62
     1
100
AcDbLine
 10
679.9
 20
185.4
 30
0.0
 11
689.9
 21
185.4
 31
0.0
  0
TEXT
  5
39C
100
AcDbEntity
  8
LAY-6
  6
CONTINUOUS
 62
     2
100
AcDbText
 10
688.9
 20
206.4
 30
0.0
 40
5.0
  1
５０
 50
90.0
 41
0.672
  7
EXCADSTD
 72
     5
 11
688.9
 21
213.7328
 31
0.0
100
AcDbText
  0
LINE
  5
39D
100
AcDbEntity
  8
LAY-6
  6
CONTINUOUS
 62
     1
100
AcDbLine
 10
689.2
 20
235.4
 30
0.0
 11
689.2
 21
185.4
 31
0.0
  0
LINE
  5
39E
100
AcDbEntity
  8
LAY-6
  6
CONTINUOUS
 62
     1
100
AcDbLine
 10
689.45
 20
233.9
 30
0.0
 11
689.2
 21
235.4
 31
0.0
  0
LINE
  5
39F
100
AcDbEntity
  8
LAY-6
  6
CONTINUOUS
 62
     1
100
AcDbLine
 10
689.2
 20
235.4
 30
0.0
 11
688.95
 21
233.9
 31
0.0
  0
LINE
  5
3A0
100
AcDbEntity
  8
LAY-6
  6
CONTINUOUS
 62
     1
100
AcDbLine
 10
688.95
 20
186.9
 30
0.0
 11
689.2
 21
185.4
 31
0.0
  0
LINE
  5
3A1
100
AcDbEntity
  8
LAY-6
  6
CONTINUOUS
 62
     1
100
AcDbLine
 10
689.2
 20
185.4
 30
0.0
 11
689.45
 21
186.9
 31
0.0
  0
TEXT
  5
3A2
100
AcDbEntity
  8
LAY-6
  6
CONTINUOUS
 62
     2
100
AcDbText
 10
354.7
 20
167.5
 30
0.0
 40
5.0
  1
２２
 41
0.672
  7
EXCADSTD
 72
     5
 11
362.0328
 21
167.5
 31
0.0
100
AcDbText
  0
LINE
  5
3A3
100
AcDbEntity
  8
LAY-6
  6
CONTINUOUS
 62
     1
100
AcDbLine
 10
347.7
 20
167.2
 30
0.0
 11
369.7
 21
167.2
 31
0.0
  0
LINE
  5
3A4
100
AcDbEntity
  8
LAY-6
  6
CONTINUOUS
 62
     1
100
AcDbLine
 10
349.2
 20
167.45
 30
0.0
 11
347.7
 21
167.2
 31
0.0
  0
LINE
  5
3A5
100
AcDbEntity
  8
LAY-6
  6
CONTINUOUS
 62
     1
100
AcDbLine
 10
347.7
 20
167.2
 30
0.0
 11
349.2
 21
166.95
 31
0.0
  0
LINE
  5
3A6
100
AcDbEntity
  8
LAY-6
  6
CONTINUOUS
 62
     1
100
AcDbLine
 10
368.2
 20
166.95
 30
0.0
 11
369.7
 21
167.2
 31
0.0
  0
LINE
  5
3A7
100
AcDbEntity
  8
LAY-6
  6
CONTINUOUS
 62
     1
100
AcDbLine
 10
369.7
 20
167.2
 30
0.0
 11
368.2
 21
167.45
 31
0.0
  0
TEXT
  5
3A8
100
AcDbEntity
  8
LAY-6
  6
CONTINUOUS
 62
     2
100
AcDbText
 10
192.7
 20
173.0
 30
0.0
 40
5.0
  1
３０
 41
0.672
  7
EXCADSTD
 72
     5
 11
200.0328
 21
173.0
 31
0.0
100
AcDbText
  0
LINE
  5
3A9
100
AcDbEntity
  8
LAY-6
  6
CONTINUOUS
 62
     1
100
AcDbLine
 10
181.7
 20
172.7
 30
0.0
 11
211.7
 21
172.7
 31
0.0
  0
LINE
  5
3AA
100
AcDbEntity
  8
LAY-6
  6
CONTINUOUS
 62
     1
100
AcDbLine
 10
183.2
 20
172.95
 30
0.0
 11
181.7
 21
172.7
 31
0.0
  0
LINE
  5
3AB
100
AcDbEntity
  8
LAY-6
  6
CONTINUOUS
 62
     1
100
AcDbLine
 10
181.7
 20
172.7
 30
0.0
 11
183.2
 21
172.45
 31
0.0
  0
LINE
  5
3AC
100
AcDbEntity
  8
LAY-6
  6
CONTINUOUS
 62
     1
100
AcDbLine
 10
210.2
 20
172.45
 30
0.0
 11
211.7
 21
172.7
 31
0.0
  0
LINE
  5
3AD
100
AcDbEntity
  8
LAY-6
  6
CONTINUOUS
 62
     1
100
AcDbLine
 10
211.7
 20
172.7
 30
0.0
 11
210.2
 21
172.95
 31
0.0
  0
LINE
  5
3AE
100
AcDbEntity
  8
LAY-6
  6
CONTINUOUS
 62
     1
100
AcDbLine
 10
247.7
 20
126.0
 30
0.0
 11
247.7
 21
118.7
 31
0.0
  0
TEXT
  5
3AF
100
AcDbEntity
  8
LAY-6
  6
CONTINUOUS
 62
     2
100
AcDbText
 10
210.7
 20
119.7
 30
0.0
 40
5.0
  1
６６
 41
0.672
  7
EXCADSTD
 72
     5
 11
218.0328
 21
119.7
 31
0.0
100
AcDbText
  0
LINE
  5
3B0
100
AcDbEntity
  8
LAY-6
  6
CONTINUOUS
 62
     1
100
AcDbLine
 10
181.7
 20
119.4
 30
0.0
 11
247.7
 21
119.4
 31
0.0
  0
LINE
  5
3B1
100
AcDbEntity
  8
LAY-6
  6
CONTINUOUS
 62
     1
100
AcDbLine
 10
183.2
 20
119.65
 30
0.0
 11
181.7
 21
119.4
 31
0.0
  0
LINE
  5
3B2
100
AcDbEntity
  8
LAY-6
  6
CONTINUOUS
 62
     1
100
AcDbLine
 10
181.7
 20
119.4
 30
0.0
 11
183.2
 21
119.15
 31
0.0
  0
LINE
  5
3B3
100
AcDbEntity
  8
LAY-6
  6
CONTINUOUS
 62
     1
100
AcDbLine
 10
246.2
 20
119.15
 30
0.0
 11
247.7
 21
119.4
 31
0.0
  0
LINE
  5
3B4
100
AcDbEntity
  8
LAY-6
  6
CONTINUOUS
 62
     1
100
AcDbLine
 10
247.7
 20
119.4
 30
0.0
 11
246.2
 21
119.65
 31
0.0
  0
TEXT
  5
3B5
100
AcDbEntity
  8
LAY-6
  6
CONTINUOUS
 62
     2
100
AcDbText
 10
302.7
 20
119.7
 30
0.0
 40
5.0
  1
１２２
 41
0.672
  7
EXCADSTD
 72
     5
 11
314.7
 21
119.7
 31
0.0
100
AcDbText
  0
LINE
  5
3B6
100
AcDbEntity
  8
LAY-6
  6
CONTINUOUS
 62
     1
100
AcDbLine
 10
247.7
 20
119.4
 30
0.0
 11
369.7
 21
119.4
 31
0.0
  0
LINE
  5
3B7
100
AcDbEntity
  8
LAY-6
  6
CONTINUOUS
 62
     1
100
AcDbLine
 10
249.2
 20
119.65
 30
0.0
 11
247.7
 21
119.4
 31
0.0
  0
LINE
  5
3B8
100
AcDbEntity
  8
LAY-6
  6
CONTINUOUS
 62
     1
100
AcDbLine
 10
247.7
 20
119.4
 30
0.0
 11
249.2
 21
119.15
 31
0.0
  0
LINE
  5
3B9
100
AcDbEntity
  8
LAY-6
  6
CONTINUOUS
 62
     1
100
AcDbLine
 10
368.2
 20
119.15
 30
0.0
 11
369.7
 21
119.4
 31
0.0
  0
LINE
  5
3BA
100
AcDbEntity
  8
LAY-6
  6
CONTINUOUS
 62
     1
100
AcDbLine
 10
369.7
 20
119.4
 30
0.0
 11
368.2
 21
119.65
 31
0.0
  0
TEXT
  5
3BB
100
AcDbEntity
  8
LAY-6
  6
CONTINUOUS
 62
     2
100
AcDbText
 10
225.7
 20
167.5
 30
0.0
 40
5.0
  1
３６
 41
0.672
  7
EXCADSTD
 72
     5
 11
233.0328
 21
167.5
 31
0.0
100
AcDbText
  0
LINE
  5
3BC
100
AcDbEntity
  8
LAY-6
  6
CONTINUOUS
 62
     1
100
AcDbLine
 10
211.7
 20
167.2
 30
0.0
 11
247.7
 21
167.2
 31
0.0
  0
LINE
  5
3BD
100
AcDbEntity
  8
LAY-6
  6
CONTINUOUS
 62
     1
100
AcDbLine
 10
213.2
 20
167.45
 30
0.0
 11
211.7
 21
167.2
 31
0.0
  0
LINE
  5
3BE
100
AcDbEntity
  8
LAY-6
  6
CONTINUOUS
 62
     1
100
AcDbLine
 10
211.7
 20
167.2
 30
0.0
 11
213.2
 21
166.95
 31
0.0
  0
LINE
  5
3BF
100
AcDbEntity
  8
LAY-6
  6
CONTINUOUS
 62
     1
100
AcDbLine
 10
246.2
 20
166.95
 30
0.0
 11
247.7
 21
167.2
 31
0.0
  0
LINE
  5
3C0
100
AcDbEntity
  8
LAY-6
  6
CONTINUOUS
 62
     1
100
AcDbLine
 10
247.7
 20
167.2
 30
0.0
 11
246.2
 21
167.45
 31
0.0
  0
LINE
  5
3C1
100
AcDbEntity
  8
LAY-6
  6
CONTINUOUS
 62
     1
100
AcDbLine
 10
347.7
 20
176.1
 30
0.0
 11
347.7
 21
166.5
 31
0.0
  0
TEXT
  5
3C2
100
AcDbEntity
  8
LAY-6
  6
CONTINUOUS
 62
     2
100
AcDbText
 10
291.7
 20
167.5
 30
0.0
 40
5.0
  1
１００
 41
0.672
  7
EXCADSTD
 72
     5
 11
303.7
 21
167.5
 31
0.0
100
AcDbText
  0
LINE
  5
3C3
100
AcDbEntity
  8
LAY-6
  6
CONTINUOUS
 62
     1
100
AcDbLine
 10
247.7
 20
167.2
 30
0.0
 11
347.7
 21
167.2
 31
0.0
  0
LINE
  5
3C4
100
AcDbEntity
  8
LAY-6
  6
CONTINUOUS
 62
     1
100
AcDbLine
 10
249.2
 20
167.45
 30
0.0
 11
247.7
 21
167.2
 31
0.0
  0
LINE
  5
3C5
100
AcDbEntity
  8
LAY-6
  6
CONTINUOUS
 62
     1
100
AcDbLine
 10
247.7
 20
167.2
 30
0.0
 11
249.2
 21
166.95
 31
0.0
  0
LINE
  5
3C6
100
AcDbEntity
  8
LAY-6
  6
CONTINUOUS
 62
     1
100
AcDbLine
 10
346.2
 20
166.95
 30
0.0
 11
347.7
 21
167.2
 31
0.0
  0
LINE
  5
3C7
100
AcDbEntity
  8
LAY-6
  6
CONTINUOUS
 62
     1
100
AcDbLine
 10
347.7
 20
167.2
 30
0.0
 11
346.2
 21
167.45
 31
0.0
  0
LINE
  5
3C8
100
AcDbEntity
  8
LAY-6
  6
CONTINUOUS
 62
     1
100
AcDbLine
 10
587.6
 20
231.1
 30
0.0
 11
587.6
 21
267.0
 31
0.0
  0
LINE
  5
3C9
100
AcDbEntity
  8
LAY-6
  6
CONTINUOUS
 62
     1
100
AcDbLine
 10
657.6
 20
236.1
 30
0.0
 11
657.6
 21
267.0
 31
0.0
  0
TEXT
  5
3CA
100
AcDbEntity
  8
LAY-6
  6
CONTINUOUS
 62
     2
100
AcDbText
 10
618.6
 20
266.6
 30
0.0
 40
5.0
  1
７０
 41
0.672
  7
EXCADSTD
 72
     5
 11
625.9328
 21
266.6
 31
0.0
100
AcDbText
  0
LINE
  5
3CB
100
AcDbEntity
  8
LAY-6
  6
CONTINUOUS
 62
     1
100
AcDbLine
 10
587.6
 20
266.3
 30
0.0
 11
657.6
 21
266.3
 31
0.0
  0
LINE
  5
3CC
100
AcDbEntity
  8
LAY-6
  6
CONTINUOUS
 62
     1
100
AcDbLine
 10
589.1
 20
266.55
 30
0.0
 11
587.6
 21
266.3
 31
0.0
  0
LINE
  5
3CD
100
AcDbEntity
  8
LAY-6
  6
CONTINUOUS
 62
     1
100
AcDbLine
 10
587.6
 20
266.3
 30
0.0
 11
589.1
 21
266.05
 31
0.0
  0
LINE
  5
3CE
100
AcDbEntity
  8
LAY-6
  6
CONTINUOUS
 62
     1
100
AcDbLine
 10
656.1
 20
266.05
 30
0.0
 11
657.6
 21
266.3
 31
0.0
  0
LINE
  5
3CF
100
AcDbEntity
  8
LAY-6
  6
CONTINUOUS
 62
     1
100
AcDbLine
 10
657.6
 20
266.3
 30
0.0
 11
656.1
 21
266.55
 31
0.0
  0
LINE
  5
3D0
100
AcDbEntity
  8
LAY-6
  6
CONTINUOUS
 62
     1
100
AcDbLine
 10
639.6
 20
226.7
 30
0.0
 11
639.6
 21
221.3
 31
0.0
  0
LINE
  5
3D1
100
AcDbEntity
  8
LAY-6
  6
CONTINUOUS
 62
     1
100
AcDbLine
 10
649.6
 20
226.7
 30
0.0
 11
649.6
 21
221.3
 31
0.0
  0
TEXT
  5
3D2
100
AcDbEntity
  8
LAY-6
  6
CONTINUOUS
 62
     2
100
AcDbText
 10
640.6
 20
222.3
 30
0.0
 40
5.0
  1
１０
 41
0.672
  7
EXCADSTD
 72
     5
 11
647.9328
 21
222.3
 31
0.0
100
AcDbText
  0
LINE
  5
3D3
100
AcDbEntity
  8
LAY-6
  6
CONTINUOUS
 62
     1
100
AcDbLine
 10
639.6
 20
222.0
 30
0.0
 11
649.6
 21
222.0
 31
0.0
  0
LINE
  5
3D4
100
AcDbEntity
  8
LAY-6
  6
CONTINUOUS
 62
     1
100
AcDbLine
 10
641.1
 20
222.25
 30
0.0
 11
639.6
 21
222.0
 31
0.0
  0
LINE
  5
3D5
100
AcDbEntity
  8
LAY-6
  6
CONTINUOUS
 62
     1
100
AcDbLine
 10
639.6
 20
222.0
 30
0.0
 11
641.1
 21
221.75
 31
0.0
  0
LINE
  5
3D6
100
AcDbEntity
  8
LAY-6
  6
CONTINUOUS
 62
     1
100
AcDbLine
 10
648.1
 20
221.75
 30
0.0
 11
649.6
 21
222.0
 31
0.0
  0
LINE
  5
3D7
100
AcDbEntity
  8
LAY-6
  6
CONTINUOUS
 62
     1
100
AcDbLine
 10
649.6
 20
222.0
 30
0.0
 11
648.1
 21
222.25
 31
0.0
  0
LINE
  5
3D8
100
AcDbEntity
  8
LAY-6
  6
CONTINUOUS
 62
     1
100
AcDbLine
 10
657.6
 20
231.1
 30
0.0
 11
657.6
 21
221.3
 31
0.0
  0
TEXT
  5
3D9
100
AcDbEntity
  8
LAY-6
  6
CONTINUOUS
 62
     2
100
AcDbText
 10
651.6
 20
222.3
 30
0.0
 40
5.0
  1
８
 41
0.672
  7
EXCADSTD
 72
     5
 11
654.8
 21
222.3
 31
0.0
100
AcDbText
  0
LINE
  5
3DA
100
AcDbEntity
  8
LAY-6
  6
CONTINUOUS
 62
     1
100
AcDbLine
 10
649.6
 20
222.0
 30
0.0
 11
657.6
 21
222.0
 31
0.0
  0
LINE
  5
3DB
100
AcDbEntity
  8
LAY-6
  6
CONTINUOUS
 62
     1
100
AcDbLine
 10
651.1
 20
222.25
 30
0.0
 11
649.6
 21
222.0
 31
0.0
  0
LINE
  5
3DC
100
AcDbEntity
  8
LAY-6
  6
CONTINUOUS
 62
     1
100
AcDbLine
 10
649.6
 20
222.0
 30
0.0
 11
651.1
 21
221.75
 31
0.0
  0
LINE
  5
3DD
100
AcDbEntity
  8
LAY-6
  6
CONTINUOUS
 62
     1
100
AcDbLine
 10
656.1
 20
221.75
 30
0.0
 11
657.6
 21
222.0
 31
0.0
  0
LINE
  5
3DE
100
AcDbEntity
  8
LAY-6
  6
CONTINUOUS
 62
     1
100
AcDbLine
 10
657.6
 20
222.0
 30
0.0
 11
656.1
 21
222.25
 31
0.0
  0
TEXT
  5
3DF
100
AcDbEntity
  8
LAY-6
  6
CONTINUOUS
 62
     2
100
AcDbText
 10
184.863643
 20
337.723699
 30
0.0
 40
5.0
  1
Ｒ
 50
51.132222
 41
0.672
  7
EXCADSTD
 72
     5
 11
186.871724
 21
340.215207
 31
0.0
100
AcDbText
  0
TEXT
  5
3E0
100
AcDbEntity
  8
LAY-6
  6
CONTINUOUS
 62
     2
100
AcDbText
 10
187.373744
 20
340.838084
 30
0.0
 40
5.0
  1
１０
 50
51.132222
 41
0.672
  7
EXCADSTD
 72
     5
 11
191.975262
 21
346.547374
 31
0.0
100
AcDbText
  0
LINE
  5
3E1
100
AcDbEntity
  8
LAY-6
  6
CONTINUOUS
 62
     1
100
AcDbLine
 10
191.424747
 20
348.714038
 30
0.0
 11
197.7
 21
356.5
 31
0.0
  0
LINE
  5
3E2
100
AcDbEntity
  8
LAY-6
  6
CONTINUOUS
 62
     1
100
AcDbLine
 10
192.171386
 20
350.038814
 30
0.0
 11
191.424747
 21
348.714038
 31
0.0
  0
LINE
  5
3E3
100
AcDbEntity
  8
LAY-6
  6
CONTINUOUS
 62
     1
100
AcDbLine
 10
191.424747
 20
348.714038
 30
0.0
 11
192.560684
 21
349.725051
 31
0.0
  0
LINE
  5
3E4
100
AcDbEntity
  8
LAY-6
  6
CONTINUOUS
 62
     1
100
AcDbLine
 10
621.9
 20
191.9
 30
0.0
 11
614.0
 21
191.9
 31
0.0
  0
LINE
  5
3E5
100
AcDbEntity
  8
LAY-6
  6
CONTINUOUS
 62
     1
100
AcDbLine
 10
622.9
 20
135.4
 30
0.0
 11
614.0
 21
135.4
 31
0.0
  0
TEXT
  5
3E6
100
AcDbEntity
  8
LAY-6
  6
CONTINUOUS
 62
     2
100
AcDbText
 10
614.4
 20
157.525
 30
0.0
 40
4.7
  1
５６.５
 50
90.0
 41
0.573404
  7
EXCADSTD
 72
     5
 11
614.4
 21
169.775
 31
0.0
100
AcDbText
  0
LINE
  5
3E7
100
AcDbEntity
  8
LAY-6
  6
CONTINUOUS
 62
     1
100
AcDbLine
 10
614.7
 20
191.9
 30
0.0
 11
614.7
 21
135.4
 31
0.0
  0
LINE
  5
3E8
100
AcDbEntity
  8
LAY-6
  6
CONTINUOUS
 62
     1
100
AcDbLine
 10
614.95
 20
190.4
 30
0.0
 11
614.7
 21
191.9
 31
0.0
  0
LINE
  5
3E9
100
AcDbEntity
  8
LAY-6
  6
CONTINUOUS
 62
     1
100
AcDbLine
 10
614.7
 20
191.9
 30
0.0
 11
614.45
 21
190.4
 31
0.0
  0
LINE
  5
3EA
100
AcDbEntity
  8
LAY-6
  6
CONTINUOUS
 62
     1
100
AcDbLine
 10
614.45
 20
136.9
 30
0.0
 11
614.7
 21
135.4
 31
0.0
  0
LINE
  5
3EB
100
AcDbEntity
  8
LAY-6
  6
CONTINUOUS
 62
     1
100
AcDbLine
 10
614.7
 20
135.4
 30
0.0
 11
614.95
 21
136.9
 31
0.0
  0
LINE
  5
3EC
100
AcDbEntity
  8
LAY-6
  6
CONTINUOUS
 62
     1
100
AcDbLine
 10
660.3
 20
191.9
 30
0.0
 11
683.4
 21
191.9
 31
0.0
  0
TEXT
  5
3ED
100
AcDbEntity
  8
LAY-6
  6
CONTINUOUS
 62
     2
100
AcDbText
 10
682.4
 20
184.275
 30
0.0
 40
4.7
  1
６.５
 50
90.0
 41
0.554374
  7
EXCADSTD
 72
     5
 11
682.4
 21
193.025
 31
0.0
100
AcDbText
  0
LINE
  5
3EE
100
AcDbEntity
  8
LAY-6
  6
CONTINUOUS
 62
     1
100
AcDbLine
 10
682.7
 20
191.9
 30
0.0
 11
682.7
 21
185.4
 31
0.0
  0
LINE
  5
3EF
100
AcDbEntity
  8
LAY-6
  6
CONTINUOUS
 62
     1
100
AcDbLine
 10
682.95
 20
190.4
 30
0.0
 11
682.7
 21
191.9
 31
0.0
  0
LINE
  5
3F0
100
AcDbEntity
  8
LAY-6
  6
CONTINUOUS
 62
     1
100
AcDbLine
 10
682.7
 20
191.9
 30
0.0
 11
682.45
 21
190.4
 31
0.0
  0
LINE
  5
3F1
100
AcDbEntity
  8
LAY-6
  6
CONTINUOUS
 62
     1
100
AcDbLine
 10
682.45
 20
186.9
 30
0.0
 11
682.7
 21
185.4
 31
0.0
  0
LINE
  5
3F2
100
AcDbEntity
  8
LAY-6
  6
CONTINUOUS
 62
     1
100
AcDbLine
 10
682.7
 20
185.4
 30
0.0
 11
682.95
 21
186.9
 31
0.0
  0
LINE
  5
3F3
100
AcDbEntity
  8
LAY-6
  6
CONTINUOUS
 62
     1
100
AcDbLine
 10
370.4
 20
191.9
 30
0.0
 11
386.0
 21
191.9
 31
0.0
  0
LINE
  5
3F4
100
AcDbEntity
  8
LAY-6
  6
CONTINUOUS
 62
     1
100
AcDbLine
 10
370.4
 20
135.4
 30
0.0
 11
386.0
 21
135.4
 31
0.0
  0
TEXT
  5
3F5
100
AcDbEntity
  8
LAY-6
  6
CONTINUOUS
 62
     2
100
AcDbText
 10
385.0
 20
157.525
 30
0.0
 40
4.7
  1
５６.５
 50
90.0
 41
0.573404
  7
EXCADSTD
 72
     5
 11
385.0
 21
169.775
 31
0.0
100
AcDbText
  0
LINE
  5
3F6
100
AcDbEntity
  8
LAY-6
  6
CONTINUOUS
 62
     1
100
AcDbLine
 10
385.3
 20
191.9
 30
0.0
 11
385.3
 21
135.4
 31
0.0
  0
LINE
  5
3F7
100
AcDbEntity
  8
LAY-6
  6
CONTINUOUS
 62
     1
100
AcDbLine
 10
385.55
 20
190.4
 30
0.0
 11
385.3
 21
191.9
 31
0.0
  0
LINE
  5
3F8
100
AcDbEntity
  8
LAY-6
  6
CONTINUOUS
 62
     1
100
AcDbLine
 10
385.3
 20
191.9
 30
0.0
 11
385.05
 21
190.4
 31
0.0
  0
LINE
  5
3F9
100
AcDbEntity
  8
LAY-6
  6
CONTINUOUS
 62
     1
100
AcDbLine
 10
385.05
 20
136.9
 30
0.0
 11
385.3
 21
135.4
 31
0.0
  0
LINE
  5
3FA
100
AcDbEntity
  8
LAY-6
  6
CONTINUOUS
 62
     1
100
AcDbLine
 10
385.3
 20
135.4
 30
0.0
 11
385.55
 21
136.9
 31
0.0
  0
TEXT
  5
3FB
100
AcDbEntity
  8
LAY-6
  6
CONTINUOUS
 62
     2
100
AcDbText
 10
705.0
 20
169.0
 30
0.0
 40
5.0
  1
（スチール扉）
 41
0.672
  7
EXCADSTD
 72
     5
 11
733.0
 21
169.0
 31
0.0
100
AcDbText
  0
TEXT
  5
3FC
100
AcDbEntity
  8
LAY-6
  6
CONTINUOUS
 62
     2
100
AcDbText
 10
680.7
 20
291.4
 30
0.0
 40
5.0
  1
（スチール枠）
 41
0.672
  7
EXCADSTD
 72
     5
 11
708.7
 21
291.4
 31
0.0
100
AcDbText
  0
TEXT
  5
3FD
100
AcDbEntity
  8
LAY-6
  6
CONTINUOUS
 62
     2
100
AcDbText
 10
682.9
 20
279.0
 30
0.0
 40
5.0
  1
（木枠）４－５．１×２５丸皿木ネジ
 41
0.672
  7
EXCADSTD
 72
     5
 11
750.9
 21
279.0
 31
0.0
100
AcDbText
  0
TEXT
  5
3FE
100
AcDbEntity
  8
LAY-6
  6
CONTINUOUS
 62
     2
100
AcDbText
 10
662.7
 20
94.0
 30
0.0
 40
5.0
  1
ドア
 41
0.672
  7
EXCADSTD
 72
     5
 11
670.0328
 21
94.0
 31
0.0
100
AcDbText
  0
TEXT
  5
3FF
100
AcDbEntity
  8
LAY-6
  6
CONTINUOUS
 62
     2
100
AcDbText
 10
677.4
 20
260.6
 30
0.0
 40
5.0
  1
上枠
 41
0.672
  7
EXCADSTD
 72
     5
 11
684.7328
 21
260.6
 31
0.0
100
AcDbText
  0
TEXT
  5
400
100
AcDbEntity
  8
LAY-6
  6
CONTINUOUS
 62
     2
100
AcDbText
 10
477.5
 20
240.5
 30
0.0
 40
5.0
  1
ドア
 41
0.672
  7
EXCADSTD
 72
     5
 11
484.8328
 21
240.5
 31
0.0
100
AcDbText
  0
TEXT
  5
401
100
AcDbEntity
  8
LAY-6
  6
CONTINUOUS
 62
     2
100
AcDbText
 10
475.7
 20
252.1
 30
0.0
 40
5.0
  1
上枠
 41
0.672
  7
EXCADSTD
 72
     5
 11
483.0328
 21
252.1
 31
0.0
100
AcDbText
  0
TEXT
  5
402
100
AcDbEntity
  8
LAY-6
  6
CONTINUOUS
 62
     2
100
AcDbText
 10
475.2
 20
431.4
 30
0.0
 40
5.0
  1
ドア
 41
0.672
  7
EXCADSTD
 72
     5
 11
482.5328
 21
431.4
 31
0.0
100
AcDbText
  0
TEXT
  5
403
100
AcDbEntity
  8
LAY-6
  6
CONTINUOUS
 62
     2
100
AcDbText
 10
94.1
 20
436.7
 30
0.0
 40
5.0
  1
竪
 41
0.672
  7
EXCADSTD
 72
     5
 11
97.3
 21
436.7
 31
0.0
100
AcDbText
  0
TEXT
  5
404
100
AcDbEntity
  8
LAY-6
  6
CONTINUOUS
 62
     2
100
AcDbText
 10
94.1
 20
431.7
 30
0.0
 40
5.0
  1
枠
 41
0.672
  7
EXCADSTD
 72
     5
 11
97.3
 21
431.7
 31
0.0
100
AcDbText
  0
TEXT
  5
405
100
AcDbEntity
  8
LAY-6
  6
CONTINUOUS
 62
     2
100
AcDbText
 10
98.4
 20
503.7
 30
0.0
 40
5.0
  1
ドア吊り芯
 41
0.672
  7
EXCADSTD
 72
     5
 11
118.4
 21
503.7
 31
0.0
100
AcDbText
  0
POLYLINE
  5
406
100
AcDbEntity
  8
LAY-6
  6
CONTINUOUS
 62
     1
100
AcDb2dPolyline
 66
     1
 10
0.0
 20
0.0
 30
0.0
 70
   128
  0
VERTEX
  5
407
100
AcDbEntity
  8
LAY-6
  6
CONTINUOUS
 62
     1
100
AcDbVertex
100
AcDb2dVertex
 10
649.6
 20
244.1
 30
0.0
  0
VERTEX
  5
408
100
AcDbEntity
  8
LAY-6
  6
CONTINUOUS
 62
     1
100
AcDbVertex
100
AcDb2dVertex
 10
681.5
 20
285.2
 30
0.0
  0
VERTEX
  5
409
100
AcDbEntity
  8
LAY-6
  6
CONTINUOUS
 62
     1
100
AcDbVertex
100
AcDb2dVertex
 10
757.5
 20
285.2
 30
0.0
  0
SEQEND
  5
40A
100
AcDbEntity
  8
LAY-6
  6
CONTINUOUS
 62
     1
  0
LINE
  5
40B
100
AcDbEntity
  8
LAY-6
  6
CONTINUOUS
 62
     1
100
AcDbLine
 10
650.56296
 20
245.884326
 30
0.0
 11
649.6
 21
244.1
 31
0.0
  0
LINE
  5
40C
100
AcDbEntity
  8
LAY-6
  6
CONTINUOUS
 62
     1
100
AcDbLine
 10
649.6
 20
244.1
 30
0.0
 11
651.089608
 21
245.475565
 31
0.0
  0
LINE
  5
40D
100
AcDbEntity
  8
LAY-6
  6
CONTINUOUS
 62
     1
100
AcDbLine
 10
159.7
 20
427.87
 30
0.0
 11
159.7
 21
450.8
 31
0.0
  0
LINE
  5
40E
100
AcDbEntity
  8
LAY-6
  6
CONTINUOUS
 62
     1
100
AcDbLine
 10
197.7
 20
437.0
 30
0.0
 11
197.7
 21
479.0
 31
0.0
  0
LINE
  5
40F
100
AcDbEntity
  8
LAY-6
  6
CONTINUOUS
 62
     1
100
AcDbLine
 10
235.7
 20
428.5
 30
0.0
 11
235.7
 21
450.8
 31
0.0
  0
TEXT
  5
410
100
AcDbEntity
  8
LAY-6
  6
CONTINUOUS
 62
     2
100
AcDbText
 10
707.8
 20
162.2
 30
0.0
 40
5.0
  1
（木扉）２－５.８×６３皿木ネジ（Ｄ＝１０）
 41
0.662413
  7
EXCADSTD
 72
     5
 11
793.8
 21
162.2
 31
0.0
100
AcDbText
  0
POLYLINE
  5
411
100
AcDbEntity
  8
LAY-6
  6
CONTINUOUS
 62
     1
100
AcDb2dPolyline
 66
     1
 10
0.0
 20
0.0
 30
0.0
 70
   128
  0
VERTEX
  5
412
100
AcDbEntity
  8
LAY-6
  6
CONTINUOUS
 62
     1
100
AcDbVertex
100
AcDb2dVertex
 10
182.13498
 20
177.441602
 30
0.0
  0
VERTEX
  5
413
100
AcDbEntity
  8
LAY-6
  6
CONTINUOUS
 62
     1
100
AcDbVertex
100
AcDb2dVertex
 10
166.238281
 20
153.641602
 30
0.0
  0
VERTEX
  5
414
100
AcDbEntity
  8
LAY-6
  6
CONTINUOUS
 62
     1
100
AcDbVertex
100
AcDb2dVertex
 10
131.1
 20
153.641602
 30
0.0
  0
SEQEND
  5
415
100
AcDbEntity
  8
LAY-6
  6
CONTINUOUS
 62
     1
  0
LINE
  5
416
100
AcDbEntity
  8
LAY-6
  6
CONTINUOUS
 62
     1
100
AcDbLine
 10
181.509732
 20
176.055397
 30
0.0
 11
182.13498
 21
177.441602
 31
0.0
  0
LINE
  5
417
100
AcDbEntity
  8
LAY-6
  6
CONTINUOUS
 62
     1
100
AcDbLine
 10
182.13498
 20
177.441602
 30
0.0
 11
181.093949
 21
176.33311
 31
0.0
  0
POLYLINE
  5
418
100
AcDbEntity
  8
LAY-6
  6
CONTINUOUS
 62
     1
100
AcDb2dPolyline
 66
     1
 10
0.0
 20
0.0
 30
0.0
 70
   128
  0
VERTEX
  5
419
100
AcDbEntity
  8
LAY-6
  6
CONTINUOUS
 62
     1
100
AcDbVertex
100
AcDb2dVertex
 10
626.885673
 20
174.988872
 30
0.0
  0
VERTEX
  5
41A
100
AcDbEntity
  8
LAY-6
  6
CONTINUOUS
 62
     1
100
AcDbVertex
100
AcDb2dVertex
 10
609.1
 20
150.1
 30
0.0
  0
VERTEX
  5
41B
100
AcDbEntity
  8
LAY-6
  6
CONTINUOUS
 62
     1
100
AcDbVertex
100
AcDb2dVertex
 10
572.3
 20
150.1
 30
0.0
  0
SEQEND
  5
41C
100
AcDbEntity
  8
LAY-6
  6
CONTINUOUS
 62
     1
  0
LINE
  5
41D
100
AcDbEntity
  8
LAY-6
  6
CONTINUOUS
 62
     1
100
AcDbLine
 10
626.216962
 20
173.623103
 30
0.0
 11
626.885673
 21
174.988872
 31
0.0
  0
LINE
  5
41E
100
AcDbEntity
  8
LAY-6
  6
CONTINUOUS
 62
     1
100
AcDbLine
 10
626.885673
 20
174.988872
 30
0.0
 11
625.810157
 21
173.913808
 31
0.0
  0
POLYLINE
  5
41F
100
AcDbEntity
  8
LAY-6
  6
CONTINUOUS
 62
     1
100
AcDb2dPolyline
 66
     1
 10
0.0
 20
0.0
 30
0.0
 70
   128
  0
VERTEX
  5
420
100
AcDbEntity
  8
LAY-6
  6
CONTINUOUS
 62
     1
100
AcDbVertex
100
AcDb2dVertex
 10
655.37435
 20
174.729048
 30
0.0
  0
VERTEX
  5
421
100
AcDbEntity
  8
LAY-6
  6
CONTINUOUS
 62
     1
100
AcDbVertex
100
AcDb2dVertex
 10
668.028198
 20
157.021537
 30
0.0
  0
VERTEX
  5
422
100
AcDbEntity
  8
LAY-6
  6
CONTINUOUS
 62
     1
100
AcDbVertex
100
AcDb2dVertex
 10
703.8
 20
157.021537
 30
0.0
  0
SEQEND
  5
423
100
AcDbEntity
  8
LAY-6
  6
CONTINUOUS
 62
     1
  0
LINE
  5
424
100
AcDbEntity
  8
LAY-6
  6
CONTINUOUS
 62
     1
100
AcDbLine
 10
656.449867
 20
173.653983
 30
0.0
 11
655.37435
 21
174.729048
 31
0.0
  0
LINE
  5
425
100
AcDbEntity
  8
LAY-6
  6
CONTINUOUS
 62
     1
100
AcDbLine
 10
655.37435
 20
174.729048
 30
0.0
 11
656.043061
 21
173.363278
 31
0.0
  0
TEXT
  5
426
100
AcDbEntity
  8
LAY-6
  6
CONTINUOUS
 62
     2
100
AcDbText
 10
672.29961
 20
130.643124
 30
0.0
 40
5.0
  1
裏板３.２ｔ以上（別途）
 41
0.654222
  7
EXCADSTD
 72
     5
 11
718.29961
 21
130.643124
 31
0.0
100
AcDbText
  0
POLYLINE
  5
427
100
AcDbEntity
  8
LAY-6
  6
CONTINUOUS
 62
     1
100
AcDb2dPolyline
 66
     1
 10
0.0
 20
0.0
 30
0.0
 70
   128
  0
VERTEX
  5
428
100
AcDbEntity
  8
LAY-6
  6
CONTINUOUS
 62
     1
100
AcDbVertex
100
AcDb2dVertex
 10
662.4
 20
143.7
 30
0.0
  0
VERTEX
  5
429
100
AcDbEntity
  8
LAY-6
  6
CONTINUOUS
 62
     1
100
AcDbVertex
100
AcDb2dVertex
 10
671.8
 20
130.3
 30
0.0
  0
VERTEX
  5
42A
100
AcDbEntity
  8
LAY-6
  6
CONTINUOUS
 62
     1
100
AcDbVertex
100
AcDb2dVertex
 10
717.3
 20
130.3
 30
0.0
  0
SEQEND
  5
42B
100
AcDbEntity
  8
LAY-6
  6
CONTINUOUS
 62
     1
  0
LINE
  5
42C
100
AcDbEntity
  8
LAY-6
  6
CONTINUOUS
 62
     1
100
AcDbLine
 10
663.466088
 20
142.615584
 30
0.0
 11
662.4
 21
143.7
 31
0.0
  0
LINE
  5
42D
100
AcDbEntity
  8
LAY-6
  6
CONTINUOUS
 62
     1
100
AcDbLine
 10
662.4
 20
143.7
 30
0.0
 11
663.056759
 21
142.328443
 31
0.0
  0
TEXT
  5
42E
100
AcDbEntity
  8
LAY-6
  6
CONTINUOUS
 62
     2
100
AcDbText
 10
597.99961
 20
281.343124
 30
0.0
 40
5.0
  1
裏板３.２ｔ以上（別途）
 41
0.654222
  7
EXCADSTD
 72
     5
 11
643.99961
 21
281.343124
 31
0.0
100
AcDbText
  0
POLYLINE
  5
42F
100
AcDbEntity
  8
LAY-6
  6
CONTINUOUS
 62
     1
100
AcDb2dPolyline
 66
     1
 10
0.0
 20
0.0
 30
0.0
 70
   128
  0
VERTEX
  5
430
100
AcDbEntity
  8
LAY-6
  6
CONTINUOUS
 62
     1
100
AcDbVertex
100
AcDb2dVertex
 10
634.7
 20
240.2
 30
0.0
  0
VERTEX
  5
431
100
AcDbEntity
  8
LAY-6
  6
CONTINUOUS
 62
     1
100
AcDbVertex
100
AcDb2dVertex
 10
644.0
 20
281.2
 30
0.0
  0
VERTEX
  5
432
100
AcDbEntity
  8
LAY-6
  6
CONTINUOUS
 62
     1
100
AcDbVertex
100
AcDb2dVertex
 10
597.7
 20
281.2
 30
0.0
  0
SEQEND
  5
433
100
AcDbEntity
  8
LAY-6
  6
CONTINUOUS
 62
     1
  0
LINE
  5
434
100
AcDbEntity
  8
LAY-6
  6
CONTINUOUS
 62
     1
100
AcDbLine
 10
634.876016
 20
243.236284
 30
0.0
 11
634.7
 21
240.2
 31
0.0
  0
LINE
  5
435
100
AcDbEntity
  8
LAY-6
  6
CONTINUOUS
 62
     1
100
AcDbLine
 10
634.7
 20
240.2
 30
0.0
 11
635.851243
 21
243.015074
 31
0.0
  0
LINE
  5
436
100
AcDbEntity
  8
LAY-9
  6
CONTINUOUS
 62
     4
100
AcDbLine
 10
82.7
 20
471.5
 30
0.0
 11
104.7
 21
471.5
 31
0.0
  0
CIRCLE
  5
437
100
AcDbEntity
  8
LAY-9
  6
CONTINUOUS
 62
     4
100
AcDbCircle
 10
107.7
 20
483.5
 30
0.0
 40
7.5
  0
LINE
  5
438
100
AcDbEntity
  8
LAY-9
  6
CONTINUOUS
 62
     4
100
AcDbLine
 10
106.2
 20
470.0
 30
0.0
 11
106.2
 21
428.0
 31
0.0
  0
LINE
  5
439
100
AcDbEntity
  8
LAY-9
  6
CONTINUOUS
 62
     4
100
AcDbLine
 10
109.2
 20
467.0
 30
0.0
 11
109.2
 21
430.0
 31
0.0
  0
LINE
  5
43A
100
AcDbEntity
  8
LAY-9
  6
CONTINUOUS
 62
     4
100
AcDbLine
 10
110.7
 20
428.5
 30
0.0
 11
181.7
 21
428.5
 31
0.0
  0
ARC
  5
43B
100
AcDbEntity
  8
LAY-9
  6
CONTINUOUS
 62
     4
100
AcDbCircle
 10
110.7
 20
467.0
 30
0.0
 40
1.5
100
AcDbArc
 50
90.0
 51
180.0
  0
ARC
  5
43C
100
AcDbEntity
  8
LAY-9
  6
CONTINUOUS
 62
     4
100
AcDbCircle
 10
110.7
 20
430.0
 30
0.0
 40
1.5
100
AcDbArc
 50
180.0
 51
270.0
  0
LINE
  5
43D
100
AcDbEntity
  8
LAY-9
  6
CONTINUOUS
 62
     4
100
AcDbLine
 10
107.7
 20
426.5
 30
0.0
 11
119.7
 21
426.5
 31
0.0
  0
LINE
  5
43E
100
AcDbEntity
  8
LAY-9
  6
CONTINUOUS
 62
     4
100
AcDbLine
 10
121.2
 20
425.0
 30
0.0
 11
121.2
 21
403.0
 31
0.0
  0
LINE
  5
43F
100
AcDbEntity
  8
LAY-9
  6
CONTINUOUS
 62
     4
100
AcDbLine
 10
81.2
 20
470.0
 30
0.0
 11
81.2
 21
451.5
 31
0.0
  0
LINE
  5
440
100
AcDbEntity
  8
LAY-9
  6
CONTINUOUS
 62
     4
100
AcDbLine
 10
119.7
 20
401.5
 30
0.0
 11
82.7
 21
401.5
 31
0.0
  0
LINE
  5
441
100
AcDbEntity
  8
LAY-9
  6
CONTINUOUS
 62
     4
100
AcDbLine
 10
81.2
 20
421.5
 30
0.0
 11
81.2
 21
403.0
 31
0.0
  0
ARC
  5
442
100
AcDbEntity
  8
LAY-9
  6
CONTINUOUS
 62
     4
100
AcDbCircle
 10
82.7
 20
470.0
 30
0.0
 40
1.5
100
AcDbArc
 50
90.0
 51
180.0
  0
ARC
  5
443
100
AcDbEntity
  8
LAY-9
  6
CONTINUOUS
 62
     4
100
AcDbCircle
 10
104.7
 20
470.0
 30
0.0
 40
1.5
100
AcDbArc
 50
0.0
 51
90.0
  0
ARC
  5
444
100
AcDbEntity
  8
LAY-9
  6
CONTINUOUS
 62
     4
100
AcDbCircle
 10
82.7
 20
403.0
 30
0.0
 40
1.5
100
AcDbArc
 50
180.0
 51
270.0
  0
ARC
  5
445
100
AcDbEntity
  8
LAY-9
  6
CONTINUOUS
 62
     4
100
AcDbCircle
 10
119.7
 20
403.0
 30
0.0
 40
1.5
100
AcDbArc
 50
270.0
 51
0.0
  0
ARC
  5
446
100
AcDbEntity
  8
LAY-9
  6
CONTINUOUS
 62
     4
100
AcDbCircle
 10
119.7
 20
425.0
 30
0.0
 40
1.5
100
AcDbArc
 50
0.0
 51
90.0
  0
ARC
  5
447
100
AcDbEntity
  8
LAY-9
  6
CONTINUOUS
 62
     4
100
AcDbCircle
 10
107.7
 20
428.0
 30
0.0
 40
1.5
100
AcDbArc
 50
180.0
 51
270.0
  0
LINE
  5
448
100
AcDbEntity
  8
LAY-9
  6
CONTINUOUS
 62
     4
100
AcDbLine
 10
659.6
 20
191.9
 30
0.0
 11
659.6
 21
245.9
 31
0.0
  0
LINE
  5
449
100
AcDbEntity
  8
LAY-9
  6
CONTINUOUS
 62
     4
100
AcDbLine
 10
661.1
 20
247.4
 30
0.0
 11
698.1
 21
247.4
 31
0.0
  0
ARC
  5
44A
100
AcDbEntity
  8
LAY-9
  6
CONTINUOUS
 62
     4
100
AcDbCircle
 10
661.1
 20
245.9
 30
0.0
 40
1.5
100
AcDbArc
 50
90.0
 51
180.0
  0
ARC
  5
44B
100
AcDbEntity
  8
LAY-9
  6
CONTINUOUS
 62
     4
100
AcDbCircle
 10
698.1
 20
245.9
 30
0.0
 40
1.5
100
AcDbArc
 50
0.0
 51
90.0
  0
LINE
  5
44C
100
AcDbEntity
  8
LAY-9
  6
CONTINUOUS
 62
     4
100
AcDbLine
 10
657.6
 20
250.4
 30
0.0
 11
701.1
 21
250.4
 31
0.0
  0
LINE
  5
44D
100
AcDbEntity
  8
LAY-9
  6
CONTINUOUS
 62
     4
100
AcDbLine
 10
702.6
 20
251.9
 30
0.0
 11
702.6
 21
273.9
 31
0.0
  0
LINE
  5
44E
100
AcDbEntity
  8
LAY-9
  6
CONTINUOUS
 62
     4
100
AcDbLine
 10
701.1
 20
275.4
 30
0.0
 11
682.6
 21
275.4
 31
0.0
  0
ARC
  5
44F
100
AcDbEntity
  8
LAY-9
  6
CONTINUOUS
 62
     4
100
AcDbCircle
 10
701.1
 20
273.9
 30
0.0
 40
1.5
100
AcDbArc
 50
0.0
 51
90.0
  0
ARC
  5
450
100
AcDbEntity
  8
LAY-9
  6
CONTINUOUS
 62
     4
100
AcDbCircle
 10
701.1
 20
251.9
 30
0.0
 40
1.5
100
AcDbArc
 50
270.0
 51
0.0
  0
LINE
  5
451
100
AcDbEntity
  8
LAY-9
  6
CONTINUOUS
 62
     4
100
AcDbLine
 10
632.6
 20
236.9
 30
0.0
 11
632.6
 21
273.9
 31
0.0
  0
LINE
  5
452
100
AcDbEntity
  8
LAY-9
  6
CONTINUOUS
 62
     4
100
AcDbLine
 10
634.1
 20
275.4
 30
0.0
 11
652.6
 21
275.4
 31
0.0
  0
ARC
  5
453
100
AcDbEntity
  8
LAY-9
  6
CONTINUOUS
 62
     4
100
AcDbCircle
 10
634.1
 20
273.9
 30
0.0
 40
1.5
100
AcDbArc
 50
90.0
 51
180.0
  0
ARC
  5
454
100
AcDbEntity
  8
LAY-9
  6
CONTINUOUS
 62
     4
100
AcDbCircle
 10
634.1
 20
236.9
 30
0.0
 40
1.5
100
AcDbArc
 50
180.0
 51
270.0
  0
LINE
  5
455
100
AcDbEntity
  8
LAY-9
  6
DASHED2
 62
     4
100
AcDbLine
 10
632.6
 20
240.2
 30
0.0
 11
657.6
 21
240.2
 31
0.0
  0
LINE
  5
456
100
AcDbEntity
  8
LAY-9
  6
DASHED2
 62
     4
100
AcDbLine
 10
664.4
 20
198.9
 30
0.0
 11
664.4
 21
127.7
 31
0.0
  0
LINE
  5
457
100
AcDbEntity
  8
LAY-9
  6
DASHED2
 62
     4
100
AcDbLine
 10
659.6
 20
198.9
 30
0.0
 11
664.4
 21
198.9
 31
0.0
  0
LINE
  5
458
100
AcDbEntity
  8
LAY-9
  6
DASHED2
 62
     4
100
AcDbLine
 10
659.6
 20
127.7
 30
0.0
 11
664.4
 21
127.7
 31
0.0
  0
LINE
  5
459
100
AcDbEntity
  8
LAY-9
  6
CONTINUOUS
 62
     4
100
AcDbLine
 10
659.6
 20
136.4
 30
0.0
 11
659.6
 21
92.0
 31
0.0
  0
LINE
  5
45A
100
AcDbEntity
  8
LAY-9
  6
CONTINUOUS
 62
     4
100
AcDbLine
 10
110.7
 20
468.5
 30
0.0
 11
491.0
 21
468.5
 31
0.0
  0
LINE
  5
45B
100
AcDbEntity
  8
LAY-9
  6
CONTINUOUS
 62
     4
100
AcDbLine
 10
369.7
 20
428.5
 30
0.0
 11
491.0
 21
428.5
 31
0.0
  0
LINE
  5
45C
100
AcDbEntity
  8
LAY-9
  6
CONTINUOUS
 62
     4
100
AcDbLine
 10
81.2
 20
275.4
 30
0.0
 11
492.986046
 21
275.4
 31
0.0
  0
LINE
  5
45D
100
AcDbEntity
  8
LAY-9
  6
CONTINUOUS
 62
     4
100
AcDbLine
 10
81.2
 20
275.4
 30
0.0
 11
81.2
 21
98.6
 31
0.0
  0
LINE
  5
45E
100
AcDbEntity
  8
LAY-9
  6
CONTINUOUS
 62
     4
100
AcDbLine
 10
491.182961
 20
247.4
 30
0.0
 11
513.1
 21
247.4
 31
0.0
  0
POLYLINE
  5
45F
100
AcDbEntity
  8
LAY-9
  6
CONTINUOUS
 62
     4
100
AcDb2dPolyline
 66
     1
 10
0.0
 20
0.0
 30
0.0
 70
   128
  0
VERTEX
  5
460
100
AcDbEntity
  8
LAY-9
  6
CONTINUOUS
 62
     4
100
AcDbVertex
100
AcDb2dVertex
 10
513.1
 20
247.4
 30
0.0
  0
VERTEX
  5
461
100
AcDbEntity
  8
LAY-9
  6
CONTINUOUS
 62
     4
100
AcDbVertex
100
AcDb2dVertex
 10
513.074659
 20
247.344202
 30
0.0
  0
VERTEX
  5
462
100
AcDbEntity
  8
LAY-9
  6
CONTINUOUS
 62
     4
100
AcDbVertex
100
AcDb2dVertex
 10
513.003813
 20
247.184914
 30
0.0
  0
VERTEX
  5
463
100
AcDbEntity
  8
LAY-9
  6
CONTINUOUS
 62
     4
100
AcDbVertex
100
AcDb2dVertex
 10
512.895229
 20
246.93429
 30
0.0
  0
VERTEX
  5
464
100
AcDbEntity
  8
LAY-9
  6
CONTINUOUS
 62
     4
100
AcDbVertex
100
AcDb2dVertex
 10
512.756675
 20
246.604488
 30
0.0
  0
VERTEX
  5
465
100
AcDbEntity
  8
LAY-9
  6
CONTINUOUS
 62
     4
100
AcDbVertex
100
AcDb2dVertex
 10
512.595915
 20
246.207663
 30
0.0
  0
VERTEX
  5
466
100
AcDbEntity
  8
LAY-9
  6
CONTINUOUS
 62
     4
100
AcDbVertex
100
AcDb2dVertex
 10
512.420718
 20
245.755973
 30
0.0
  0
VERTEX
  5
467
100
AcDbEntity
  8
LAY-9
  6
CONTINUOUS
 62
     4
100
AcDbVertex
100
AcDb2dVertex
 10
512.23885
 20
245.261572
 30
0.0
  0
VERTEX
  5
468
100
AcDbEntity
  8
LAY-9
  6
CONTINUOUS
 62
     4
100
AcDbVertex
100
AcDb2dVertex
 10
512.058077
 20
244.736619
 30
0.0
  0
VERTEX
  5
469
100
AcDbEntity
  8
LAY-9
  6
CONTINUOUS
 62
     4
100
AcDbVertex
100
AcDb2dVertex
 10
511.886167
 20
244.193268
 30
0.0
  0
VERTEX
  5
46A
100
AcDbEntity
  8
LAY-9
  6
CONTINUOUS
 62
     4
100
AcDbVertex
100
AcDb2dVertex
 10
511.730886
 20
243.643676
 30
0.0
  0
VERTEX
  5
46B
100
AcDbEntity
  8
LAY-9
  6
CONTINUOUS
 62
     4
100
AcDbVertex
100
AcDb2dVertex
 10
511.6
 20
243.1
 30
0.0
  0
VERTEX
  5
46C
100
AcDbEntity
  8
LAY-9
  6
CONTINUOUS
 62
     4
100
AcDbVertex
100
AcDb2dVertex
 10
511.44723
 20
242.217526
 30
0.0
  0
VERTEX
  5
46D
100
AcDbEntity
  8
LAY-9
  6
CONTINUOUS
 62
     4
100
AcDbVertex
100
AcDb2dVertex
 10
511.372012
 20
241.382948
 30
0.0
  0
VERTEX
  5
46E
100
AcDbEntity
  8
LAY-9
  6
CONTINUOUS
 62
     4
100
AcDbVertex
100
AcDb2dVertex
 10
511.359892
 20
240.592466
 30
0.0
  0
VERTEX
  5
46F
100
AcDbEntity
  8
LAY-9
  6
CONTINUOUS
 62
     4
100
AcDbVertex
100
AcDb2dVertex
 10
511.396416
 20
239.842279
 30
0.0
  0
VERTEX
  5
470
100
AcDbEntity
  8
LAY-9
  6
CONTINUOUS
 62
     4
100
AcDbVertex
100
AcDb2dVertex
 10
511.46713
 20
239.128587
 30
0.0
  0
VERTEX
  5
471
100
AcDbEntity
  8
LAY-9
  6
CONTINUOUS
 62
     4
100
AcDbVertex
100
AcDb2dVertex
 10
511.557581
 20
238.447589
 30
0.0
  0
VERTEX
  5
472
100
AcDbEntity
  8
LAY-9
  6
CONTINUOUS
 62
     4
100
AcDbVertex
100
AcDb2dVertex
 10
511.653315
 20
237.795486
 30
0.0
  0
VERTEX
  5
473
100
AcDbEntity
  8
LAY-9
  6
CONTINUOUS
 62
     4
100
AcDbVertex
100
AcDb2dVertex
 10
511.739877
 20
237.168476
 30
0.0
  0
VERTEX
  5
474
100
AcDbEntity
  8
LAY-9
  6
CONTINUOUS
 62
     4
100
AcDbVertex
100
AcDb2dVertex
 10
511.802815
 20
236.562758
 30
0.0
  0
VERTEX
  5
475
100
AcDbEntity
  8
LAY-9
  6
CONTINUOUS
 62
     4
100
AcDbVertex
100
AcDb2dVertex
 10
511.827674
 20
235.974533
 30
0.0
  0
VERTEX
  5
476
100
AcDbEntity
  8
LAY-9
  6
CONTINUOUS
 62
     4
100
AcDbVertex
100
AcDb2dVertex
 10
511.8
 20
235.4
 30
0.0
  0
VERTEX
  5
477
100
AcDbEntity
  8
LAY-9
  6
CONTINUOUS
 62
     4
100
AcDbVertex
100
AcDb2dVertex
 10
511.724181
 20
234.905206
 30
0.0
  0
VERTEX
  5
478
100
AcDbEntity
  8
LAY-9
  6
CONTINUOUS
 62
     4
100
AcDbVertex
100
AcDb2dVertex
 10
511.604189
 20
234.411733
 30
0.0
  0
VERTEX
  5
479
100
AcDbEntity
  8
LAY-9
  6
CONTINUOUS
 62
     4
100
AcDbVertex
100
AcDb2dVertex
 10
511.447075
 20
233.91334
 30
0.0
  0
VERTEX
  5
47A
100
AcDbEntity
  8
LAY-9
  6
CONTINUOUS
 62
     4
100
AcDbVertex
100
AcDb2dVertex
 10
511.259892
 20
233.403785
 30
0.0
  0
VERTEX
  5
47B
100
AcDbEntity
  8
LAY-9
  6
CONTINUOUS
 62
     4
100
AcDbVertex
100
AcDb2dVertex
 10
511.04969
 20
232.876825
 30
0.0
  0
VERTEX
  5
47C
100
AcDbEntity
  8
LAY-9
  6
CONTINUOUS
 62
     4
100
AcDbVertex
100
AcDb2dVertex
 10
510.823523
 20
232.326217
 30
0.0
  0
VERTEX
  5
47D
100
AcDbEntity
  8
LAY-9
  6
CONTINUOUS
 62
     4
100
AcDbVertex
100
AcDb2dVertex
 10
510.58844
 20
231.745721
 30
0.0
  0
VERTEX
  5
47E
100
AcDbEntity
  8
LAY-9
  6
CONTINUOUS
 62
     4
100
AcDbVertex
100
AcDb2dVertex
 10
510.351495
 20
231.129093
 30
0.0
  0
VERTEX
  5
47F
100
AcDbEntity
  8
LAY-9
  6
CONTINUOUS
 62
     4
100
AcDbVertex
100
AcDb2dVertex
 10
510.119739
 20
230.470092
 30
0.0
  0
VERTEX
  5
480
100
AcDbEntity
  8
LAY-9
  6
CONTINUOUS
 62
     4
100
AcDbVertex
100
AcDb2dVertex
 10
509.900223
 20
229.762475
 30
0.0
  0
VERTEX
  5
481
100
AcDbEntity
  8
LAY-9
  6
CONTINUOUS
 62
     4
100
AcDbVertex
100
AcDb2dVertex
 10
509.7
 20
229.0
 30
0.0
  0
VERTEX
  5
482
100
AcDbEntity
  8
LAY-9
  6
CONTINUOUS
 62
     4
100
AcDbVertex
100
AcDb2dVertex
 10
509.576238
 20
228.440719
 30
0.0
  0
VERTEX
  5
483
100
AcDbEntity
  8
LAY-9
  6
CONTINUOUS
 62
     4
100
AcDbVertex
100
AcDb2dVertex
 10
509.46491
 20
227.866627
 30
0.0
  0
VERTEX
  5
484
100
AcDbEntity
  8
LAY-9
  6
CONTINUOUS
 62
     4
100
AcDbVertex
100
AcDb2dVertex
 10
509.365881
 20
227.292066
 30
0.0
  0
VERTEX
  5
485
100
AcDbEntity
  8
LAY-9
  6
CONTINUOUS
 62
     4
100
AcDbVertex
100
AcDb2dVertex
 10
509.279013
 20
226.73138
 30
0.0
  0
VERTEX
  5
486
100
AcDbEntity
  8
LAY-9
  6
CONTINUOUS
 62
     4
100
AcDbVertex
100
AcDb2dVertex
 10
509.204171
 20
226.198915
 30
0.0
  0
VERTEX
  5
487
100
AcDbEntity
  8
LAY-9
  6
CONTINUOUS
 62
     4
100
AcDbVertex
100
AcDb2dVertex
 10
509.141216
 20
225.709013
 30
0.0
  0
VERTEX
  5
488
100
AcDbEntity
  8
LAY-9
  6
CONTINUOUS
 62
     4
100
AcDbVertex
100
AcDb2dVertex
 10
509.090015
 20
225.276019
 30
0.0
  0
VERTEX
  5
489
100
AcDbEntity
  8
LAY-9
  6
CONTINUOUS
 62
     4
100
AcDbVertex
100
AcDb2dVertex
 10
509.050429
 20
224.914277
 30
0.0
  0
VERTEX
  5
48A
100
AcDbEntity
  8
LAY-9
  6
CONTINUOUS
 62
     4
100
AcDbVertex
100
AcDb2dVertex
 10
509.022322
 20
224.63813
 30
0.0
  0
VERTEX
  5
48B
100
AcDbEntity
  8
LAY-9
  6
CONTINUOUS
 62
     4
100
AcDbVertex
100
AcDb2dVertex
 10
509.005558
 20
224.461923
 30
0.0
  0
VERTEX
  5
48C
100
AcDbEntity
  8
LAY-9
  6
CONTINUOUS
 62
     4
100
AcDbVertex
100
AcDb2dVertex
 10
509.0
 20
224.4
 30
0.0
  0
SEQEND
  5
48D
100
AcDbEntity
  8
LAY-9
  6
CONTINUOUS
 62
     4
  0
LINE
  5
48E
100
AcDbEntity
  8
LAY-9
  6
DASHED2
 62
     4
100
AcDbLine
 10
109.2
 20
247.4
 30
0.0
 11
491.182961
 21
247.4
 31
0.0
  0
LINE
  5
48F
100
AcDbEntity
  8
LAY-9
  6
DASHED2
 62
     4
100
AcDbLine
 10
109.2
 20
247.4
 30
0.0
 11
109.2
 21
99.066402
 31
0.0
  0
LINE
  5
490
100
AcDbEntity
  8
LAY-9
  6
CONTINUOUS
 62
     4
100
AcDbLine
 10
109.2
 20
89.02
 30
0.0
 11
109.2
 21
99.066402
 31
0.0
  0
POLYLINE
  5
491
100
AcDbEntity
  8
LAY-9
  6
CONTINUOUS
 62
     4
100
AcDb2dPolyline
 66
     1
 10
0.0
 20
0.0
 30
0.0
 70
   128
  0
VERTEX
  5
492
100
AcDbEntity
  8
LAY-9
  6
CONTINUOUS
 62
     4
100
AcDbVertex
100
AcDb2dVertex
 10
109.2
 20
89.02
 30
0.0
  0
VERTEX
  5
493
100
AcDbEntity
  8
LAY-9
  6
CONTINUOUS
 62
     4
100
AcDbVertex
100
AcDb2dVertex
 10
109.255696
 20
89.043582
 30
0.0
  0
VERTEX
  5
494
100
AcDbEntity
  8
LAY-9
  6
CONTINUOUS
 62
     4
100
AcDbVertex
100
AcDb2dVertex
 10
109.41406
 20
89.108795
 30
0.0
  0
VERTEX
  5
495
100
AcDbEntity
  8
LAY-9
  6
CONTINUOUS
 62
     4
100
AcDbVertex
100
AcDb2dVertex
 10
109.662005
 20
89.207341
 30
0.0
  0
VERTEX
  5
496
100
AcDbEntity
  8
LAY-9
  6
CONTINUOUS
 62
     4
100
AcDbVertex
100
AcDb2dVertex
 10
109.986443
 20
89.330924
 30
0.0
  0
VERTEX
  5
497
100
AcDbEntity
  8
LAY-9
  6
CONTINUOUS
 62
     4
100
AcDbVertex
100
AcDb2dVertex
 10
110.374288
 20
89.471244
 30
0.0
  0
VERTEX
  5
498
100
AcDbEntity
  8
LAY-9
  6
CONTINUOUS
 62
     4
100
AcDbVertex
100
AcDb2dVertex
 10
110.812451
 20
89.620006
 30
0.0
  0
VERTEX
  5
499
100
AcDbEntity
  8
LAY-9
  6
CONTINUOUS
 62
     4
100
AcDbVertex
100
AcDb2dVertex
 10
111.287846
 20
89.76891
 30
0.0
  0
VERTEX
  5
49A
100
AcDbEntity
  8
LAY-9
  6
CONTINUOUS
 62
     4
100
AcDbVertex
100
AcDb2dVertex
 10
111.787386
 20
89.909659
 30
0.0
  0
VERTEX
  5
49B
100
AcDbEntity
  8
LAY-9
  6
CONTINUOUS
 62
     4
100
AcDbVertex
100
AcDb2dVertex
 10
112.297983
 20
90.033956
 30
0.0
  0
VERTEX
  5
49C
100
AcDbEntity
  8
LAY-9
  6
CONTINUOUS
 62
     4
100
AcDbVertex
100
AcDb2dVertex
 10
112.80655
 20
90.133502
 30
0.0
  0
VERTEX
  5
49D
100
AcDbEntity
  8
LAY-9
  6
CONTINUOUS
 62
     4
100
AcDbVertex
100
AcDb2dVertex
 10
113.3
 20
90.2
 30
0.0
  0
VERTEX
  5
49E
100
AcDbEntity
  8
LAY-9
  6
CONTINUOUS
 62
     4
100
AcDbVertex
100
AcDb2dVertex
 10
113.865953
 20
90.228091
 30
0.0
  0
VERTEX
  5
49F
100
AcDbEntity
  8
LAY-9
  6
CONTINUOUS
 62
     4
100
AcDbVertex
100
AcDb2dVertex
 10
114.395005
 20
90.202485
 30
0.0
  0
VERTEX
  5
4A0
100
AcDbEntity
  8
LAY-9
  6
CONTINUOUS
 62
     4
100
AcDbVertex
100
AcDb2dVertex
 10
114.892029
 20
90.130724
 30
0.0
  0
VERTEX
  5
4A1
100
AcDbEntity
  8
LAY-9
  6
CONTINUOUS
 62
     4
100
AcDbVertex
100
AcDb2dVertex
 10
115.361899
 20
90.020348
 30
0.0
  0
VERTEX
  5
4A2
100
AcDbEntity
  8
LAY-9
  6
CONTINUOUS
 62
     4
100
AcDbVertex
100
AcDb2dVertex
 10
115.809487
 20
89.8789
 30
0.0
  0
VERTEX
  5
4A3
100
AcDbEntity
  8
LAY-9
  6
CONTINUOUS
 62
     4
100
AcDbVertex
100
AcDb2dVertex
 10
116.239666
 20
89.713921
 30
0.0
  0
VERTEX
  5
4A4
100
AcDbEntity
  8
LAY-9
  6
CONTINUOUS
 62
     4
100
AcDbVertex
100
AcDb2dVertex
 10
116.657311
 20
89.532951
 30
0.0
  0
VERTEX
  5
4A5
100
AcDbEntity
  8
LAY-9
  6
CONTINUOUS
 62
     4
100
AcDbVertex
100
AcDb2dVertex
 10
117.067293
 20
89.343533
 30
0.0
  0
VERTEX
  5
4A6
100
AcDbEntity
  8
LAY-9
  6
CONTINUOUS
 62
     4
100
AcDbVertex
100
AcDb2dVertex
 10
117.474487
 20
89.153208
 30
0.0
  0
VERTEX
  5
4A7
100
AcDbEntity
  8
LAY-9
  6
CONTINUOUS
 62
     4
100
AcDbVertex
100
AcDb2dVertex
 10
117.883765
 20
88.969516
 30
0.0
  0
VERTEX
  5
4A8
100
AcDbEntity
  8
LAY-9
  6
CONTINUOUS
 62
     4
100
AcDbVertex
100
AcDb2dVertex
 10
118.3
 20
88.8
 30
0.0
  0
VERTEX
  5
4A9
100
AcDbEntity
  8
LAY-9
  6
CONTINUOUS
 62
     4
100
AcDbVertex
100
AcDb2dVertex
 10
119.140786
 20
88.528921
 30
0.0
  0
VERTEX
  5
4AA
100
AcDbEntity
  8
LAY-9
  6
CONTINUOUS
 62
     4
100
AcDbVertex
100
AcDb2dVertex
 10
120.019017
 20
88.333485
 30
0.0
  0
VERTEX
  5
4AB
100
AcDbEntity
  8
LAY-9
  6
CONTINUOUS
 62
     4
100
AcDbVertex
100
AcDb2dVertex
 10
120.927373
 20
88.207155
 30
0.0
  0
VERTEX
  5
4AC
100
AcDbEntity
  8
LAY-9
  6
CONTINUOUS
 62
     4
100
AcDbVertex
100
AcDb2dVertex
 10
121.858529
 20
88.143395
 30
0.0
  0
VERTEX
  5
4AD
100
AcDbEntity
  8
LAY-9
  6
CONTINUOUS
 62
     4
100
AcDbVertex
100
AcDb2dVertex
 10
122.805165
 20
88.135669
 30
0.0
  0
VERTEX
  5
4AE
100
AcDbEntity
  8
LAY-9
  6
CONTINUOUS
 62
     4
100
AcDbVertex
100
AcDb2dVertex
 10
123.759958
 20
88.177441
 30
0.0
  0
VERTEX
  5
4AF
100
AcDbEntity
  8
LAY-9
  6
CONTINUOUS
 62
     4
100
AcDbVertex
100
AcDb2dVertex
 10
124.715586
 20
88.262175
 30
0.0
  0
VERTEX
  5
4B0
100
AcDbEntity
  8
LAY-9
  6
CONTINUOUS
 62
     4
100
AcDbVertex
100
AcDb2dVertex
 10
125.664726
 20
88.383334
 30
0.0
  0
VERTEX
  5
4B1
100
AcDbEntity
  8
LAY-9
  6
CONTINUOUS
 62
     4
100
AcDbVertex
100
AcDb2dVertex
 10
126.600057
 20
88.534382
 30
0.0
  0
VERTEX
  5
4B2
100
AcDbEntity
  8
LAY-9
  6
CONTINUOUS
 62
     4
100
AcDbVertex
100
AcDb2dVertex
 10
127.514255
 20
88.708782
 30
0.0
  0
VERTEX
  5
4B3
100
AcDbEntity
  8
LAY-9
  6
CONTINUOUS
 62
     4
100
AcDbVertex
100
AcDb2dVertex
 10
128.4
 20
88.9
 30
0.0
  0
VERTEX
  5
4B4
100
AcDbEntity
  8
LAY-9
  6
CONTINUOUS
 62
     4
100
AcDbVertex
100
AcDb2dVertex
 10
129.24026
 20
89.099011
 30
0.0
  0
VERTEX
  5
4B5
100
AcDbEntity
  8
LAY-9
  6
CONTINUOUS
 62
     4
100
AcDbVertex
100
AcDb2dVertex
 10
130.056578
 20
89.305549
 30
0.0
  0
VERTEX
  5
4B6
100
AcDbEntity
  8
LAY-9
  6
CONTINUOUS
 62
     4
100
AcDbVertex
100
AcDb2dVertex
 10
130.859705
 20
89.51717
 30
0.0
  0
VERTEX
  5
4B7
100
AcDbEntity
  8
LAY-9
  6
CONTINUOUS
 62
     4
100
AcDbVertex
100
AcDb2dVertex
 10
131.660393
 20
89.731431
 30
0.0
  0
VERTEX
  5
4B8
100
AcDbEntity
  8
LAY-9
  6
CONTINUOUS
 62
     4
100
AcDbVertex
100
AcDb2dVertex
 10
132.469393
 20
89.945891
 30
0.0
  0
VERTEX
  5
4B9
100
AcDbEntity
  8
LAY-9
  6
CONTINUOUS
 62
     4
100
AcDbVertex
100
AcDb2dVertex
 10
133.297455
 20
90.158105
 30
0.0
  0
VERTEX
  5
4BA
100
AcDbEntity
  8
LAY-9
  6
CONTINUOUS
 62
     4
100
AcDbVertex
100
AcDb2dVertex
 10
134.155332
 20
90.365631
 30
0.0
  0
VERTEX
  5
4BB
100
AcDbEntity
  8
LAY-9
  6
CONTINUOUS
 62
     4
100
AcDbVertex
100
AcDb2dVertex
 10
135.053773
 20
90.566027
 30
0.0
  0
VERTEX
  5
4BC
100
AcDbEntity
  8
LAY-9
  6
CONTINUOUS
 62
     4
100
AcDbVertex
100
AcDb2dVertex
 10
136.003531
 20
90.756848
 30
0.0
  0
VERTEX
  5
4BD
100
AcDbEntity
  8
LAY-9
  6
CONTINUOUS
 62
     4
100
AcDbVertex
100
AcDb2dVertex
 10
137.015356
 20
90.935654
 30
0.0
  0
VERTEX
  5
4BE
100
AcDbEntity
  8
LAY-9
  6
CONTINUOUS
 62
     4
100
AcDbVertex
100
AcDb2dVertex
 10
138.1
 20
91.1
 30
0.0
  0
VERTEX
  5
4BF
100
AcDbEntity
  8
LAY-9
  6
CONTINUOUS
 62
     4
100
AcDbVertex
100
AcDb2dVertex
 10
139.247071
 20
91.246331
 30
0.0
  0
VERTEX
  5
4C0
100
AcDbEntity
  8
LAY-9
  6
CONTINUOUS
 62
     4
100
AcDbVertex
100
AcDb2dVertex
 10
140.442586
 20
91.376593
 30
0.0
  0
VERTEX
  5
4C1
100
AcDbEntity
  8
LAY-9
  6
CONTINUOUS
 62
     4
100
AcDbVertex
100
AcDb2dVertex
 10
141.653318
 20
91.491236
 30
0.0
  0
VERTEX
  5
4C2
100
AcDbEntity
  8
LAY-9
  6
CONTINUOUS
 62
     4
100
AcDbVertex
100
AcDb2dVertex
 10
142.846044
 20
91.590709
 30
0.0
  0
VERTEX
  5
4C3
100
AcDbEntity
  8
LAY-9
  6
CONTINUOUS
 62
     4
100
AcDbVertex
100
AcDb2dVertex
 10
143.987538
 20
91.675461
 30
0.0
  0
VERTEX
  5
4C4
100
AcDbEntity
  8
LAY-9
  6
CONTINUOUS
 62
     4
100
AcDbVertex
100
AcDb2dVertex
 10
145.044573
 20
91.745942
 30
0.0
  0
VERTEX
  5
4C5
100
AcDbEntity
  8
LAY-9
  6
CONTINUOUS
 62
     4
100
AcDbVertex
100
AcDb2dVertex
 10
145.983926
 20
91.802601
 30
0.0
  0
VERTEX
  5
4C6
100
AcDbEntity
  8
LAY-9
  6
CONTINUOUS
 62
     4
100
AcDbVertex
100
AcDb2dVertex
 10
146.77237
 20
91.845887
 30
0.0
  0
VERTEX
  5
4C7
100
AcDbEntity
  8
LAY-9
  6
CONTINUOUS
 62
     4
100
AcDbVertex
100
AcDb2dVertex
 10
147.376681
 20
91.876249
 30
0.0
  0
VERTEX
  5
4C8
100
AcDbEntity
  8
LAY-9
  6
CONTINUOUS
 62
     4
100
AcDbVertex
100
AcDb2dVertex
 10
147.763633
 20
91.894137
 30
0.0
  0
VERTEX
  5
4C9
100
AcDbEntity
  8
LAY-9
  6
CONTINUOUS
 62
     4
100
AcDbVertex
100
AcDb2dVertex
 10
147.9
 20
91.9
 30
0.0
  0
SEQEND
  5
4CA
100
AcDbEntity
  8
LAY-9
  6
CONTINUOUS
 62
     4
  0
LINE
  5
4CB
100
AcDbEntity
  8
LAY-9
  6
DASHED2
 62
     4
100
AcDbLine
 10
174.700031
 20
428.5
 30
0.0
 11
174.700031
 21
433.3
 31
0.0
  0
LINE
  5
4CC
100
AcDbEntity
  8
LAY-9
  6
DASHED2
 62
     4
100
AcDbLine
 10
174.700031
 20
433.3
 30
0.0
 11
376.700031
 21
433.3
 31
0.0
  0
LINE
  5
4CD
100
AcDbEntity
  8
LAY-9
  6
DASHED2
 62
     4
100
AcDbLine
 10
376.700031
 20
428.5
 30
0.0
 11
376.700031
 21
433.3
 31
0.0
  0
LINE
  5
4CE
100
AcDbEntity
  8
LAY-9
  6
CONTINUOUS
 62
     4
100
AcDbLine
 10
242.7
 20
235.4
 30
0.0
 11
491.0
 21
235.4
 31
0.0
  0
LINE
  5
4CF
100
AcDbEntity
  8
LAY-9
  6
CONTINUOUS
 62
     4
100
AcDbLine
 10
121.2
 20
235.4
 30
0.0
 11
152.7
 21
235.4
 31
0.0
  0
LINE
  5
4D0
100
AcDbEntity
  8
LAY-9
  6
CONTINUOUS
 62
     4
100
AcDbLine
 10
121.2
 20
101.143042
 30
0.0
 11
121.2
 21
235.4
 31
0.0
  0
LINE
  5
4D1
100
AcDbEntity
  8
LAY-9
  6
DASHED2
 62
     4
100
AcDbLine
 10
106.2
 20
250.4
 30
0.0
 11
106.2
 21
98.6
 31
0.0
  0
POLYLINE
  5
4D2
100
AcDbEntity
  8
LAY-9
  6
CONTINUOUS
 62
     4
100
AcDb2dPolyline
 66
     1
 10
0.0
 20
0.0
 30
0.0
 70
   128
  0
VERTEX
  5
4D3
100
AcDbEntity
  8
LAY-9
  6
CONTINUOUS
 62
     4
100
AcDbVertex
100
AcDb2dVertex
 10
81.2
 20
98.6
 30
0.0
  0
VERTEX
  5
4D4
100
AcDbEntity
  8
LAY-9
  6
CONTINUOUS
 62
     4
100
AcDbVertex
100
AcDb2dVertex
 10
81.273864
 20
98.621503
 30
0.0
  0
VERTEX
  5
4D5
100
AcDbEntity
  8
LAY-9
  6
CONTINUOUS
 62
     4
100
AcDbVertex
100
AcDb2dVertex
 10
81.484092
 20
98.681377
 30
0.0
  0
VERTEX
  5
4D6
100
AcDbEntity
  8
LAY-9
  6
CONTINUOUS
 62
     4
100
AcDbVertex
100
AcDb2dVertex
 10
81.813639
 20
98.772671
 30
0.0
  0
VERTEX
  5
4D7
100
AcDbEntity
  8
LAY-9
  6
CONTINUOUS
 62
     4
100
AcDbVertex
100
AcDb2dVertex
 10
82.245458
 20
98.888434
 30
0.0
  0
VERTEX
  5
4D8
100
AcDbEntity
  8
LAY-9
  6
CONTINUOUS
 62
     4
100
AcDbVertex
100
AcDb2dVertex
 10
82.762505
 20
99.021715
 30
0.0
  0
VERTEX
  5
4D9
100
AcDbEntity
  8
LAY-9
  6
CONTINUOUS
 62
     4
100
AcDbVertex
100
AcDb2dVertex
 10
83.347733
 20
99.165562
 30
0.0
  0
VERTEX
  5
4DA
100
AcDbEntity
  8
LAY-9
  6
CONTINUOUS
 62
     4
100
AcDbVertex
100
AcDb2dVertex
 10
83.984097
 20
99.313025
 30
0.0
  0
VERTEX
  5
4DB
100
AcDbEntity
  8
LAY-9
  6
CONTINUOUS
 62
     4
100
AcDbVertex
100
AcDb2dVertex
 10
84.654551
 20
99.457151
 30
0.0
  0
VERTEX
  5
4DC
100
AcDbEntity
  8
LAY-9
  6
CONTINUOUS
 62
     4
100
AcDbVertex
100
AcDb2dVertex
 10
85.34205
 20
99.59099
 30
0.0
  0
VERTEX
  5
4DD
100
AcDbEntity
  8
LAY-9
  6
CONTINUOUS
 62
     4
100
AcDbVertex
100
AcDb2dVertex
 10
86.029548
 20
99.70759
 30
0.0
  0
VERTEX
  5
4DE
100
AcDbEntity
  8
LAY-9
  6
CONTINUOUS
 62
     4
100
AcDbVertex
100
AcDb2dVertex
 10
86.7
 20
99.8
 30
0.0
  0
VERTEX
  5
4DF
100
AcDbEntity
  8
LAY-9
  6
CONTINUOUS
 62
     4
100
AcDbVertex
100
AcDb2dVertex
 10
87.570433
 20
99.879014
 30
0.0
  0
VERTEX
  5
4E0
100
AcDbEntity
  8
LAY-9
  6
CONTINUOUS
 62
     4
100
AcDbVertex
100
AcDb2dVertex
 10
88.384112
 20
99.906837
 30
0.0
  0
VERTEX
  5
4E1
100
AcDbEntity
  8
LAY-9
  6
CONTINUOUS
 62
     4
100
AcDbVertex
100
AcDb2dVertex
 10
89.14859
 20
99.891023
 30
0.0
  0
VERTEX
  5
4E2
100
AcDbEntity
  8
LAY-9
  6
CONTINUOUS
 62
     4
100
AcDbVertex
100
AcDb2dVertex
 10
89.871427
 20
99.839125
 30
0.0
  0
VERTEX
  5
4E3
100
AcDbEntity
  8
LAY-9
  6
CONTINUOUS
 62
     4
100
AcDbVertex
100
AcDb2dVertex
 10
90.560176
 20
99.758697
 30
0.0
  0
VERTEX
  5
4E4
100
AcDbEntity
  8
LAY-9
  6
CONTINUOUS
 62
     4
100
AcDbVertex
100
AcDb2dVertex
 10
91.222395
 20
99.657293
 30
0.0
  0
VERTEX
  5
4E5
100
AcDbEntity
  8
LAY-9
  6
CONTINUOUS
 62
     4
100
AcDbVertex
100
AcDb2dVertex
 10
91.865639
 20
99.542466
 30
0.0
  0
VERTEX
  5
4E6
100
AcDbEntity
  8
LAY-9
  6
CONTINUOUS
 62
     4
100
AcDbVertex
100
AcDb2dVertex
 10
92.497466
 20
99.421769
 30
0.0
  0
VERTEX
  5
4E7
100
AcDbEntity
  8
LAY-9
  6
CONTINUOUS
 62
     4
100
AcDbVertex
100
AcDb2dVertex
 10
93.125431
 20
99.302757
 30
0.0
  0
VERTEX
  5
4E8
100
AcDbEntity
  8
LAY-9
  6
CONTINUOUS
 62
     4
100
AcDbVertex
100
AcDb2dVertex
 10
93.75709
 20
99.192983
 30
0.0
  0
VERTEX
  5
4E9
100
AcDbEntity
  8
LAY-9
  6
CONTINUOUS
 62
     4
100
AcDbVertex
100
AcDb2dVertex
 10
94.4
 20
99.1
 30
0.0
  0
VERTEX
  5
4EA
100
AcDbEntity
  8
LAY-9
  6
CONTINUOUS
 62
     4
100
AcDbVertex
100
AcDb2dVertex
 10
95.014624
 20
99.033529
 30
0.0
  0
VERTEX
  5
4EB
100
AcDbEntity
  8
LAY-9
  6
CONTINUOUS
 62
     4
100
AcDbVertex
100
AcDb2dVertex
 10
95.643497
 20
98.984879
 30
0.0
  0
VERTEX
  5
4EC
100
AcDbEntity
  8
LAY-9
  6
CONTINUOUS
 62
     4
100
AcDbVertex
100
AcDb2dVertex
 10
96.284531
 20
98.950723
 30
0.0
  0
VERTEX
  5
4ED
100
AcDbEntity
  8
LAY-9
  6
CONTINUOUS
 62
     4
100
AcDbVertex
100
AcDb2dVertex
 10
96.935638
 20
98.927734
 30
0.0
  0
VERTEX
  5
4EE
100
AcDbEntity
  8
LAY-9
  6
CONTINUOUS
 62
     4
100
AcDbVertex
100
AcDb2dVertex
 10
97.594728
 20
98.912584
 30
0.0
  0
VERTEX
  5
4EF
100
AcDbEntity
  8
LAY-9
  6
CONTINUOUS
 62
     4
100
AcDbVertex
100
AcDb2dVertex
 10
98.259715
 20
98.901948
 30
0.0
  0
VERTEX
  5
4F0
100
AcDbEntity
  8
LAY-9
  6
CONTINUOUS
 62
     4
100
AcDbVertex
100
AcDb2dVertex
 10
98.92851
 20
98.892496
 30
0.0
  0
VERTEX
  5
4F1
100
AcDbEntity
  8
LAY-9
  6
CONTINUOUS
 62
     4
100
AcDbVertex
100
AcDb2dVertex
 10
99.599024
 20
98.880903
 30
0.0
  0
VERTEX
  5
4F2
100
AcDbEntity
  8
LAY-9
  6
CONTINUOUS
 62
     4
100
AcDbVertex
100
AcDb2dVertex
 10
100.269169
 20
98.86384
 30
0.0
  0
VERTEX
  5
4F3
100
AcDbEntity
  8
LAY-9
  6
CONTINUOUS
 62
     4
100
AcDbVertex
100
AcDb2dVertex
 10
100.936857
 20
98.837982
 30
0.0
  0
VERTEX
  5
4F4
100
AcDbEntity
  8
LAY-9
  6
CONTINUOUS
 62
     4
100
AcDbVertex
100
AcDb2dVertex
 10
101.6
 20
98.8
 30
0.0
  0
VERTEX
  5
4F5
100
AcDbEntity
  8
LAY-9
  6
CONTINUOUS
 62
     4
100
AcDbVertex
100
AcDb2dVertex
 10
102.02055
 20
98.768371
 30
0.0
  0
VERTEX
  5
4F6
100
AcDbEntity
  8
LAY-9
  6
CONTINUOUS
 62
     4
100
AcDbVertex
100
AcDb2dVertex
 10
102.43895
 20
98.732684
 30
0.0
  0
VERTEX
  5
4F7
100
AcDbEntity
  8
LAY-9
  6
CONTINUOUS
 62
     4
100
AcDbVertex
100
AcDb2dVertex
 10
102.855759
 20
98.695188
 30
0.0
  0
VERTEX
  5
4F8
100
AcDbEntity
  8
LAY-9
  6
CONTINUOUS
 62
     4
100
AcDbVertex
100
AcDb2dVertex
 10
103.271536
 20
98.658132
 30
0.0
  0
VERTEX
  5
4F9
100
AcDbEntity
  8
LAY-9
  6
CONTINUOUS
 62
     4
100
AcDbVertex
100
AcDb2dVertex
 10
103.68684
 20
98.623766
 30
0.0
  0
VERTEX
  5
4FA
100
AcDbEntity
  8
LAY-9
  6
CONTINUOUS
 62
     4
100
AcDbVertex
100
AcDb2dVertex
 10
104.102229
 20
98.594338
 30
0.0
  0
VERTEX
  5
4FB
100
AcDbEntity
  8
LAY-9
  6
CONTINUOUS
 62
     4
100
AcDbVertex
100
AcDb2dVertex
 10
104.518261
 20
98.572098
 30
0.0
  0
VERTEX
  5
4FC
100
AcDbEntity
  8
LAY-9
  6
CONTINUOUS
 62
     4
100
AcDbVertex
100
AcDb2dVertex
 10
104.935496
 20
98.559295
 30
0.0
  0
VERTEX
  5
4FD
100
AcDbEntity
  8
LAY-9
  6
CONTINUOUS
 62
     4
100
AcDbVertex
100
AcDb2dVertex
 10
105.354491
 20
98.558178
 30
0.0
  0
VERTEX
  5
4FE
100
AcDbEntity
  8
LAY-9
  6
CONTINUOUS
 62
     4
100
AcDbVertex
100
AcDb2dVertex
 10
105.775807
 20
98.570997
 30
0.0
  0
VERTEX
  5
4FF
100
AcDbEntity
  8
LAY-9
  6
CONTINUOUS
 62
     4
100
AcDbVertex
100
AcDb2dVertex
 10
106.2
 20
98.6
 30
0.0
  0
VERTEX
  5
500
100
AcDbEntity
  8
LAY-9
  6
CONTINUOUS
 62
     4
100
AcDbVertex
100
AcDb2dVertex
 10
106.785773
 20
98.667234
 30
0.0
  0
VERTEX
  5
501
100
AcDbEntity
  8
LAY-9
  6
CONTINUOUS
 62
     4
100
AcDbVertex
100
AcDb2dVertex
 10
107.375724
 20
98.757925
 30
0.0
  0
VERTEX
  5
502
100
AcDbEntity
  8
LAY-9
  6
CONTINUOUS
 62
     4
100
AcDbVertex
100
AcDb2dVertex
 10
107.967591
 20
98.860984
 30
0.0
  0
VERTEX
  5
503
100
AcDbEntity
  8
LAY-9
  6
CONTINUOUS
 62
     4
100
AcDbVertex
100
AcDb2dVertex
 10
108.559112
 20
98.965322
 30
0.0
  0
VERTEX
  5
504
100
AcDbEntity
  8
LAY-9
  6
CONTINUOUS
 62
     4
100
AcDbVertex
100
AcDb2dVertex
 10
109.148023
 20
99.059849
 30
0.0
  0
VERTEX
  5
505
100
AcDbEntity
  8
LAY-9
  6
CONTINUOUS
 62
     4
100
AcDbVertex
100
AcDb2dVertex
 10
109.732063
 20
99.133477
 30
0.0
  0
VERTEX
  5
506
100
AcDbEntity
  8
LAY-9
  6
CONTINUOUS
 62
     4
100
AcDbVertex
100
AcDb2dVertex
 10
110.308969
 20
99.175116
 30
0.0
  0
VERTEX
  5
507
100
AcDbEntity
  8
LAY-9
  6
CONTINUOUS
 62
     4
100
AcDbVertex
100
AcDb2dVertex
 10
110.876478
 20
99.173677
 30
0.0
  0
VERTEX
  5
508
100
AcDbEntity
  8
LAY-9
  6
CONTINUOUS
 62
     4
100
AcDbVertex
100
AcDb2dVertex
 10
111.432327
 20
99.118071
 30
0.0
  0
VERTEX
  5
509
100
AcDbEntity
  8
LAY-9
  6
CONTINUOUS
 62
     4
100
AcDbVertex
100
AcDb2dVertex
 10
111.974256
 20
98.997208
 30
0.0
  0
VERTEX
  5
50A
100
AcDbEntity
  8
LAY-9
  6
CONTINUOUS
 62
     4
100
AcDbVertex
100
AcDb2dVertex
 10
112.5
 20
98.8
 30
0.0
  0
VERTEX
  5
50B
100
AcDbEntity
  8
LAY-9
  6
CONTINUOUS
 62
     4
100
AcDbVertex
100
AcDb2dVertex
 10
112.841334
 20
98.623116
 30
0.0
  0
VERTEX
  5
50C
100
AcDbEntity
  8
LAY-9
  6
CONTINUOUS
 62
     4
100
AcDbVertex
100
AcDb2dVertex
 10
113.177624
 20
98.419969
 30
0.0
  0
VERTEX
  5
50D
100
AcDbEntity
  8
LAY-9
  6
CONTINUOUS
 62
     4
100
AcDbVertex
100
AcDb2dVertex
 10
113.512037
 20
98.203226
 30
0.0
  0
VERTEX
  5
50E
100
AcDbEntity
  8
LAY-9
  6
CONTINUOUS
 62
     4
100
AcDbVertex
100
AcDb2dVertex
 10
113.847741
 20
97.985557
 30
0.0
  0
SEQEND
  5
50F
100
AcDbEntity
  8
LAY-9
  6
CONTINUOUS
 62
     4
  0
POLYLINE
  5
510
100
AcDbEntity
  8
LAY-9
  6
CONTINUOUS
 62
     4
100
AcDb2dPolyline
 66
     1
 10
0.0
 20
0.0
 30
0.0
 70
   128
  0
VERTEX
  5
511
100
AcDbEntity
  8
LAY-9
  6
CONTINUOUS
 62
     4
100
AcDbVertex
100
AcDb2dVertex
 10
113.847741
 20
97.985557
 30
0.0
  0
VERTEX
  5
512
100
AcDbEntity
  8
LAY-9
  6
CONTINUOUS
 62
     4
100
AcDbVertex
100
AcDb2dVertex
 10
114.187906
 20
97.779627
 30
0.0
  0
VERTEX
  5
513
100
AcDbEntity
  8
LAY-9
  6
CONTINUOUS
 62
     4
100
AcDbVertex
100
AcDb2dVertex
 10
114.535701
 20
97.598106
 30
0.0
  0
VERTEX
  5
514
100
AcDbEntity
  8
LAY-9
  6
CONTINUOUS
 62
     4
100
AcDbVertex
100
AcDb2dVertex
 10
114.894292
 20
97.453662
 30
0.0
  0
VERTEX
  5
515
100
AcDbEntity
  8
LAY-9
  6
CONTINUOUS
 62
     4
100
AcDbVertex
100
AcDb2dVertex
 10
115.266849
 20
97.358961
 30
0.0
  0
VERTEX
  5
516
100
AcDbEntity
  8
LAY-9
  6
CONTINUOUS
 62
     4
100
AcDbVertex
100
AcDb2dVertex
 10
115.656541
 20
97.326672
 30
0.0
  0
VERTEX
  5
517
100
AcDbEntity
  8
LAY-9
  6
CONTINUOUS
 62
     4
100
AcDbVertex
100
AcDb2dVertex
 10
116.066535
 20
97.369462
 30
0.0
  0
VERTEX
  5
518
100
AcDbEntity
  8
LAY-9
  6
CONTINUOUS
 62
     4
100
AcDbVertex
100
AcDb2dVertex
 10
116.5
 20
97.5
 30
0.0
  0
VERTEX
  5
519
100
AcDbEntity
  8
LAY-9
  6
CONTINUOUS
 62
     4
100
AcDbVertex
100
AcDb2dVertex
 10
116.717147
 20
97.596693
 30
0.0
  0
VERTEX
  5
51A
100
AcDbEntity
  8
LAY-9
  6
CONTINUOUS
 62
     4
100
AcDbVertex
100
AcDb2dVertex
 10
116.935795
 20
97.711007
 30
0.0
  0
VERTEX
  5
51B
100
AcDbEntity
  8
LAY-9
  6
CONTINUOUS
 62
     4
100
AcDbVertex
100
AcDb2dVertex
 10
117.15127
 20
97.837287
 30
0.0
  0
VERTEX
  5
51C
100
AcDbEntity
  8
LAY-9
  6
CONTINUOUS
 62
     4
100
AcDbVertex
100
AcDb2dVertex
 10
117.358898
 20
97.969882
 30
0.0
  0
VERTEX
  5
51D
100
AcDbEntity
  8
LAY-9
  6
CONTINUOUS
 62
     4
100
AcDbVertex
100
AcDb2dVertex
 10
117.554005
 20
98.103139
 30
0.0
  0
VERTEX
  5
51E
100
AcDbEntity
  8
LAY-9
  6
CONTINUOUS
 62
     4
100
AcDbVertex
100
AcDb2dVertex
 10
117.731919
 20
98.231403
 30
0.0
  0
VERTEX
  5
51F
100
AcDbEntity
  8
LAY-9
  6
CONTINUOUS
 62
     4
100
AcDbVertex
100
AcDb2dVertex
 10
117.887965
 20
98.349024
 30
0.0
  0
VERTEX
  5
520
100
AcDbEntity
  8
LAY-9
  6
CONTINUOUS
 62
     4
100
AcDbVertex
100
AcDb2dVertex
 10
118.01747
 20
98.450346
 30
0.0
  0
VERTEX
  5
521
100
AcDbEntity
  8
LAY-9
  6
CONTINUOUS
 62
     4
100
AcDbVertex
100
AcDb2dVertex
 10
118.11576
 20
98.529719
 30
0.0
  0
VERTEX
  5
522
100
AcDbEntity
  8
LAY-9
  6
CONTINUOUS
 62
     4
100
AcDbVertex
100
AcDb2dVertex
 10
118.178161
 20
98.581488
 30
0.0
  0
VERTEX
  5
523
100
AcDbEntity
  8
LAY-9
  6
CONTINUOUS
 62
     4
100
AcDbVertex
100
AcDb2dVertex
 10
121.2
 20
101.143042
 30
0.0
  0
SEQEND
  5
524
100
AcDbEntity
  8
LAY-9
  6
CONTINUOUS
 62
     4
  0
LINE
  5
525
100
AcDbEntity
  8
LAY-9
  6
CONTINUOUS
 62
     4
100
AcDbLine
 10
657.6
 20
250.4
 30
0.0
 11
657.6
 21
236.9
 31
0.0
  0
LINE
  5
526
100
AcDbEntity
  8
LAY-9
  6
DASHED2
 62
     4
100
AcDbLine
 10
106.2
 20
250.4
 30
0.0
 11
490.642188
 21
250.4
 31
0.0
  0
POLYLINE
  5
527
100
AcDbEntity
  8
LAY-9
  6
CONTINUOUS
 62
     4
100
AcDb2dPolyline
 66
     1
 10
0.0
 20
0.0
 30
0.0
 70
   128
  0
VERTEX
  5
528
100
AcDbEntity
  8
LAY-9
  6
CONTINUOUS
 62
     4
100
AcDbVertex
100
AcDb2dVertex
 10
492.986046
 20
275.4
 30
0.0
  0
VERTEX
  5
529
100
AcDbEntity
  8
LAY-9
  6
CONTINUOUS
 62
     4
100
AcDbVertex
100
AcDb2dVertex
 10
490.939115
 20
272.308031
 30
0.0
  0
VERTEX
  5
52A
100
AcDbEntity
  8
LAY-9
  6
CONTINUOUS
 62
     4
100
AcDbVertex
100
AcDb2dVertex
 10
490.769574
 20
272.0461
 30
0.0
  0
VERTEX
  5
52B
100
AcDbEntity
  8
LAY-9
  6
CONTINUOUS
 62
     4
100
AcDbVertex
100
AcDb2dVertex
 10
490.511048
 20
271.635175
 30
0.0
  0
VERTEX
  5
52C
100
AcDbEntity
  8
LAY-9
  6
CONTINUOUS
 62
     4
100
AcDbVertex
100
AcDb2dVertex
 10
490.18321
 20
271.096223
 30
0.0
  0
VERTEX
  5
52D
100
AcDbEntity
  8
LAY-9
  6
CONTINUOUS
 62
     4
100
AcDbVertex
100
AcDb2dVertex
 10
489.80573
 20
270.45021
 30
0.0
  0
VERTEX
  5
52E
100
AcDbEntity
  8
LAY-9
  6
CONTINUOUS
 62
     4
100
AcDbVertex
100
AcDb2dVertex
 10
489.398281
 20
269.718103
 30
0.0
  0
VERTEX
  5
52F
100
AcDbEntity
  8
LAY-9
  6
CONTINUOUS
 62
     4
100
AcDbVertex
100
AcDb2dVertex
 10
488.980534
 20
268.920869
 30
0.0
  0
VERTEX
  5
530
100
AcDbEntity
  8
LAY-9
  6
CONTINUOUS
 62
     4
100
AcDbVertex
100
AcDb2dVertex
 10
488.572161
 20
268.079475
 30
0.0
  0
VERTEX
  5
531
100
AcDbEntity
  8
LAY-9
  6
CONTINUOUS
 62
     4
100
AcDbVertex
100
AcDb2dVertex
 10
488.192833
 20
267.214888
 30
0.0
  0
VERTEX
  5
532
100
AcDbEntity
  8
LAY-9
  6
CONTINUOUS
 62
     4
100
AcDbVertex
100
AcDb2dVertex
 10
487.862222
 20
266.348074
 30
0.0
  0
VERTEX
  5
533
100
AcDbEntity
  8
LAY-9
  6
CONTINUOUS
 62
     4
100
AcDbVertex
100
AcDb2dVertex
 10
487.6
 20
265.5
 30
0.0
  0
VERTEX
  5
534
100
AcDbEntity
  8
LAY-9
  6
CONTINUOUS
 62
     4
100
AcDbVertex
100
AcDb2dVertex
 10
487.396717
 20
264.538517
 30
0.0
  0
VERTEX
  5
535
100
AcDbEntity
  8
LAY-9
  6
CONTINUOUS
 62
     4
100
AcDbVertex
100
AcDb2dVertex
 10
487.304139
 20
263.626255
 30
0.0
  0
VERTEX
  5
536
100
AcDbEntity
  8
LAY-9
  6
CONTINUOUS
 62
     4
100
AcDbVertex
100
AcDb2dVertex
 10
487.308615
 20
262.756361
 30
0.0
  0
VERTEX
  5
537
100
AcDbEntity
  8
LAY-9
  6
CONTINUOUS
 62
     4
100
AcDbVertex
100
AcDb2dVertex
 10
487.396491
 20
261.92198
 30
0.0
  0
VERTEX
  5
538
100
AcDbEntity
  8
LAY-9
  6
CONTINUOUS
 62
     4
100
AcDbVertex
100
AcDb2dVertex
 10
487.554115
 20
261.116259
 30
0.0
  0
VERTEX
  5
539
100
AcDbEntity
  8
LAY-9
  6
CONTINUOUS
 62
     4
100
AcDbVertex
100
AcDb2dVertex
 10
487.767833
 20
260.332345
 30
0.0
  0
VERTEX
  5
53A
100
AcDbEntity
  8
LAY-9
  6
CONTINUOUS
 62
     4
100
AcDbVertex
100
AcDb2dVertex
 10
488.023994
 20
259.563384
 30
0.0
  0
VERTEX
  5
53B
100
AcDbEntity
  8
LAY-9
  6
CONTINUOUS
 62
     4
100
AcDbVertex
100
AcDb2dVertex
 10
488.308943
 20
258.802522
 30
0.0
  0
VERTEX
  5
53C
100
AcDbEntity
  8
LAY-9
  6
CONTINUOUS
 62
     4
100
AcDbVertex
100
AcDb2dVertex
 10
488.609029
 20
258.042907
 30
0.0
  0
VERTEX
  5
53D
100
AcDbEntity
  8
LAY-9
  6
CONTINUOUS
 62
     4
100
AcDbVertex
100
AcDb2dVertex
 10
488.910599
 20
257.277684
 30
0.0
  0
VERTEX
  5
53E
100
AcDbEntity
  8
LAY-9
  6
CONTINUOUS
 62
     4
100
AcDbVertex
100
AcDb2dVertex
 10
489.2
 20
256.5
 30
0.0
  0
VERTEX
  5
53F
100
AcDbEntity
  8
LAY-9
  6
CONTINUOUS
 62
     4
100
AcDbVertex
100
AcDb2dVertex
 10
489.469816
 20
255.692889
 30
0.0
  0
VERTEX
  5
540
100
AcDbEntity
  8
LAY-9
  6
CONTINUOUS
 62
     4
100
AcDbVertex
100
AcDb2dVertex
 10
489.714379
 20
254.869852
 30
0.0
  0
VERTEX
  5
541
100
AcDbEntity
  8
LAY-9
  6
CONTINUOUS
 62
     4
100
AcDbVertex
100
AcDb2dVertex
 10
489.935028
 20
254.034854
 30
0.0
  0
VERTEX
  5
542
100
AcDbEntity
  8
LAY-9
  6
CONTINUOUS
 62
     4
100
AcDbVertex
100
AcDb2dVertex
 10
490.133103
 20
253.19186
 30
0.0
  0
VERTEX
  5
543
100
AcDbEntity
  8
LAY-9
  6
CONTINUOUS
 62
     4
100
AcDbVertex
100
AcDb2dVertex
 10
490.309942
 20
252.344833
 30
0.0
  0
VERTEX
  5
544
100
AcDbEntity
  8
LAY-9
  6
CONTINUOUS
 62
     4
100
AcDbVertex
100
AcDb2dVertex
 10
490.466884
 20
251.497738
 30
0.0
  0
VERTEX
  5
545
100
AcDbEntity
  8
LAY-9
  6
CONTINUOUS
 62
     4
100
AcDbVertex
100
AcDb2dVertex
 10
490.605267
 20
250.654539
 30
0.0
  0
VERTEX
  5
546
100
AcDbEntity
  8
LAY-9
  6
CONTINUOUS
 62
     4
100
AcDbVertex
100
AcDb2dVertex
 10
490.726432
 20
249.819202
 30
0.0
  0
VERTEX
  5
547
100
AcDbEntity
  8
LAY-9
  6
CONTINUOUS
 62
     4
100
AcDbVertex
100
AcDb2dVertex
 10
490.831717
 20
248.99569
 30
0.0
  0
VERTEX
  5
548
100
AcDbEntity
  8
LAY-9
  6
CONTINUOUS
 62
     4
100
AcDbVertex
100
AcDb2dVertex
 10
490.92246
 20
248.187968
 30
0.0
  0
VERTEX
  5
549
100
AcDbEntity
  8
LAY-9
  6
CONTINUOUS
 62
     4
100
AcDbVertex
100
AcDb2dVertex
 10
491.0
 20
247.4
 30
0.0
  0
VERTEX
  5
54A
100
AcDbEntity
  8
LAY-9
  6
CONTINUOUS
 62
     4
100
AcDbVertex
100
AcDb2dVertex
 10
491.039561
 20
246.950852
 30
0.0
  0
VERTEX
  5
54B
100
AcDbEntity
  8
LAY-9
  6
CONTINUOUS
 62
     4
100
AcDbVertex
100
AcDb2dVertex
 10
491.075033
 20
246.505652
 30
0.0
  0
VERTEX
  5
54C
100
AcDbEntity
  8
LAY-9
  6
CONTINUOUS
 62
     4
100
AcDbVertex
100
AcDb2dVertex
 10
491.106355
 20
246.060301
 30
0.0
  0
VERTEX
  5
54D
100
AcDbEntity
  8
LAY-9
  6
CONTINUOUS
 62
     4
100
AcDbVertex
100
AcDb2dVertex
 10
491.133463
 20
245.610698
 30
0.0
  0
VERTEX
  5
54E
100
AcDbEntity
  8
LAY-9
  6
CONTINUOUS
 62
     4
100
AcDbVertex
100
AcDb2dVertex
 10
491.156296
 20
245.152742
 30
0.0
  0
VERTEX
  5
54F
100
AcDbEntity
  8
LAY-9
  6
CONTINUOUS
 62
     4
100
AcDbVertex
100
AcDb2dVertex
 10
491.17479
 20
244.682334
 30
0.0
  0
VERTEX
  5
550
100
AcDbEntity
  8
LAY-9
  6
CONTINUOUS
 62
     4
100
AcDbVertex
100
AcDb2dVertex
 10
491.188884
 20
244.195373
 30
0.0
  0
VERTEX
  5
551
100
AcDbEntity
  8
LAY-9
  6
CONTINUOUS
 62
     4
100
AcDbVertex
100
AcDb2dVertex
 10
491.198514
 20
243.68776
 30
0.0
  0
VERTEX
  5
552
100
AcDbEntity
  8
LAY-9
  6
CONTINUOUS
 62
     4
100
AcDbVertex
100
AcDb2dVertex
 10
491.203618
 20
243.155393
 30
0.0
  0
VERTEX
  5
553
100
AcDbEntity
  8
LAY-9
  6
CONTINUOUS
 62
     4
100
AcDbVertex
100
AcDb2dVertex
 10
491.204135
 20
242.594173
 30
0.0
  0
VERTEX
  5
554
100
AcDbEntity
  8
LAY-9
  6
CONTINUOUS
 62
     4
100
AcDbVertex
100
AcDb2dVertex
 10
491.2
 20
242.0
 30
0.0
  0
VERTEX
  5
555
100
AcDbEntity
  8
LAY-9
  6
CONTINUOUS
 62
     4
100
AcDbVertex
100
AcDb2dVertex
 10
491.188797
 20
241.228222
 30
0.0
  0
VERTEX
  5
556
100
AcDbEntity
  8
LAY-9
  6
CONTINUOUS
 62
     4
100
AcDbVertex
100
AcDb2dVertex
 10
491.171967
 20
240.423538
 30
0.0
  0
VERTEX
  5
557
100
AcDbEntity
  8
LAY-9
  6
CONTINUOUS
 62
     4
100
AcDbVertex
100
AcDb2dVertex
 10
491.15092
 20
239.608368
 30
0.0
  0
VERTEX
  5
558
100
AcDbEntity
  8
LAY-9
  6
CONTINUOUS
 62
     4
100
AcDbVertex
100
AcDb2dVertex
 10
491.127067
 20
238.805133
 30
0.0
  0
VERTEX
  5
559
100
AcDbEntity
  8
LAY-9
  6
CONTINUOUS
 62
     4
100
AcDbVertex
100
AcDb2dVertex
 10
491.101818
 20
238.036254
 30
0.0
  0
VERTEX
  5
55A
100
AcDbEntity
  8
LAY-9
  6
CONTINUOUS
 62
     4
100
AcDbVertex
100
AcDb2dVertex
 10
491.076584
 20
237.324151
 30
0.0
  0
VERTEX
  5
55B
100
AcDbEntity
  8
LAY-9
  6
CONTINUOUS
 62
     4
100
AcDbVertex
100
AcDb2dVertex
 10
491.052775
 20
236.691245
 30
0.0
  0
VERTEX
  5
55C
100
AcDbEntity
  8
LAY-9
  6
CONTINUOUS
 62
     4
100
AcDbVertex
100
AcDb2dVertex
 10
491.031802
 20
236.159956
 30
0.0
  0
VERTEX
  5
55D
100
AcDbEntity
  8
LAY-9
  6
CONTINUOUS
 62
     4
100
AcDbVertex
100
AcDb2dVertex
 10
491.015074
 20
235.752705
 30
0.0
  0
VERTEX
  5
55E
100
AcDbEntity
  8
LAY-9
  6
CONTINUOUS
 62
     4
100
AcDbVertex
100
AcDb2dVertex
 10
491.004004
 20
235.491913
 30
0.0
  0
VERTEX
  5
55F
100
AcDbEntity
  8
LAY-9
  6
CONTINUOUS
 62
     4
100
AcDbVertex
100
AcDb2dVertex
 10
491.0
 20
235.4
 30
0.0
  0
SEQEND
  5
560
100
AcDbEntity
  8
LAY-9
  6
CONTINUOUS
 62
     4
  0
ARC
  5
561
100
AcDbEntity
  8
LAY-9
  6
CONTINUOUS
 62
     4
100
AcDbCircle
 10
656.1
 20
236.9
 30
0.0
 40
1.5
100
AcDbArc
 50
270.0
 51
0.0
  0
LINE
  5
562
100
AcDbEntity
  8
LAY-9
  6
DIVIDE
 62
     4
100
AcDbLine
 10
491.0
 20
476.7
 30
0.0
 11
491.0
 21
419.9
 31
0.0
  0
LINE
  5
563
100
AcDbEntity
  8
LAY-9
  6
DIVIDE
 62
     4
100
AcDbLine
 10
648.7
 20
92.0
 30
0.0
 11
706.6
 21
92.0
 31
0.0
  0
LINE
  5
564
100
AcDbEntity
  8
LAY-9
  6
DASHED2
 62
     4
100
AcDbLine
 10
152.7
 20
240.2
 30
0.0
 11
242.7
 21
240.2
 31
0.0
  0
LINE
  5
565
100
AcDbEntity
  8
LAY-9
  6
DASHED2
 62
     4
100
AcDbLine
 10
152.7
 20
240.2
 30
0.0
 11
152.7
 21
235.4
 31
0.0
  0
LINE
  5
566
100
AcDbEntity
  8
LAY-9
  6
DASHED2
 62
     4
100
AcDbLine
 10
242.7
 20
240.2
 30
0.0
 11
242.7
 21
235.4
 31
0.0
  0
LINE
  5
567
100
AcDbEntity
  8
LAY-9
  6
CONTINUOUS
 62
     4
100
AcDbLine
 10
699.6
 20
137.2
 30
0.0
 11
699.6
 21
245.9
 31
0.0
  0
LINE
  5
568
100
AcDbEntity
  8
LAY-9
  6
CONTINUOUS
 62
     4
100
AcDbLine
 10
699.6
 20
92.0
 30
0.0
 11
699.6
 21
129.0
 31
0.0
  0
LINE
  5
569
100
AcDbEntity
  8
LAY-10
  6
CONTINUOUS
 62
     5
100
AcDbLine
 10
15.0
 20
15.0
 30
0.0
 11
826.0
 21
15.0
 31
0.0
  0
LINE
  5
56A
100
AcDbEntity
  8
LAY-10
  6
CONTINUOUS
 62
     5
100
AcDbLine
 10
826.0
 20
15.0
 30
0.0
 11
826.0
 21
579.0
 31
0.0
  0
LINE
  5
56B
100
AcDbEntity
  8
LAY-10
  6
CONTINUOUS
 62
     5
100
AcDbLine
 10
15.0
 20
15.0
 30
0.0
 11
15.0
 21
579.0
 31
0.0
  0
LINE
  5
56C
100
AcDbEntity
  8
LAY-10
  6
CONTINUOUS
 62
     5
100
AcDbLine
 10
15.0
 20
579.0
 30
0.0
 11
826.0
 21
579.0
 31
0.0
  0
LINE
  5
56D
100
AcDbEntity
  8
LAY-10
  6
CONTINUOUS
 62
     5
100
AcDbLine
 10
15.0
 20
40.0
 30
0.0
 11
826.0
 21
40.0
 31
0.0
  0
LINE
  5
56E
100
AcDbEntity
  8
LAY-10
  6
CONTINUOUS
 62
     1
100
AcDbLine
 10
224.0
 20
40.0
 30
0.0
 11
224.0
 21
15.0
 31
0.0
  0
LINE
  5
56F
100
AcDbEntity
  8
LAY-10
  6
CONTINUOUS
 62
     1
100
AcDbLine
 10
249.5
 20
40.0
 30
0.0
 11
249.5
 21
15.0
 31
0.0
  0
LINE
  5
570
100
AcDbEntity
  8
LAY-10
  6
CONTINUOUS
 62
     1
100
AcDbLine
 10
275.0
 20
40.0
 30
0.0
 11
275.0
 21
15.0
 31
0.0
  0
LINE
  5
571
100
AcDbEntity
  8
LAY-10
  6
CONTINUOUS
 62
     1
100
AcDbLine
 10
300.5
 20
40.0
 30
0.0
 11
300.5
 21
15.0
 31
0.0
  0
LINE
  5
572
100
AcDbEntity
  8
LAY-10
  6
CONTINUOUS
 62
     1
100
AcDbLine
 10
326.0
 20
40.0
 30
0.0
 11
326.0
 21
15.0
 31
0.0
  0
LINE
  5
573
100
AcDbEntity
  8
LAY-10
  6
CONTINUOUS
 62
     1
100
AcDbLine
 10
377.0
 20
40.0
 30
0.0
 11
377.0
 21
15.0
 31
0.0
  0
LINE
  5
574
100
AcDbEntity
  8
LAY-10
  6
CONTINUOUS
 62
     1
100
AcDbLine
 10
738.0
 20
40.0
 30
0.0
 11
738.0
 21
15.0
 31
0.0
  0
LINE
  5
575
100
AcDbEntity
  8
LAY-10
  6
CONTINUOUS
 62
     1
100
AcDbLine
 10
224.0
 20
32.0
 30
0.0
 11
377.0
 21
32.0
 31
0.0
  0
TEXT
  5
576
100
AcDbEntity
  8
LAY-10
  6
CONTINUOUS
 62
     4
100
AcDbText
 10
227.5
 20
33.0
 30
0.0
 40
6.0
  1
検　  図
 41
0.57856
  7
EXCADSTD
 72
     5
 11
246.700001
 21
33.0
 31
0.0
100
AcDbText
  0
TEXT
  5
577
100
AcDbEntity
  8
LAY-10
  6
CONTINUOUS
 62
     4
100
AcDbText
 10
253.2
 20
33.0
 30
0.0
 40
6.0
  1
担　　当
 41
0.672
  7
EXCADSTD
 72
     5
 11
272.400001
 21
33.0
 31
0.0
100
AcDbText
  0
TEXT
  5
578
100
AcDbEntity
  8
LAY-10
  6
CONTINUOUS
 62
     4
100
AcDbText
 10
278.4
 20
33.0
 30
0.0
 40
6.0
  1
製　　図
 41
0.672
  7
EXCADSTD
 72
     5
 11
297.600001
 21
33.0
 31
0.0
100
AcDbText
  0
TEXT
  5
579
100
AcDbEntity
  8
LAY-10
  6
CONTINUOUS
 62
     4
100
AcDbText
 10
303.9
 20
33.0
 30
0.0
 40
6.0
  1
尺　　度
 41
0.672
  7
EXCADSTD
 72
     5
 11
323.100001
 21
33.0
 31
0.0
100
AcDbText
  0
TEXT
  5
57A
100
AcDbEntity
  8
LAY-10
  6
CONTINUOUS
 62
     4
100
AcDbText
 10
339.5
 20
33.0
 30
0.0
 40
6.0
  1
作成年月日
 41
0.672
  7
EXCADSTD
 72
     5
 11
363.500001
 21
33.0
 31
0.0
100
AcDbText
  0
TEXT
  5
57B
100
AcDbEntity
  8
LAY-10
  6
CONTINUOUS
 62
   134
100
AcDbText
 10
42.98
 20
20.91
 30
0.0
 40
13.0
  1
日本ドアーチエック製造株式会社
 41
0.653908
  7
EXCADSTD
 72
     5
 11
194.779994
 21
20.91
 31
0.0
100
AcDbText
  0
LINE
  5
57C
100
AcDbEntity
  8
LAY-10
  6
CONTINUOUS
 62
     1
100
AcDbLine
 10
841.0
 20
0.0
 30
0.0
 11
841.0
 21
2.0
 31
0.0
  0
LINE
  5
57D
100
AcDbEntity
  8
LAY-10
  6
CONTINUOUS
 62
     1
100
AcDbLine
 10
841.0
 20
592.0
 30
0.0
 11
841.0
 21
594.0
 31
0.0
  0
LINE
  5
57E
100
AcDbEntity
  8
LAY-10
  6
CONTINUOUS
 62
     1
100
AcDbLine
 10
841.0
 20
594.0
 30
0.0
 11
839.0
 21
594.0
 31
0.0
  0
LINE
  5
57F
100
AcDbEntity
  8
LAY-10
  6
CONTINUOUS
 62
     1
100
AcDbLine
 10
2.0
 20
594.0
 30
0.0
 11
0.0
 21
594.0
 31
0.0
  0
LINE
  5
580
100
AcDbEntity
  8
LAY-10
  6
CONTINUOUS
 62
     1
100
AcDbLine
 10
0.0
 20
594.0
 30
0.0
 11
0.0
 21
592.0
 31
0.0
  0
LINE
  5
581
100
AcDbEntity
  8
LAY-10
  6
CONTINUOUS
 62
     1
100
AcDbLine
 10
0.0
 20
2.0
 30
0.0
 11
0.0
 21
0.0
 31
0.0
  0
LINE
  5
582
100
AcDbEntity
  8
LAY-10
  6
CONTINUOUS
 62
     1
100
AcDbLine
 10
0.0
 20
0.0
 30
0.0
 11
2.0
 21
0.0
 31
0.0
  0
LINE
  5
583
100
AcDbEntity
  8
LAY-10
  6
CONTINUOUS
 62
     1
100
AcDbLine
 10
839.0
 20
0.0
 30
0.0
 11
841.0
 21
0.0
 31
0.0
  0
TEXT
  5
584
100
AcDbEntity
  8
LAY-10
  6
CONTINUOUS
 62
     4
100
AcDbText
 10
383.0
 20
33.0
 30
0.0
 40
6.0
  1
図 面 名
 41
0.57856
  7
EXCADSTD
 72
     5
 11
402.200001
 21
33.0
 31
0.0
100
AcDbText
  0
TEXT
  5
585
100
AcDbEntity
  8
LAY-10
  6
CONTINUOUS
 62
     4
100
AcDbText
 10
744.0
 20
33.0
 30
0.0
 40
6.0
  1
図面番号
 41
0.672
  7
EXCADSTD
 72
     5
 11
763.200001
 21
33.0
 31
0.0
100
AcDbText
  0
TEXT
  5
586
100
AcDbEntity
  8
LAY-10
  6
CONTINUOUS
 62
     2
100
AcDbText
 10
306.5
 20
20.2
 30
0.0
 40
6.0
  1
１／１
 41
0.672
  7
EXCADSTD
 72
     5
 11
320.900001
 21
20.2
 31
0.0
100
AcDbText
  0
TEXT
  5
587
100
AcDbEntity
  8
LAY-10
  6
CONTINUOUS
 62
     2
100
AcDbText
 10
332.6
 20
20.2
 30
0.0
 40
6.0
  1
Ｈ１４.　６.　１
 41
0.622617
  7
EXCADSTD
 72
     5
 11
371.000002
 21
20.2
 31
0.0
100
AcDbText
  0
TEXT
  5
588
100
AcDbEntity
  8
LAY-10
  6
CONTINUOUS
 62
     2
100
AcDbText
 10
406.828367
 20
19.274519
 30
0.0
 40
10.0
  1
ドアクローザ　Ｐ－２００１/Ｐ－２００２　納まり図
 41
0.663578
  7
EXCADSTD
 72
     5
 11
602.828367
 21
19.274519
 31
0.0
100
AcDbText
  0
ENDSEC
  0
SECTION
  2
OBJECTS
  0
DICTIONARY
  5
19
100
AcDbDictionary
  3
ACAD_GROUP
350
1A
  3
ACAD_MLINESTYLE
350
1B
  0
DICTIONARY
  5
1A
102
{ACAD_REACTORS
330
19
102
}
100
AcDbDictionary
  0
DICTIONARY
  5
1B
102
{ACAD_REACTORS
330
19
102
}
100
AcDbDictionary
  3
STANDARD
350
1C
  0
MLINESTYLE
  5
1C
102
{ACAD_REACTORS
330
1B
102
}
100
AcDbMlineStyle
  2
Standard
 70
     0
  3

 62
     0
 51
90.0
 52
90.0
 71
     2
 49
0.5
 62
   256
  6
ByLayer
 49
-0.5
 62
   256
  6
ByLayer
  0
ENDSEC
  0
EOF
